  0
SECTION
  2
HEADER
  9
$ACADVER
  1
AC1009
  9
$DWGCODEPAGE
  3
dos932
  9
$EXTMIN
 10
0.0
 20
0.0
 30
0.0
  9
$EXTMAX
 10
297.0
 20
210.0
 30
0.0
  9
$LIMMIN
 10
0.0
 20
0.0
  9
$LIMMAX
 10
297.0
 20
210.0
  9
$LTSCALE
 40
1.0
  9
$PDMODE
 70
     0
  0
ENDSEC
  0
SECTION
  2
TABLES
  0
TABLE
  2
VPORT
 70
     1
  0
VPORT
  2
*ACTIVE
 70
     0
 10
0.0
 20
0.0
 11
1.0
 21
1.0
 12
148.5
 22
105.0
 13
0.0
 23
0.0
 14
10.0
 24
10.0
 15
10.0
 25
10.0
 16
0.0
 26
0.0
 36
1.0
 17
0.0
 27
0.0
 37
0.0
 40
297.0
 41
1.414285714
 42
50.0
 43
0.0
 44
0.0
 50
0.0
 51
0.0
 71
     0
 72
  1000
 73
     1
 74
     3
 75
     0
 76
     0
 77
     0
 78
     0
  0
ENDTAB
  0
TABLE
  2
LTYPE
 70
     4
  0
LTYPE
  2
CONTINUOUS
 70
    64
  3
Solid line
 72
    65
 73
     0
 40
0.0
  0
LTYPE
  2
LTYPE1
 70
    64
  3
CENTER
 72
    65
 73
     4
 40
15.0
 49
10.5
 49
-1.5
 49
1.5
 49
-1.5
  0
LTYPE
  2
LTYPE2
 70
    64
  3
HIDDEN
 72
    65
 73
     2
 40
3.0
 49
1.8
 49
-1.2
  0
LTYPE
  2
LTYPE3
 70
    64
  3
PHANTOM
 72
    65
 73
     6
 40
15.0
 49
11.25
 49
-0.75
 49
0.75
 49
-0.75
 49
0.75
 49
-0.75
  0
ENDTAB
  0
TABLE
  2
LAYER
 70
   128
  0
LAYER
  2
0
 70
     0
 62
     7
  6
CONTINUOUS
  0
LAYER
  2
2
 70
     0
 62
     7
  6
CONTINUOUS
  0
LAYER
  2
3
 70
     0
 62
     7
  6
CONTINUOUS
  0
LAYER
  2
4
 70
     0
 62
     7
  6
CONTINUOUS
  0
LAYER
  2
5
 70
     0
 62
     7
  6
CONTINUOUS
  0
LAYER
  2
6
 70
     0
 62
     7
  6
CONTINUOUS
  0
LAYER
  2
7
 70
     0
 62
     7
  6
CONTINUOUS
  0
LAYER
  2
8
 70
     0
 62
     7
  6
CONTINUOUS
  0
LAYER
  2
9
 70
     0
 62
     7
  6
CONTINUOUS
  0
LAYER
  2
10
 70
     0
 62
     7
  6
CONTINUOUS
  0
LAYER
  2
11
 70
     0
 62
     7
  6
CONTINUOUS
  0
LAYER
  2
12
 70
     0
 62
     7
  6
CONTINUOUS
  0
LAYER
  2
13
 70
     0
 62
     7
  6
CONTINUOUS
  0
LAYER
  2
14
 70
     0
 62
     7
  6
CONTINUOUS
  0
LAYER
  2
15
 70
     0
 62
     7
  6
CONTINUOUS
  0
LAYER
  2
16
 70
     0
 62
     7
  6
CONTINUOUS
  0
LAYER
  2
17
 70
     0
 62
     7
  6
CONTINUOUS
  0
LAYER
  2
18
 70
     0
 62
     7
  6
CONTINUOUS
  0
LAYER
  2
19
 70
     0
 62
     7
  6
CONTINUOUS
  0
LAYER
  2
20
 70
     0
 62
     7
  6
CONTINUOUS
  0
LAYER
  2
21
 70
     0
 62
     7
  6
CONTINUOUS
  0
LAYER
  2
22
 70
     0
 62
     7
  6
CONTINUOUS
  0
LAYER
  2
23
 70
     0
 62
     7
  6
CONTINUOUS
  0
LAYER
  2
24
 70
     0
 62
     7
  6
CONTINUOUS
  0
LAYER
  2
25
 70
     0
 62
     7
  6
CONTINUOUS
  0
LAYER
  2
26
 70
     0
 62
     7
  6
CONTINUOUS
  0
LAYER
  2
27
 70
     0
 62
     7
  6
CONTINUOUS
  0
LAYER
  2
28
 70
     0
 62
     7
  6
CONTINUOUS
  0
LAYER
  2
29
 70
     0
 62
     7
  6
CONTINUOUS
  0
LAYER
  2
30
 70
     0
 62
     7
  6
CONTINUOUS
  0
LAYER
  2
31
 70
     0
 62
     7
  6
CONTINUOUS
  0
LAYER
  2
32
 70
     0
 62
     7
  6
CONTINUOUS
  0
LAYER
  2
33
 70
     0
 62
     7
  6
CONTINUOUS
  0
LAYER
  2
34
 70
     0
 62
     7
  6
CONTINUOUS
  0
LAYER
  2
35
 70
     0
 62
     7
  6
CONTINUOUS
  0
LAYER
  2
36
 70
     0
 62
     7
  6
CONTINUOUS
  0
LAYER
  2
37
 70
     0
 62
     7
  6
CONTINUOUS
  0
LAYER
  2
38
 70
     0
 62
     7
  6
CONTINUOUS
  0
LAYER
  2
39
 70
     0
 62
     7
  6
CONTINUOUS
  0
LAYER
  2
40
 70
     0
 62
     7
  6
CONTINUOUS
  0
LAYER
  2
41
 70
     0
 62
     7
  6
CONTINUOUS
  0
LAYER
  2
42
 70
     0
 62
     7
  6
CONTINUOUS
  0
LAYER
  2
43
 70
     0
 62
     7
  6
CONTINUOUS
  0
LAYER
  2
44
 70
     0
 62
     7
  6
CONTINUOUS
  0
LAYER
  2
45
 70
     0
 62
     7
  6
CONTINUOUS
  0
LAYER
  2
46
 70
     0
 62
     7
  6
CONTINUOUS
  0
LAYER
  2
47
 70
     0
 62
     7
  6
CONTINUOUS
  0
LAYER
  2
48
 70
     0
 62
     7
  6
CONTINUOUS
  0
LAYER
  2
49
 70
     0
 62
     7
  6
CONTINUOUS
  0
LAYER
  2
50
 70
     0
 62
     7
  6
CONTINUOUS
  0
LAYER
  2
51
 70
     0
 62
     7
  6
CONTINUOUS
  0
LAYER
  2
52
 70
     0
 62
     7
  6
CONTINUOUS
  0
LAYER
  2
53
 70
     0
 62
     7
  6
CONTINUOUS
  0
LAYER
  2
54
 70
     0
 62
     7
  6
CONTINUOUS
  0
LAYER
  2
55
 70
     0
 62
     7
  6
CONTINUOUS
  0
LAYER
  2
56
 70
     0
 62
     7
  6
CONTINUOUS
  0
LAYER
  2
57
 70
     0
 62
     7
  6
CONTINUOUS
  0
LAYER
  2
58
 70
     0
 62
     7
  6
CONTINUOUS
  0
LAYER
  2
59
 70
     0
 62
     7
  6
CONTINUOUS
  0
LAYER
  2
60
 70
     0
 62
     7
  6
CONTINUOUS
  0
LAYER
  2
61
 70
     0
 62
     7
  6
CONTINUOUS
  0
LAYER
  2
62
 70
     0
 62
     7
  6
CONTINUOUS
  0
LAYER
  2
63
 70
     0
 62
     7
  6
CONTINUOUS
  0
LAYER
  2
64
 70
     0
 62
     7
  6
CONTINUOUS
  0
LAYER
  2
65
 70
     0
 62
     7
  6
CONTINUOUS
  0
LAYER
  2
66
 70
     0
 62
     7
  6
CONTINUOUS
  0
LAYER
  2
67
 70
     0
 62
     7
  6
CONTINUOUS
  0
LAYER
  2
68
 70
     0
 62
     7
  6
CONTINUOUS
  0
LAYER
  2
69
 70
     0
 62
     7
  6
CONTINUOUS
  0
LAYER
  2
70
 70
     0
 62
     7
  6
CONTINUOUS
  0
LAYER
  2
71
 70
     0
 62
     7
  6
CONTINUOUS
  0
LAYER
  2
72
 70
     0
 62
     7
  6
CONTINUOUS
  0
LAYER
  2
73
 70
     0
 62
     7
  6
CONTINUOUS
  0
LAYER
  2
74
 70
     0
 62
     7
  6
CONTINUOUS
  0
LAYER
  2
75
 70
     0
 62
     7
  6
CONTINUOUS
  0
LAYER
  2
76
 70
     0
 62
     7
  6
CONTINUOUS
  0
LAYER
  2
77
 70
     0
 62
     7
  6
CONTINUOUS
  0
LAYER
  2
78
 70
     0
 62
     7
  6
CONTINUOUS
  0
LAYER
  2
79
 70
     0
 62
     7
  6
CONTINUOUS
  0
LAYER
  2
80
 70
     0
 62
     7
  6
CONTINUOUS
  0
LAYER
  2
81
 70
     0
 62
     7
  6
CONTINUOUS
  0
LAYER
  2
82
 70
     0
 62
     7
  6
CONTINUOUS
  0
LAYER
  2
83
 70
     0
 62
     7
  6
CONTINUOUS
  0
LAYER
  2
84
 70
     0
 62
     7
  6
CONTINUOUS
  0
LAYER
  2
85
 70
     0
 62
     7
  6
CONTINUOUS
  0
LAYER
  2
86
 70
     0
 62
     7
  6
CONTINUOUS
  0
LAYER
  2
87
 70
     0
 62
     7
  6
CONTINUOUS
  0
LAYER
  2
88
 70
     0
 62
     7
  6
CONTINUOUS
  0
LAYER
  2
89
 70
     0
 62
     7
  6
CONTINUOUS
  0
LAYER
  2
90
 70
     0
 62
     7
  6
CONTINUOUS
  0
LAYER
  2
91
 70
     0
 62
     7
  6
CONTINUOUS
  0
LAYER
  2
92
 70
     0
 62
     7
  6
CONTINUOUS
  0
LAYER
  2
93
 70
     0
 62
     7
  6
CONTINUOUS
  0
LAYER
  2
94
 70
     0
 62
     7
  6
CONTINUOUS
  0
LAYER
  2
95
 70
     0
 62
     7
  6
CONTINUOUS
  0
LAYER
  2
96
 70
     0
 62
     7
  6
CONTINUOUS
  0
LAYER
  2
97
 70
     0
 62
     7
  6
CONTINUOUS
  0
LAYER
  2
98
 70
     0
 62
     7
  6
CONTINUOUS
  0
LAYER
  2
99
 70
     0
 62
     7
  6
CONTINUOUS
  0
LAYER
  2
100
 70
     0
 62
     7
  6
CONTINUOUS
  0
LAYER
  2
101
 70
     0
 62
     7
  6
CONTINUOUS
  0
LAYER
  2
102
 70
     0
 62
     7
  6
CONTINUOUS
  0
LAYER
  2
103
 70
     0
 62
     7
  6
CONTINUOUS
  0
LAYER
  2
104
 70
     0
 62
     7
  6
CONTINUOUS
  0
LAYER
  2
105
 70
     0
 62
     7
  6
CONTINUOUS
  0
LAYER
  2
106
 70
     0
 62
     7
  6
CONTINUOUS
  0
LAYER
  2
107
 70
     0
 62
     7
  6
CONTINUOUS
  0
LAYER
  2
108
 70
     0
 62
     7
  6
CONTINUOUS
  0
LAYER
  2
109
 70
     0
 62
     7
  6
CONTINUOUS
  0
LAYER
  2
110
 70
     0
 62
     7
  6
CONTINUOUS
  0
LAYER
  2
111
 70
     0
 62
     7
  6
CONTINUOUS
  0
LAYER
  2
112
 70
     0
 62
     7
  6
CONTINUOUS
  0
LAYER
  2
113
 70
     0
 62
     7
  6
CONTINUOUS
  0
LAYER
  2
114
 70
     0
 62
     7
  6
CONTINUOUS
  0
LAYER
  2
115
 70
     0
 62
     7
  6
CONTINUOUS
  0
LAYER
  2
116
 70
     0
 62
     7
  6
CONTINUOUS
  0
LAYER
  2
117
 70
     0
 62
     7
  6
CONTINUOUS
  0
LAYER
  2
118
 70
     0
 62
     7
  6
CONTINUOUS
  0
LAYER
  2
119
 70
     0
 62
     7
  6
CONTINUOUS
  0
LAYER
  2
120
 70
     0
 62
     7
  6
CONTINUOUS
  0
LAYER
  2
121
 70
     0
 62
     7
  6
CONTINUOUS
  0
LAYER
  2
122
 70
     0
 62
     7
  6
CONTINUOUS
  0
LAYER
  2
123
 70
     0
 62
     7
  6
CONTINUOUS
  0
LAYER
  2
124
 70
     0
 62
     7
  6
CONTINUOUS
  0
LAYER
  2
125
 70
     0
 62
     7
  6
CONTINUOUS
  0
LAYER
  2
126
 70
     0
 62
     7
  6
CONTINUOUS
  0
LAYER
  2
127
 70
     0
 62
     7
  6
CONTINUOUS
  0
LAYER
  2
128
 70
     0
 62
     7
  6
CONTINUOUS
  0
ENDTAB
  0
TABLE
  2
STYLE
 70
    16
  0
STYLE
  2
STANDARD
 70
     0
 40
0.0
 41
1.0
 50
0.0
 71
     0
 42
0.2
  3
txt.shx
  4
extfont.shx
  0
STYLE
  2
KANJI0
 70
     0
 40
4.0
 41
0.9
 50
0.0
 71
     0
 42
4.0
  3
txt.shx
  4
extfont.shx
  0
STYLE
  2
KANJI1
 70
     0
 40
3.0
 41
0.6
 50
0.0
 71
     0
 42
3.0
  3
txt.shx
  4
extfont.shx
  0
STYLE
  2
KANJI2
 70
     0
 40
1.8
 41
0.6
 50
0.0
 71
     0
 42
1.8
  3
txt.shx
  4
extfont.shx
  0
STYLE
  2
KANJI3
 70
     0
 40
3.0
 41
0.3
 50
0.0
 71
     0
 42
3.0
  3
txt.shx
  4
extfont.shx
  0
STYLE
  2
KANJI4
 70
     0
 40
3.0
 41
1.266666667
 50
0.0
 71
     0
 42
3.0
  3
txt.shx
  4
extfont.shx
  0
STYLE
  2
KANJI5
 70
     0
 40
3.75
 41
0.9
 50
0.0
 71
     0
 42
3.75
  3
txt.shx
  4
extfont.shx
  0
STYLE
  2
KANJI6
 70
     0
 40
5.8
 41
0.827586207
 50
0.0
 71
     0
 42
5.8
  3
txt.shx
  4
extfont.shx
  0
STYLE
  2
KANJI7
 70
     0
 40
3.75
 41
0.45
 50
0.0
 71
     0
 42
3.75
  3
txt.shx
  4
extfont.shx
  0
STYLE
  2
KANJI8
 70
     0
 40
2.8125
 41
1.0
 50
0.0
 71
     0
 42
2.8125
  3
txt.shx
  4
extfont.shx
  0
STYLE
  2
KANJI9
 70
     0
 40
2.8125
 41
0.5
 50
0.0
 71
     0
 42
2.8125
  3
txt.shx
  4
extfont.shx
  0
STYLE
  2
KANJI10
 70
     0
 40
3.75
 41
1.0
 50
0.0
 71
     0
 42
3.75
  3
txt.shx
  4
extfont.shx
  0
STYLE
  2
KANJI11
 70
     0
 40
3.0
 41
1.0
 50
0.0
 71
     0
 42
3.0
  3
txt.shx
  4
extfont.shx
  0
STYLE
  2
KANJI12
 70
     0
 40
3.0
 41
1.0
 50
0.0
 71
     0
 42
3.0
  3
txt.shx
  4
extfont.shx
  0
STYLE
  2
KANJI13
 70
     0
 40
4.0
 41
0.9
 50
0.0
 71
     0
 42
4.0
  3
txt.shx
  4
extfont.shx
  0
STYLE
  2
KANJI14
 70
     0
 40
3.0
 41
0.6
 50
0.0
 71
     0
 42
3.0
  3
txt.shx
  4
extfont.shx
  0
ENDTAB
  0
TABLE
  2
VIEW
 70
     0
  0
ENDTAB
  0
ENDSEC
  0
SECTION
  2
BLOCKS
  0
ENDSEC
  0
SECTION
  2
ENTITIES
  0
LINE
  8
0
  6
CONTINUOUS
 62
     1
 10
99.281
 20
153.339
 30
0.0
 11
99.281
 21
149.339
 31
0.0
  0
LINE
  8
0
  6
CONTINUOUS
 62
     1
 10
99.281
 20
145.339
 30
0.0
 11
99.281
 21
149.339
 31
0.0
  0
LINE
  8
0
  6
CONTINUOUS
 62
     1
 10
99.281
 20
153.339
 30
0.0
 11
98.781
 21
153.339
 31
0.0
  0
LINE
  8
0
  6
CONTINUOUS
 62
     1
 10
99.281
 20
145.339
 30
0.0
 11
98.781
 21
145.339
 31
0.0
  0
LINE
  8
0
  6
CONTINUOUS
 62
     1
 10
100.281
 20
152.839
 30
0.0
 11
100.281
 21
149.339
 31
0.0
  0
LINE
  8
0
  6
CONTINUOUS
 62
     1
 10
100.281
 20
145.839
 30
0.0
 11
100.281
 21
149.339
 31
0.0
  0
LINE
  8
0
  6
CONTINUOUS
 62
     1
 10
100.281
 20
152.839
 30
0.0
 11
99.281
 21
152.839
 31
0.0
  0
LINE
  8
0
  6
CONTINUOUS
 62
     1
 10
100.281
 20
145.839
 30
0.0
 11
99.281
 21
145.839
 31
0.0
  0
LINE
  8
0
  6
CONTINUOUS
 62
     1
 10
100.281
 20
149.589
 30
0.0
 11
99.281
 21
149.589
 31
0.0
  0
LINE
  8
0
  6
CONTINUOUS
 62
     1
 10
100.281
 20
149.089
 30
0.0
 11
99.281
 21
149.089
 31
0.0
  0
LINE
  8
0
  6
CONTINUOUS
 62
     1
 10
100.281
 20
152.339
 30
0.0
 11
100.781
 21
152.339
 31
0.0
  0
ARC
  8
0
  6
CONTINUOUS
 62
     1
 10
100.781
 20
150.339
 30
0.0
 40
2.0
 50
0.0
 51
90.0
  0
LINE
  8
0
  6
CONTINUOUS
 62
     1
 10
100.281
 20
146.339
 30
0.0
 11
100.781
 21
146.339
 31
0.0
  0
ARC
  8
0
  6
CONTINUOUS
 62
     1
 10
100.781
 20
148.339
 30
0.0
 40
2.0
 50
270.0
 51
0.0
  0
LINE
  8
0
  6
CONTINUOUS
 62
     1
 10
102.781
 20
149.589
 30
0.0
 11
102.281
 21
149.589
 31
0.0
  0
LINE
  8
0
  6
CONTINUOUS
 62
     1
 10
102.781
 20
149.089
 30
0.0
 11
102.281
 21
149.089
 31
0.0
  0
LINE
  8
0
  6
CONTINUOUS
 62
     1
 10
102.781
 20
149.089
 30
0.0
 11
102.781
 21
148.339
 31
0.0
  0
LINE
  8
0
  6
CONTINUOUS
 62
     1
 10
102.781
 20
150.339
 30
0.0
 11
102.781
 21
149.589
 31
0.0
  0
LINE
  8
0
  6
CONTINUOUS
 62
     1
 10
102.281
 20
149.589
 30
0.0
 11
102.281
 21
149.089
 31
0.0
  0
ARC
  8
0
  6
CONTINUOUS
 62
     1
 10
85.781
 20
135.850938698
 30
0.0
 40
2.0
 50
106.699244234
 51
180.0
  0
ARC
  8
0
  6
CONTINUOUS
 62
     1
 10
85.781
 20
162.827061302
 30
0.0
 40
2.0
 50
180.0
 51
253.300755766
  0
LINE
  8
0
  6
CONTINUOUS
 62
     1
 10
83.781
 20
135.850938698
 30
0.0
 11
83.781
 21
162.827061302
 31
0.0
  0
LINE
  8
0
  6
CONTINUOUS
 62
     1
 10
83.781
 20
162.827061302
 30
0.0
 11
83.781
 21
168.339
 31
0.0
  0
ARC
  8
0
  6
CONTINUOUS
 62
     1
 10
82.781
 20
168.339
 30
0.0
 40
1.0
 50
0.0
 51
90.0
  0
LINE
  8
0
  6
CONTINUOUS
 62
     1
 10
83.781
 20
130.339
 30
0.0
 11
83.781
 21
135.850938698
 31
0.0
  0
ARC
  8
0
  6
CONTINUOUS
 62
     1
 10
82.781
 20
130.339
 30
0.0
 40
1.0
 50
270.0
 51
0.0
  0
LINE
  8
0
  6
CONTINUOUS
 62
     1
 10
65.281
 20
128.339
 30
0.0
 11
67.281
 21
128.339
 31
0.0
  0
LINE
  8
0
  6
CONTINUOUS
 62
     1
 10
65.281
 20
128.339
 30
0.0
 11
64.781
 21
128.839
 31
0.0
  0
LINE
  8
0
  6
CONTINUOUS
 62
     1
 10
67.281
 20
128.339
 30
0.0
 11
67.781
 21
128.839
 31
0.0
  0
LINE
  8
0
  6
CONTINUOUS
 62
     1
 10
76.281
 20
129.339
 30
0.0
 11
82.781
 21
129.339
 31
0.0
  0
LINE
  8
0
  6
CONTINUOUS
 62
     1
 10
65.281
 20
135.339
 30
0.0
 11
67.281
 21
135.339
 31
0.0
  0
LINE
  8
0
  6
CONTINUOUS
 62
     1
 10
67.281
 20
135.339
 30
0.0
 11
67.781
 21
135.839
 31
0.0
  0
LINE
  8
0
  6
CONTINUOUS
 62
     1
 10
65.281
 20
135.339
 30
0.0
 11
64.781
 21
135.839
 31
0.0
  0
LINE
  8
0
  6
CONTINUOUS
 62
     1
 10
67.281
 20
135.339
 30
0.0
 11
67.281
 21
128.339
 31
0.0
  0
LINE
  8
0
  6
CONTINUOUS
 62
     1
 10
65.281
 20
135.339
 30
0.0
 11
65.281
 21
128.339
 31
0.0
  0
LINE
  8
0
  6
CONTINUOUS
 62
     1
 10
64.781
 20
135.839
 30
0.0
 11
56.281
 21
135.839
 31
0.0
  0
LINE
  8
0
  6
CONTINUOUS
 62
     1
 10
67.781
 20
135.839
 30
0.0
 11
76.281
 21
135.839
 31
0.0
  0
LINE
  8
0
  6
CONTINUOUS
 62
     1
 10
64.781
 20
135.839
 30
0.0
 11
64.781
 21
128.839
 31
0.0
  0
LINE
  8
0
  6
CONTINUOUS
 62
     1
 10
67.781
 20
135.839
 30
0.0
 11
67.781
 21
128.839
 31
0.0
  0
LINE
  8
0
  6
CONTINUOUS
 62
     1
 10
76.281
 20
135.339
 30
0.0
 11
76.781
 21
135.339
 31
0.0
  0
LINE
  8
0
  6
CONTINUOUS
 62
     1
 10
76.781
 20
131.839
 30
0.0
 11
76.781
 21
135.339
 31
0.0
  0
LINE
  8
0
  6
CONTINUOUS
 62
     1
 10
76.781
 20
131.839
 30
0.0
 11
76.281
 21
131.839
 31
0.0
  0
ARC
  8
0
  6
CONTINUOUS
 62
     1
 10
72.031
 20
133.339
 30
0.0
 40
2.5
 50
216.869897646
 51
323.130102354
  0
ARC
  8
0
  6
CONTINUOUS
 62
     1
 10
72.031
 20
131.839
 30
0.0
 40
2.0
 50
0.0
 51
180.0
  0
LINE
  8
0
  6
CONTINUOUS
 62
     1
 10
67.781
 20
128.839
 30
0.0
 11
75.781
 21
128.839
 31
0.0
  0
ARC
  8
0
  6
CONTINUOUS
 62
     1
 10
75.781
 20
129.339
 30
0.0
 40
0.5
 50
270.0
 51
0.0
  0
LINE
  8
0
  6
CONTINUOUS
 62
     1
 10
56.781
 20
128.839
 30
0.0
 11
64.781
 21
128.839
 31
0.0
  0
ARC
  8
0
  6
CONTINUOUS
 62
     1
 10
56.781
 20
129.339
 30
0.0
 40
0.5
 50
180.0
 51
270.0
  0
ARC
  8
0
  6
CONTINUOUS
 62
     1
 10
72.031
 20
132.672333333
 30
0.0
 40
2.166666667
 50
337.380135052
 51
202.619864948
  0
ARC
  8
0
  6
CONTINUOUS
 62
     1
 10
72.031
 20
132.589
 30
0.0
 40
1.75
 50
8.213210702
 51
171.786789298
  0
LINE
  8
0
  6
CONTINUOUS
 62
     1
 10
33.281
 20
153.339
 30
0.0
 11
33.281
 21
149.339
 31
0.0
  0
LINE
  8
0
  6
CONTINUOUS
 62
     1
 10
33.281
 20
145.339
 30
0.0
 11
33.281
 21
149.339
 31
0.0
  0
LINE
  8
0
  6
CONTINUOUS
 62
     1
 10
33.281
 20
153.339
 30
0.0
 11
33.781
 21
153.339
 31
0.0
  0
LINE
  8
0
  6
CONTINUOUS
 62
     1
 10
33.281
 20
145.339
 30
0.0
 11
33.781
 21
145.339
 31
0.0
  0
LINE
  8
0
  6
CONTINUOUS
 62
     1
 10
32.281
 20
152.839
 30
0.0
 11
32.281
 21
149.339
 31
0.0
  0
LINE
  8
0
  6
CONTINUOUS
 62
     1
 10
32.281
 20
145.839
 30
0.0
 11
32.281
 21
149.339
 31
0.0
  0
LINE
  8
0
  6
CONTINUOUS
 62
     1
 10
32.281
 20
152.839
 30
0.0
 11
33.281
 21
152.839
 31
0.0
  0
LINE
  8
0
  6
CONTINUOUS
 62
     1
 10
32.281
 20
145.839
 30
0.0
 11
33.281
 21
145.839
 31
0.0
  0
LINE
  8
0
  6
CONTINUOUS
 62
     1
 10
32.281
 20
149.589
 30
0.0
 11
33.281
 21
149.589
 31
0.0
  0
LINE
  8
0
  6
CONTINUOUS
 62
     1
 10
32.281
 20
149.089
 30
0.0
 11
33.281
 21
149.089
 31
0.0
  0
LINE
  8
0
  6
CONTINUOUS
 62
     1
 10
32.281
 20
152.339
 30
0.0
 11
31.781
 21
152.339
 31
0.0
  0
ARC
  8
0
  6
CONTINUOUS
 62
     1
 10
31.781
 20
150.339
 30
0.0
 40
2.0
 50
90.0
 51
180.0
  0
LINE
  8
0
  6
CONTINUOUS
 62
     1
 10
32.281
 20
146.339
 30
0.0
 11
31.781
 21
146.339
 31
0.0
  0
ARC
  8
0
  6
CONTINUOUS
 62
     1
 10
31.781
 20
148.339
 30
0.0
 40
2.0
 50
180.0
 51
270.0
  0
LINE
  8
0
  6
CONTINUOUS
 62
     1
 10
29.781
 20
149.589
 30
0.0
 11
30.281
 21
149.589
 31
0.0
  0
LINE
  8
0
  6
CONTINUOUS
 62
     1
 10
29.781
 20
149.089
 30
0.0
 11
30.281
 21
149.089
 31
0.0
  0
LINE
  8
0
  6
CONTINUOUS
 62
     1
 10
29.781
 20
149.089
 30
0.0
 11
29.781
 21
148.339
 31
0.0
  0
LINE
  8
0
  6
CONTINUOUS
 62
     1
 10
29.781
 20
150.339
 30
0.0
 11
29.781
 21
149.589
 31
0.0
  0
LINE
  8
0
  6
CONTINUOUS
 62
     1
 10
30.281
 20
149.589
 30
0.0
 11
30.281
 21
149.089
 31
0.0
  0
ARC
  8
0
  6
CONTINUOUS
 62
     1
 10
46.781
 20
135.850938698
 30
0.0
 40
2.0
 50
0.0
 51
73.300755766
  0
ARC
  8
0
  6
CONTINUOUS
 62
     1
 10
46.781
 20
162.827061302
 30
0.0
 40
2.0
 50
286.699244234
 51
0.0
  0
LINE
  8
0
  6
CONTINUOUS
 62
     1
 10
48.781
 20
135.850938698
 30
0.0
 11
48.781
 21
162.827061302
 31
0.0
  0
LINE
  8
0
  6
CONTINUOUS
 62
     1
 10
48.781
 20
130.339
 30
0.0
 11
48.781
 21
135.850938698
 31
0.0
  0
LINE
  8
0
  6
CONTINUOUS
 62
     1
 10
49.781
 20
129.339
 30
0.0
 11
56.281
 21
129.339
 31
0.0
  0
LINE
  8
0
  6
CONTINUOUS
 62
     1
 10
48.781
 20
168.339
 30
0.0
 11
48.781
 21
130.339
 31
0.0
  0
ARC
  8
0
  6
CONTINUOUS
 62
     1
 10
49.781
 20
130.339
 30
0.0
 40
1.0
 50
180.0
 51
270.0
  0
LINE
  8
0
  6
CONTINUOUS
 62
     1
 10
82.781
 20
169.339
 30
0.0
 11
49.781
 21
169.339
 31
0.0
  0
LINE
  8
0
  6
CONTINUOUS
 62
     1
 10
48.781
 20
162.827061302
 30
0.0
 11
48.781
 21
168.339
 31
0.0
  0
ARC
  8
0
  6
CONTINUOUS
 62
     1
 10
49.781
 20
168.339
 30
0.0
 40
1.0
 50
90.0
 51
180.0
  0
LINE
  8
0
  6
CONTINUOUS
 62
     1
 10
73.231
 20
132.439
 30
0.0
 11
73.631
 21
132.139
 31
0.0
  0
LINE
  8
0
  6
CONTINUOUS
 62
     1
 10
70.831
 20
132.439
 30
0.0
 11
70.431
 21
132.139
 31
0.0
  0
LINE
  8
0
  6
CONTINUOUS
 62
     1
 10
71.531
 20
132.672333333
 30
0.0
 11
72.531
 21
132.672333333
 31
0.0
  0
LINE
  8
0
  6
CONTINUOUS
 62
     1
 10
72.531
 20
131.402508327
 30
0.0
 11
72.531
 21
130.890291758
 31
0.0
  0
LINE
  8
0
  6
CONTINUOUS
 62
     1
 10
71.531
 20
131.402508327
 30
0.0
 11
71.531
 21
130.893916059
 31
0.0
  0
LINE
  8
0
  6
CONTINUOUS
 62
     1
 10
71.531
 20
132.672333333
 30
0.0
 11
71.531
 21
131.924786438
 31
0.0
  0
ARC
  8
0
  6
CONTINUOUS
 62
     1
 10
72.031
 20
133.339
 30
0.0
 40
1.5
 50
216.869897646
 51
250.528779366
  0
ARC
  8
0
  6
CONTINUOUS
 62
     1
 10
72.031
 20
133.339
 30
0.0
 40
2.0
 50
284.477512186
 51
323.130102354
  0
ARC
  8
0
  6
CONTINUOUS
 62
     1
 10
72.031
 20
133.339
 30
0.0
 40
2.0
 50
216.869897646
 51
255.522487814
  0
LINE
  8
0
  6
CONTINUOUS
 62
     1
 10
72.531
 20
132.672333333
 30
0.0
 11
72.531
 21
131.924786438
 31
0.0
  0
ARC
  8
0
  6
CONTINUOUS
 62
     1
 10
72.031
 20
133.339
 30
0.0
 40
1.5
 50
289.471220635
 51
323.130102354
  0
ARC
  8
0
  6
CONTINUOUS
 62
     1
 10
60.673
 20
133.339
 30
0.0
 40
2.5
 50
216.869897646
 51
323.130102354
  0
ARC
  8
0
  6
CONTINUOUS
 62
     1
 10
60.673
 20
131.839
 30
0.0
 40
2.0
 50
0.0
 51
180.0
  0
ARC
  8
0
  6
CONTINUOUS
 62
     1
 10
60.673
 20
132.672333333
 30
0.0
 40
2.166666667
 50
337.380135052
 51
202.619864948
  0
ARC
  8
0
  6
CONTINUOUS
 62
     1
 10
60.673
 20
132.589
 30
0.0
 40
1.75
 50
8.213210702
 51
171.786789298
  0
LINE
  8
0
  6
CONTINUOUS
 62
     1
 10
59.473
 20
132.439
 30
0.0
 11
59.073
 21
132.139
 31
0.0
  0
LINE
  8
0
  6
CONTINUOUS
 62
     1
 10
61.873
 20
132.439
 30
0.0
 11
62.273
 21
132.139
 31
0.0
  0
LINE
  8
0
  6
CONTINUOUS
 62
     1
 10
61.173
 20
132.672333333
 30
0.0
 11
60.173
 21
132.672333333
 31
0.0
  0
LINE
  8
0
  6
CONTINUOUS
 62
     1
 10
60.173
 20
131.402508327
 30
0.0
 11
60.173
 21
130.890291758
 31
0.0
  0
LINE
  8
0
  6
CONTINUOUS
 62
     1
 10
61.173
 20
131.402508327
 30
0.0
 11
61.173
 21
130.893916059
 31
0.0
  0
LINE
  8
0
  6
CONTINUOUS
 62
     1
 10
61.173
 20
132.672333333
 30
0.0
 11
61.173
 21
131.924786438
 31
0.0
  0
ARC
  8
0
  6
CONTINUOUS
 62
     1
 10
60.673
 20
133.339
 30
0.0
 40
1.5
 50
289.471220634
 51
323.130102354
  0
ARC
  8
0
  6
CONTINUOUS
 62
     1
 10
60.673
 20
133.339
 30
0.0
 40
2.0
 50
216.869897646
 51
255.522487814
  0
ARC
  8
0
  6
CONTINUOUS
 62
     1
 10
60.673
 20
133.339
 30
0.0
 40
2.0
 50
284.477512186
 51
323.130102354
  0
LINE
  8
0
  6
CONTINUOUS
 62
     1
 10
60.173
 20
132.672333333
 30
0.0
 11
60.173
 21
131.924786438
 31
0.0
  0
ARC
  8
0
  6
CONTINUOUS
 62
     1
 10
60.673
 20
133.339
 30
0.0
 40
1.5
 50
216.869897646
 51
250.528779365
  0
POLYLINE
  8
0
  6
CONTINUOUS
 62
     1
 66
     1
  0
VERTEX
  8
0
  6
CONTINUOUS
 62
     1
 10
73.781
 20
167.331916059
 30
0.0
  0
VERTEX
  8
0
  6
CONTINUOUS
 62
     1
 10
58.781
 20
167.331916059
 30
0.0
  0
VERTEX
  8
0
  6
CONTINUOUS
 62
     1
 10
58.781
 20
142.331916059
 30
0.0
  0
SEQEND
  0
POLYLINE
  8
0
  6
CONTINUOUS
 62
     1
 66
     1
  0
VERTEX
  8
0
  6
CONTINUOUS
 62
     1
 10
58.781
 20
142.331916059
 30
0.0
  0
VERTEX
  8
0
  6
CONTINUOUS
 62
     1
 10
73.781
 20
142.331916059
 30
0.0
  0
VERTEX
  8
0
  6
CONTINUOUS
 62
     1
 10
73.781
 20
167.331916059
 30
0.0
  0
SEQEND
  0
TEXT
  8
0
  6
CONTINUOUS
 62
     2
 10
60.781
 20
154.831916059
 30
0.4
 40
4.0
  1
銘　板
 50
0.0
 41
0.9
 51
0.0
  7
KANJI0
  0
LINE
  8
0
  6
CONTINUOUS
 62
     1
 10
56.281
 20
135.339
 30
0.0
 11
55.781
 21
135.339
 31
0.0
  0
LINE
  8
0
  6
CONTINUOUS
 62
     1
 10
55.781
 20
131.839
 30
0.0
 11
55.781
 21
135.339
 31
0.0
  0
LINE
  8
0
  6
CONTINUOUS
 62
     1
 10
55.781
 20
131.839
 30
0.0
 11
56.281
 21
131.839
 31
0.0
  0
LINE
  8
0
  6
CONTINUOUS
 62
     1
 10
99.281
 20
80.439
 30
0.0
 11
99.281
 21
76.439
 31
0.0
  0
LINE
  8
0
  6
CONTINUOUS
 62
     1
 10
99.281
 20
72.439
 30
0.0
 11
99.281
 21
76.439
 31
0.0
  0
LINE
  8
0
  6
CONTINUOUS
 62
     1
 10
99.281
 20
80.439
 30
0.0
 11
98.781
 21
80.439
 31
0.0
  0
LINE
  8
0
  6
CONTINUOUS
 62
     1
 10
99.281
 20
72.439
 30
0.0
 11
98.781
 21
72.439
 31
0.0
  0
LINE
  8
0
  6
CONTINUOUS
 62
     1
 10
100.281
 20
79.939
 30
0.0
 11
100.281
 21
76.439
 31
0.0
  0
LINE
  8
0
  6
CONTINUOUS
 62
     1
 10
100.281
 20
72.939
 30
0.0
 11
100.281
 21
76.439
 31
0.0
  0
LINE
  8
0
  6
CONTINUOUS
 62
     1
 10
100.281
 20
79.939
 30
0.0
 11
99.281
 21
79.939
 31
0.0
  0
LINE
  8
0
  6
CONTINUOUS
 62
     1
 10
100.281
 20
72.939
 30
0.0
 11
99.281
 21
72.939
 31
0.0
  0
LINE
  8
0
  6
CONTINUOUS
 62
     1
 10
100.281
 20
76.689
 30
0.0
 11
99.281
 21
76.689
 31
0.0
  0
LINE
  8
0
  6
CONTINUOUS
 62
     1
 10
100.281
 20
76.189
 30
0.0
 11
99.281
 21
76.189
 31
0.0
  0
LINE
  8
0
  6
CONTINUOUS
 62
     1
 10
100.281
 20
79.439
 30
0.0
 11
100.781
 21
79.439
 31
0.0
  0
ARC
  8
0
  6
CONTINUOUS
 62
     1
 10
100.781
 20
77.439
 30
0.0
 40
2.0
 50
0.0
 51
90.0
  0
LINE
  8
0
  6
CONTINUOUS
 62
     1
 10
100.281
 20
73.439
 30
0.0
 11
100.781
 21
73.439
 31
0.0
  0
ARC
  8
0
  6
CONTINUOUS
 62
     1
 10
100.781
 20
75.439
 30
0.0
 40
2.0
 50
270.0
 51
0.0
  0
LINE
  8
0
  6
CONTINUOUS
 62
     1
 10
102.781
 20
76.689
 30
0.0
 11
102.281
 21
76.689
 31
0.0
  0
LINE
  8
0
  6
CONTINUOUS
 62
     1
 10
102.781
 20
76.189
 30
0.0
 11
102.281
 21
76.189
 31
0.0
  0
LINE
  8
0
  6
CONTINUOUS
 62
     1
 10
102.781
 20
76.189
 30
0.0
 11
102.781
 21
75.439
 31
0.0
  0
LINE
  8
0
  6
CONTINUOUS
 62
     1
 10
102.781
 20
77.439
 30
0.0
 11
102.781
 21
76.689
 31
0.0
  0
LINE
  8
0
  6
CONTINUOUS
 62
     1
 10
102.281
 20
76.689
 30
0.0
 11
102.281
 21
76.189
 31
0.0
  0
ARC
  8
0
  6
CONTINUOUS
 62
     1
 10
85.781
 20
62.950938698
 30
0.0
 40
2.0
 50
106.699244234
 51
180.0
  0
ARC
  8
0
  6
CONTINUOUS
 62
     1
 10
85.781
 20
89.927061302
 30
0.0
 40
2.0
 50
180.0
 51
253.300755766
  0
LINE
  8
0
  6
CONTINUOUS
 62
     1
 10
83.781
 20
62.950938698
 30
0.0
 11
83.781
 21
89.927061302
 31
0.0
  0
LINE
  8
0
  6
CONTINUOUS
 62
     1
 10
83.781
 20
89.927061302
 30
0.0
 11
83.781
 21
95.439
 31
0.0
  0
ARC
  8
0
  6
CONTINUOUS
 62
     1
 10
82.781
 20
95.439
 30
0.0
 40
1.0
 50
0.0
 51
90.0
  0
LINE
  8
0
  6
CONTINUOUS
 62
     1
 10
83.781
 20
57.439
 30
0.0
 11
83.781
 21
62.950938698
 31
0.0
  0
ARC
  8
0
  6
CONTINUOUS
 62
     1
 10
82.781
 20
57.439
 30
0.0
 40
1.0
 50
270.0
 51
0.0
  0
LINE
  8
0
  6
CONTINUOUS
 62
     1
 10
76.281
 20
56.439
 30
0.0
 11
82.781
 21
56.439
 31
0.0
  0
LINE
  8
0
  6
CONTINUOUS
 62
     1
 10
33.281
 20
80.439
 30
0.0
 11
33.281
 21
76.439
 31
0.0
  0
LINE
  8
0
  6
CONTINUOUS
 62
     1
 10
33.281
 20
72.439
 30
0.0
 11
33.281
 21
76.439
 31
0.0
  0
LINE
  8
0
  6
CONTINUOUS
 62
     1
 10
33.281
 20
80.439
 30
0.0
 11
33.781
 21
80.439
 31
0.0
  0
LINE
  8
0
  6
CONTINUOUS
 62
     1
 10
33.281
 20
72.439
 30
0.0
 11
33.781
 21
72.439
 31
0.0
  0
LINE
  8
0
  6
CONTINUOUS
 62
     1
 10
32.281
 20
79.939
 30
0.0
 11
32.281
 21
76.439
 31
0.0
  0
LINE
  8
0
  6
CONTINUOUS
 62
     1
 10
32.281
 20
72.939
 30
0.0
 11
32.281
 21
76.439
 31
0.0
  0
LINE
  8
0
  6
CONTINUOUS
 62
     1
 10
32.281
 20
79.939
 30
0.0
 11
33.281
 21
79.939
 31
0.0
  0
LINE
  8
0
  6
CONTINUOUS
 62
     1
 10
32.281
 20
72.939
 30
0.0
 11
33.281
 21
72.939
 31
0.0
  0
LINE
  8
0
  6
CONTINUOUS
 62
     1
 10
32.281
 20
76.689
 30
0.0
 11
33.281
 21
76.689
 31
0.0
  0
LINE
  8
0
  6
CONTINUOUS
 62
     1
 10
32.281
 20
76.189
 30
0.0
 11
33.281
 21
76.189
 31
0.0
  0
LINE
  8
0
  6
CONTINUOUS
 62
     1
 10
32.281
 20
79.439
 30
0.0
 11
31.781
 21
79.439
 31
0.0
  0
ARC
  8
0
  6
CONTINUOUS
 62
     1
 10
31.781
 20
77.439
 30
0.0
 40
2.0
 50
90.0
 51
180.0
  0
LINE
  8
0
  6
CONTINUOUS
 62
     1
 10
32.281
 20
73.439
 30
0.0
 11
31.781
 21
73.439
 31
0.0
  0
ARC
  8
0
  6
CONTINUOUS
 62
     1
 10
31.781
 20
75.439
 30
0.0
 40
2.0
 50
180.0
 51
270.0
  0
LINE
  8
0
  6
CONTINUOUS
 62
     1
 10
29.781
 20
76.689
 30
0.0
 11
30.281
 21
76.689
 31
0.0
  0
LINE
  8
0
  6
CONTINUOUS
 62
     1
 10
29.781
 20
76.189
 30
0.0
 11
30.281
 21
76.189
 31
0.0
  0
LINE
  8
0
  6
CONTINUOUS
 62
     1
 10
29.781
 20
76.189
 30
0.0
 11
29.781
 21
75.439
 31
0.0
  0
LINE
  8
0
  6
CONTINUOUS
 62
     1
 10
29.781
 20
77.439
 30
0.0
 11
29.781
 21
76.689
 31
0.0
  0
LINE
  8
0
  6
CONTINUOUS
 62
     1
 10
30.281
 20
76.689
 30
0.0
 11
30.281
 21
76.189
 31
0.0
  0
ARC
  8
0
  6
CONTINUOUS
 62
     1
 10
46.781
 20
62.950938698
 30
0.0
 40
2.0
 50
0.0
 51
73.300755766
  0
ARC
  8
0
  6
CONTINUOUS
 62
     1
 10
46.781
 20
89.927061302
 30
0.0
 40
2.0
 50
286.699244234
 51
0.0
  0
LINE
  8
0
  6
CONTINUOUS
 62
     1
 10
48.781
 20
62.950938698
 30
0.0
 11
48.781
 21
89.927061302
 31
0.0
  0
LINE
  8
0
  6
CONTINUOUS
 62
     1
 10
48.781
 20
57.439
 30
0.0
 11
48.781
 21
62.950938698
 31
0.0
  0
LINE
  8
0
  6
CONTINUOUS
 62
     1
 10
49.781
 20
56.439
 30
0.0
 11
56.281
 21
56.439
 31
0.0
  0
LINE
  8
0
  6
CONTINUOUS
 62
     1
 10
48.781
 20
95.439
 30
0.0
 11
48.781
 21
57.439
 31
0.0
  0
ARC
  8
0
  6
CONTINUOUS
 62
     1
 10
49.781
 20
57.439
 30
0.0
 40
1.0
 50
180.0
 51
270.0
  0
LINE
  8
0
  6
CONTINUOUS
 62
     1
 10
48.781
 20
89.927061302
 30
0.0
 11
48.781
 21
95.439
 31
0.0
  0
ARC
  8
0
  6
CONTINUOUS
 62
     1
 10
49.781
 20
95.439
 30
0.0
 40
1.0
 50
90.0
 51
180.0
  0
LINE
  8
0
  6
CONTINUOUS
 62
     1
 10
67.281
 20
98.439
 30
0.0
 11
65.281
 21
98.439
 31
0.0
  0
LINE
  8
0
  6
CONTINUOUS
 62
     1
 10
67.281
 20
98.439
 30
0.0
 11
67.781
 21
97.939
 31
0.0
  0
LINE
  8
0
  6
CONTINUOUS
 62
     1
 10
65.281
 20
98.439
 30
0.0
 11
64.781
 21
97.939
 31
0.0
  0
LINE
  8
0
  6
CONTINUOUS
 62
     1
 10
67.281
 20
91.439
 30
0.0
 11
65.281
 21
91.439
 31
0.0
  0
LINE
  8
0
  6
CONTINUOUS
 62
     1
 10
65.281
 20
91.439
 30
0.0
 11
64.781
 21
90.939
 31
0.0
  0
LINE
  8
0
  6
CONTINUOUS
 62
     1
 10
67.281
 20
91.439
 30
0.0
 11
67.781
 21
90.939
 31
0.0
  0
LINE
  8
0
  6
CONTINUOUS
 62
     1
 10
65.281
 20
91.439
 30
0.0
 11
65.281
 21
98.439
 31
0.0
  0
LINE
  8
0
  6
CONTINUOUS
 62
     1
 10
67.281
 20
91.439
 30
0.0
 11
67.281
 21
98.439
 31
0.0
  0
LINE
  8
0
  6
CONTINUOUS
 62
     1
 10
67.781
 20
90.939
 30
0.0
 11
76.281
 21
90.939
 31
0.0
  0
LINE
  8
0
  6
CONTINUOUS
 62
     1
 10
64.781
 20
90.939
 30
0.0
 11
56.281
 21
90.939
 31
0.0
  0
LINE
  8
0
  6
CONTINUOUS
 62
     1
 10
67.781
 20
90.939
 30
0.0
 11
67.781
 21
97.939
 31
0.0
  0
LINE
  8
0
  6
CONTINUOUS
 62
     1
 10
64.781
 20
90.939
 30
0.0
 11
64.781
 21
97.939
 31
0.0
  0
LINE
  8
0
  6
CONTINUOUS
 62
     1
 10
56.281
 20
91.439
 30
0.0
 11
55.781
 21
91.439
 31
0.0
  0
LINE
  8
0
  6
CONTINUOUS
 62
     1
 10
55.781
 20
94.939
 30
0.0
 11
55.781
 21
91.439
 31
0.0
  0
LINE
  8
0
  6
CONTINUOUS
 62
     1
 10
55.781
 20
94.939
 30
0.0
 11
56.281
 21
94.939
 31
0.0
  0
ARC
  8
0
  6
CONTINUOUS
 62
     1
 10
60.531
 20
93.439
 30
0.0
 40
2.5
 50
36.869897646
 51
143.130102354
  0
ARC
  8
0
  6
CONTINUOUS
 62
     1
 10
60.531
 20
94.939
 30
0.0
 40
2.0
 50
180.0
 51
0.0
  0
LINE
  8
0
  6
CONTINUOUS
 62
     1
 10
64.781
 20
97.939
 30
0.0
 11
56.781
 21
97.939
 31
0.0
  0
ARC
  8
0
  6
CONTINUOUS
 62
     1
 10
56.781
 20
97.439
 30
0.0
 40
0.5
 50
90.0
 51
180.0
  0
LINE
  8
0
  6
CONTINUOUS
 62
     1
 10
75.781
 20
97.939
 30
0.0
 11
67.781
 21
97.939
 31
0.0
  0
ARC
  8
0
  6
CONTINUOUS
 62
     1
 10
75.781
 20
97.439
 30
0.0
 40
0.5
 50
0.0
 51
90.0
  0
ARC
  8
0
  6
CONTINUOUS
 62
     1
 10
60.531
 20
94.105666667
 30
0.0
 40
2.166666667
 50
157.380135052
 51
22.619864948
  0
ARC
  8
0
  6
CONTINUOUS
 62
     1
 10
60.531
 20
94.189
 30
0.0
 40
1.75
 50
188.213210702
 51
351.786789298
  0
LINE
  8
0
  6
CONTINUOUS
 62
     1
 10
59.331
 20
94.339
 30
0.0
 11
58.931
 21
94.639
 31
0.0
  0
LINE
  8
0
  6
CONTINUOUS
 62
     1
 10
61.731
 20
94.339
 30
0.0
 11
62.131
 21
94.639
 31
0.0
  0
LINE
  8
0
  6
CONTINUOUS
 62
     1
 10
61.031
 20
94.105666667
 30
0.0
 11
60.031
 21
94.105666667
 31
0.0
  0
LINE
  8
0
  6
CONTINUOUS
 62
     1
 10
60.031
 20
95.375491673
 30
0.0
 11
60.031
 21
95.887708242
 31
0.0
  0
LINE
  8
0
  6
CONTINUOUS
 62
     1
 10
61.031
 20
95.375491673
 30
0.0
 11
61.031
 21
95.884083941
 31
0.0
  0
LINE
  8
0
  6
CONTINUOUS
 62
     1
 10
61.031
 20
94.105666667
 30
0.0
 11
61.031
 21
94.853213562
 31
0.0
  0
ARC
  8
0
  6
CONTINUOUS
 62
     1
 10
60.531
 20
93.439
 30
0.0
 40
1.5
 50
36.869897646
 51
70.528779366
  0
ARC
  8
0
  6
CONTINUOUS
 62
     1
 10
60.531
 20
93.439
 30
0.0
 40
2.0
 50
104.477512186
 51
143.130102354
  0
ARC
  8
0
  6
CONTINUOUS
 62
     1
 10
60.531
 20
93.439
 30
0.0
 40
2.0
 50
36.869897646
 51
75.522487814
  0
LINE
  8
0
  6
CONTINUOUS
 62
     1
 10
60.031
 20
94.105666667
 30
0.0
 11
60.031
 21
94.853213562
 31
0.0
  0
ARC
  8
0
  6
CONTINUOUS
 62
     1
 10
60.531
 20
93.439
 30
0.0
 40
1.5
 50
109.471220635
 51
143.130102354
  0
ARC
  8
0
  6
CONTINUOUS
 62
     1
 10
71.889
 20
93.439
 30
0.0
 40
2.5
 50
36.869897646
 51
143.130102354
  0
ARC
  8
0
  6
CONTINUOUS
 62
     1
 10
71.889
 20
94.939
 30
0.0
 40
2.0
 50
180.0
 51
0.0
  0
ARC
  8
0
  6
CONTINUOUS
 62
     1
 10
71.889
 20
94.105666667
 30
0.0
 40
2.166666667
 50
157.380135052
 51
22.619864948
  0
ARC
  8
0
  6
CONTINUOUS
 62
     1
 10
71.889
 20
94.189
 30
0.0
 40
1.75
 50
188.213210702
 51
351.786789298
  0
LINE
  8
0
  6
CONTINUOUS
 62
     1
 10
73.089
 20
94.339
 30
0.0
 11
73.489
 21
94.639
 31
0.0
  0
LINE
  8
0
  6
CONTINUOUS
 62
     1
 10
70.689
 20
94.339
 30
0.0
 11
70.289
 21
94.639
 31
0.0
  0
LINE
  8
0
  6
CONTINUOUS
 62
     1
 10
71.389
 20
94.105666667
 30
0.0
 11
72.389
 21
94.105666667
 31
0.0
  0
LINE
  8
0
  6
CONTINUOUS
 62
     1
 10
72.389
 20
95.375491673
 30
0.0
 11
72.389
 21
95.887708242
 31
0.0
  0
LINE
  8
0
  6
CONTINUOUS
 62
     1
 10
71.389
 20
95.375491673
 30
0.0
 11
71.389
 21
95.884083941
 31
0.0
  0
LINE
  8
0
  6
CONTINUOUS
 62
     1
 10
71.389
 20
94.105666667
 30
0.0
 11
71.389
 21
94.853213562
 31
0.0
  0
ARC
  8
0
  6
CONTINUOUS
 62
     1
 10
71.889
 20
93.439
 30
0.0
 40
1.5
 50
109.471220634
 51
143.130102354
  0
ARC
  8
0
  6
CONTINUOUS
 62
     1
 10
71.889
 20
93.439
 30
0.0
 40
2.0
 50
36.869897646
 51
75.522487814
  0
ARC
  8
0
  6
CONTINUOUS
 62
     1
 10
71.889
 20
93.439
 30
0.0
 40
2.0
 50
104.477512186
 51
143.130102354
  0
LINE
  8
0
  6
CONTINUOUS
 62
     1
 10
72.389
 20
94.105666667
 30
0.0
 11
72.389
 21
94.853213562
 31
0.0
  0
ARC
  8
0
  6
CONTINUOUS
 62
     1
 10
71.889
 20
93.439
 30
0.0
 40
1.5
 50
36.869897646
 51
70.528779365
  0
LINE
  8
0
  6
CONTINUOUS
 62
     1
 10
76.281
 20
91.439
 30
0.0
 11
76.781
 21
91.439
 31
0.0
  0
LINE
  8
0
  6
CONTINUOUS
 62
     1
 10
76.781
 20
94.939
 30
0.0
 11
76.781
 21
91.439
 31
0.0
  0
LINE
  8
0
  6
CONTINUOUS
 62
     1
 10
76.781
 20
94.939
 30
0.0
 11
76.281
 21
94.939
 31
0.0
  0
LINE
  8
0
  6
CONTINUOUS
 62
     1
 10
49.781
 20
96.439
 30
0.0
 11
56.281
 21
96.439
 31
0.0
  0
LINE
  8
0
  6
CONTINUOUS
 62
     1
 10
76.281
 20
96.439
 30
0.0
 11
82.781
 21
96.439
 31
0.0
  0
LINE
  8
0
  6
CONTINUOUS
 62
     1
 10
76.281
 20
58.939
 30
0.0
 11
76.281
 21
49.939
 31
0.0
  0
LINE
  8
0
  6
CONTINUOUS
 62
     1
 10
75.781
 20
59.439
 30
0.0
 11
76.281
 21
58.939
 31
0.0
  0
LINE
  8
0
  6
CONTINUOUS
 62
     1
 10
56.281
 20
58.939
 30
0.0
 11
56.281
 21
49.939
 31
0.0
  0
LINE
  8
0
  6
CONTINUOUS
 62
     1
 10
56.781
 20
59.439
 30
0.0
 11
75.781
 21
59.439
 31
0.0
  0
LINE
  8
0
  6
CONTINUOUS
 62
     1
 10
56.281
 20
58.939
 30
0.0
 11
56.781
 21
59.439
 31
0.0
  0
LINE
  8
0
  6
CONTINUOUS
 62
     1
 10
56.281
 20
86.939
 30
0.0
 11
56.281
 21
97.439
 31
0.0
  0
LINE
  8
0
  6
CONTINUOUS
 62
     1
 10
67.781
 20
86.439
 30
0.0
 11
56.781
 21
86.439
 31
0.0
  0
LINE
  8
0
  6
CONTINUOUS
 62
     1
 10
56.281
 20
86.939
 30
0.0
 11
56.781
 21
86.439
 31
0.0
  0
LINE
  8
0
  6
CONTINUOUS
 62
     1
 10
75.781
 20
86.439
 30
0.0
 11
67.781
 21
86.439
 31
0.0
  0
LINE
  8
0
  6
CONTINUOUS
 62
     1
 10
76.281
 20
86.939
 30
0.0
 11
76.281
 21
97.439
 31
0.0
  0
LINE
  8
0
  6
CONTINUOUS
 62
     1
 10
75.781
 20
86.439
 30
0.0
 11
76.281
 21
86.939
 31
0.0
  0
LINE
  8
0
  6
CONTINUOUS
 62
     1
 10
56.781
 20
140.339
 30
0.0
 11
64.781
 21
140.339
 31
0.0
  0
LINE
  8
0
  6
CONTINUOUS
 62
     1
 10
56.281
 20
139.839
 30
0.0
 11
56.281
 21
129.339
 31
0.0
  0
LINE
  8
0
  6
CONTINUOUS
 62
     1
 10
56.781
 20
140.339
 30
0.0
 11
56.281
 21
139.839
 31
0.0
  0
LINE
  8
0
  6
CONTINUOUS
 62
     1
 10
76.281
 20
139.839
 30
0.0
 11
76.281
 21
129.339
 31
0.0
  0
LINE
  8
0
  6
CONTINUOUS
 62
     1
 10
64.781
 20
140.339
 30
0.0
 11
75.781
 21
140.339
 31
0.0
  0
LINE
  8
0
  6
CONTINUOUS
 62
     1
 10
76.281
 20
139.839
 30
0.0
 11
75.781
 21
140.339
 31
0.0
  0
ARC
  8
0
  6
CONTINUOUS
 62
     1
 10
75.580792462
 20
48.939
 30
0.0
 40
1.0
 50
20.0
 51
90.0
  0
ARC
  8
0
  6
CONTINUOUS
 62
     1
 10
56.981207538
 20
48.939
 30
0.0
 40
1.0
 50
90.0
 51
160.0
  0
ARC
  8
0
  6
CONTINUOUS
 62
     1
 10
75.020626431
 20
48.139
 30
0.0
 40
0.2
 50
20.0
 51
90.0
  0
LINE
  8
0
  6
CONTINUOUS
 62
     1
 10
57.541373569
 20
48.339
 30
0.0
 11
75.020626431
 21
48.339
 31
0.0
  0
ARC
  8
0
  6
CONTINUOUS
 62
     1
 10
57.541373569
 20
48.139
 30
0.0
 40
0.2
 50
90.0
 51
160.0
  0
LINE
  8
0
  6
CONTINUOUS
 62
     1
 10
76.520485083
 20
49.281020143
 30
0.0
 11
77.679380972
 21
46.096979857
 31
0.0
  0
ARC
  8
0
  6
CONTINUOUS
 62
     1
 10
78.619073592
 20
46.439
 30
0.0
 40
1.0
 50
200.0
 51
270.0
  0
LINE
  8
0
  6
CONTINUOUS
 62
     1
 10
75.208564955
 20
48.207404029
 30
0.0
 11
76.55904891
 21
44.496979857
 31
0.0
  0
LINE
  8
0
  6
CONTINUOUS
 62
     1
 10
77.498741531
 20
43.839
 30
0.0
 11
102.918866054
 21
43.839
 31
0.0
  0
ARC
  8
0
  6
CONTINUOUS
 62
     1
 10
77.498741531
 20
44.839
 30
0.0
 40
1.0
 50
200.0
 51
270.0
  0
LINE
  8
0
  6
CONTINUOUS
 62
     1
 10
56.041514917
 20
49.281020143
 30
0.0
 11
54.882619028
 21
46.096979857
 31
0.0
  0
ARC
  8
0
  6
CONTINUOUS
 62
     1
 10
53.942926408
 20
46.439
 30
0.0
 40
1.0
 50
270.0
 51
340.0
  0
LINE
  8
0
  6
CONTINUOUS
 62
     1
 10
55.063258469
 20
43.839
 30
0.0
 11
29.643133946
 21
43.839
 31
0.0
  0
LINE
  8
0
  6
CONTINUOUS
 62
     1
 10
57.353435045
 20
48.207404029
 30
0.0
 11
56.00295109
 21
44.496979857
 31
0.0
  0
ARC
  8
0
  6
CONTINUOUS
 62
     1
 10
55.063258469
 20
44.839
 30
0.0
 40
1.0
 50
270.0
 51
340.0
  0
LINE
  8
0
  6
CONTINUOUS
 62
     1
 10
56.281
 20
49.939
 30
0.0
 11
76.281
 21
49.939
 31
0.0
  0
LINE
  8
0
  6
LTYPE1
 62
     2
 10
109.781
 20
76.439
 30
0.0
 11
22.781
 21
76.439
 31
0.0
  0
LINE
  8
0
  6
LTYPE1
 62
     2
 10
70.941
 20
51.339
 30
0.0
 11
70.941
 21
42.839
 31
0.0
  0
LINE
  8
0
  6
LTYPE1
 62
     2
 10
61.621
 20
51.339
 30
0.0
 11
61.621
 21
42.839
 31
0.0
  0
LINE
  8
0
  6
LTYPE1
 62
     2
 10
60.531
 20
93.939
 30
0.0
 11
60.531
 21
93.939
 31
0.0
  0
LINE
  8
0
  6
LTYPE1
 62
     2
 10
60.531
 20
98.939
 30
0.0
 11
60.531
 21
88.939
 31
0.0
  0
POINT
  8
0
  6
LTYPE1
 62
     2
 10
71.889
 20
93.939
 30
0.0
  0
LINE
  8
0
  6
LTYPE1
 62
     2
 10
71.889
 20
98.939
 30
0.0
 11
71.889
 21
88.939
 31
0.0
  0
LINE
  8
0
  6
LTYPE1
 62
     2
 10
72.031
 20
132.839
 30
0.0
 11
72.031
 21
132.839
 31
0.0
  0
LINE
  8
0
  6
LTYPE1
 62
     2
 10
72.031
 20
137.839
 30
0.0
 11
72.031
 21
127.839
 31
0.0
  0
POINT
  8
0
  6
LTYPE1
 62
     2
 10
60.673
 20
132.839
 30
0.0
  0
LINE
  8
0
  6
LTYPE1
 62
     2
 10
60.673
 20
137.839
 30
0.0
 11
60.673
 21
127.839
 31
0.0
  0
CIRCLE
  8
0
  6
CONTINUOUS
 62
     1
 10
166.531
 20
76.439
 30
0.0
 40
3.0
  0
CIRCLE
  8
0
  6
CONTINUOUS
 62
     1
 10
166.531
 20
76.439
 30
0.0
 40
4.0
  0
CIRCLE
  8
0
  6
CONTINUOUS
 62
     1
 10
166.531
 20
76.439
 30
0.0
 40
12.0
  0
LINE
  8
0
  6
CONTINUOUS
 62
     1
 10
166.281
 20
78.439
 30
0.0
 11
166.781
 21
78.439
 31
0.0
  0
LINE
  8
0
  6
CONTINUOUS
 62
     1
 10
168.531
 20
76.689
 30
0.0
 11
168.531
 21
76.189
 31
0.0
  0
LINE
  8
0
  6
CONTINUOUS
 62
     1
 10
164.531
 20
76.689
 30
0.0
 11
164.531
 21
76.189
 31
0.0
  0
LINE
  8
0
  6
CONTINUOUS
 62
     1
 10
166.281
 20
74.439
 30
0.0
 11
166.781
 21
74.439
 31
0.0
  0
LINE
  8
0
  6
CONTINUOUS
 62
     1
 10
166.781
 20
78.439
 30
0.0
 11
166.781
 21
76.689
 31
0.0
  0
LINE
  8
0
  6
CONTINUOUS
 62
     1
 10
166.281
 20
76.689
 30
0.0
 11
166.281
 21
78.439
 31
0.0
  0
LINE
  8
0
  6
CONTINUOUS
 62
     1
 10
166.281
 20
78.439
 30
0.0
 11
166.281
 21
76.689
 31
0.0
  0
LINE
  8
0
  6
CONTINUOUS
 62
     1
 10
166.781
 20
76.689
 30
0.0
 11
166.781
 21
78.439
 31
0.0
  0
LINE
  8
0
  6
CONTINUOUS
 62
     1
 10
168.531
 20
76.189
 30
0.0
 11
166.781
 21
76.189
 31
0.0
  0
LINE
  8
0
  6
CONTINUOUS
 62
     1
 10
166.781
 20
76.689
 30
0.0
 11
168.531
 21
76.689
 31
0.0
  0
LINE
  8
0
  6
CONTINUOUS
 62
     1
 10
168.531
 20
76.689
 30
0.0
 11
166.781
 21
76.689
 31
0.0
  0
LINE
  8
0
  6
CONTINUOUS
 62
     1
 10
166.781
 20
76.189
 30
0.0
 11
168.531
 21
76.189
 31
0.0
  0
LINE
  8
0
  6
CONTINUOUS
 62
     1
 10
164.531
 20
76.189
 30
0.0
 11
166.281
 21
76.189
 31
0.0
  0
LINE
  8
0
  6
CONTINUOUS
 62
     1
 10
166.281
 20
76.689
 30
0.0
 11
164.531
 21
76.689
 31
0.0
  0
LINE
  8
0
  6
CONTINUOUS
 62
     1
 10
164.531
 20
76.689
 30
0.0
 11
166.281
 21
76.689
 31
0.0
  0
LINE
  8
0
  6
CONTINUOUS
 62
     1
 10
166.281
 20
76.189
 30
0.0
 11
164.531
 21
76.189
 31
0.0
  0
LINE
  8
0
  6
CONTINUOUS
 62
     1
 10
166.781
 20
74.439
 30
0.0
 11
166.781
 21
76.189
 31
0.0
  0
LINE
  8
0
  6
CONTINUOUS
 62
     1
 10
166.281
 20
76.189
 30
0.0
 11
166.281
 21
74.439
 31
0.0
  0
LINE
  8
0
  6
CONTINUOUS
 62
     1
 10
166.281
 20
74.439
 30
0.0
 11
166.281
 21
76.189
 31
0.0
  0
LINE
  8
0
  6
CONTINUOUS
 62
     1
 10
166.781
 20
76.189
 30
0.0
 11
166.781
 21
74.439
 31
0.0
  0
ARC
  8
0
  6
CONTINUOUS
 62
     1
 10
166.531
 20
76.439
 30
0.0
 40
20.0
 50
300.0
 51
0.0
  0
LINE
  8
0
  6
CONTINUOUS
 62
     1
 10
156.531
 20
43.939
 30
0.0
 11
156.531
 21
59.118491924
 31
0.0
  0
ARC
  8
0
  6
CONTINUOUS
 62
     1
 10
166.531
 20
76.439
 30
0.0
 40
20.0
 50
240.0
 51
300.0
  0
LINE
  8
0
  6
CONTINUOUS
 62
     1
 10
176.531
 20
45.539
 30
0.0
 11
176.531
 21
59.118491924
 31
0.0
  0
ARC
  8
0
  6
CONTINUOUS
 62
     1
 10
166.531
 20
76.439
 30
0.0
 40
20.0
 50
0.0
 51
120.522487814
  0
LINE
  8
0
  6
CONTINUOUS
 62
     1
 10
152.388864376
 20
97.652203436
 30
0.0
 11
156.373469968
 21
93.667597844
 31
0.0
  0
LINE
  8
0
  6
CONTINUOUS
 62
     1
 10
145.317796564
 20
90.581135624
 30
0.0
 11
149.302402156
 21
86.596530032
 31
0.0
  0
ARC
  8
0
  6
CONTINUOUS
 62
     1
 10
166.531
 20
76.439
 30
0.0
 40
20.0
 50
120.522487814
 51
149.477512186
  0
ARC
  8
0
  6
CONTINUOUS
 62
     1
 10
166.531
 20
76.439
 30
0.0
 40
20.0
 50
149.477512186
 51
240.0
  0
LINE
  8
0
  6
CONTINUOUS
 62
     1
 10
146.732010127
 20
93.409562748
 30
0.0
 11
149.560437252
 21
96.237989873
 31
0.0
  0
LINE
  8
0
  6
CONTINUOUS
 62
     1
 10
146.555233431
 20
92.525679272
 30
0.0
 11
147.085563517
 21
93.056009358
 31
0.0
  0
LINE
  8
0
  6
CONTINUOUS
 62
     1
 10
146.732010127
 20
93.409562748
 30
0.0
 11
147.085563517
 21
93.056009358
 31
0.0
  0
LINE
  8
0
  6
CONTINUOUS
 62
     1
 10
145.317796564
 20
90.581135624
 30
0.0
 11
146.908786822
 21
92.172125881
 31
0.0
  0
LINE
  8
0
  6
CONTINUOUS
 62
     1
 10
146.555233431
 20
92.525679272
 30
0.0
 11
146.908786822
 21
92.172125881
 31
0.0
  0
POLYLINE
  8
0
  6
CONTINUOUS
 62
     1
 66
     1
  0
VERTEX
  8
0
  6
CONTINUOUS
 62
     1
 10
150.444320728
 20
96.414766569
 30
0.0
  0
VERTEX
  8
0
  6
CONTINUOUS
 62
     1
 10
150.797874119
 20
96.061213178
 30
0.0
  0
VERTEX
  8
0
  6
CONTINUOUS
 62
     1
 10
152.388864376
 20
97.652203436
 30
0.0
  0
SEQEND
  0
LINE
  8
0
  6
CONTINUOUS
 62
     1
 10
149.560437252
 20
96.237989873
 30
0.0
 11
149.913990642
 21
95.884436483
 31
0.0
  0
LINE
  8
0
  6
CONTINUOUS
 62
     1
 10
147.085563517
 20
93.056009358
 30
0.0
 11
149.913990642
 21
95.884436483
 31
0.0
  0
LINE
  8
0
  6
CONTINUOUS
 62
     1
 10
149.913990642
 20
95.884436483
 30
0.0
 11
150.444320728
 21
96.414766569
 31
0.0
  0
LINE
  8
0
  6
CONTINUOUS
 62
     1
 10
148.323000384
 20
95.000553006
 30
0.0
 11
148.676553775
 21
94.646999616
 31
0.0
  0
LINE
  8
0
  6
CONTINUOUS
 62
     1
 10
147.969446994
 20
94.646999616
 30
0.0
 11
148.323000384
 21
94.293446225
 31
0.0
  0
LINE
  8
0
  6
CONTINUOUS
 62
     1
 10
146.908786822
 20
96.414766569
 30
0.0
 11
147.262340213
 21
96.061213178
 31
0.0
  0
LINE
  8
0
  6
CONTINUOUS
 62
     1
 10
146.555233431
 20
96.061213178
 30
0.0
 11
146.908786822
 21
95.707659787
 31
0.0
  0
LINE
  8
0
  6
CONTINUOUS
 62
     1
 10
147.262340213
 20
96.061213178
 30
0.0
 11
146.908786822
 21
95.707659787
 31
0.0
  0
LINE
  8
0
  6
CONTINUOUS
 62
     1
 10
146.732010127
 20
93.409562748
 30
0.0
 11
146.024903346
 21
94.11666953
 31
0.0
  0
ARC
  8
0
  6
CONTINUOUS
 62
     1
 10
146.732010127
 20
94.823776311
 30
0.0
 40
1.0
 50
135.0
 51
225.0
  0
LINE
  8
0
  6
CONTINUOUS
 62
     1
 10
149.560437252
 20
96.237989873
 30
0.0
 11
148.85333047
 21
96.945096654
 31
0.0
  0
ARC
  8
0
  6
CONTINUOUS
 62
     1
 10
148.146223689
 20
96.237989873
 30
0.0
 40
1.0
 50
45.0
 51
135.0
  0
LINE
  8
0
  6
CONTINUOUS
 62
     1
 10
146.555233431
 20
96.061213178
 30
0.0
 11
146.024903346
 21
95.530883092
 31
0.0
  0
LINE
  8
0
  6
CONTINUOUS
 62
     1
 10
147.439116908
 20
96.945096654
 30
0.0
 11
146.908786822
 21
96.414766569
 31
0.0
  0
LINE
  8
0
  6
LTYPE1
 62
     2
 10
154.51018472
 20
88.45981528
 30
0.0
 11
144.610689783
 21
98.359310217
 31
0.0
  0
LINE
  8
0
  6
CONTINUOUS
 62
     5
 10
29.796
 20
150.335
 30
0.0
 11
29.796
 21
181.339
 31
0.0
  0
LINE
  8
0
  6
CONTINUOUS
 62
     5
 10
29.796
 20
179.339
 30
0.0
 11
32.210814566
 21
178.691952387
 31
0.0
  0
LINE
  8
0
  6
CONTINUOUS
 62
     5
 10
29.796
 20
179.339
 30
0.0
 11
32.210814566
 21
179.986047613
 31
0.0
  0
LINE
  8
0
  6
CONTINUOUS
 62
     5
 10
29.796
 20
179.339
 30
0.0
 11
102.76
 21
179.339
 31
0.0
  0
LINE
  8
0
  6
CONTINUOUS
 62
     5
 10
102.76
 20
179.339
 30
0.0
 11
100.345185434
 21
179.986047613
 31
0.0
  0
LINE
  8
0
  6
CONTINUOUS
 62
     5
 10
102.76
 20
179.339
 30
0.0
 11
100.345185434
 21
178.691952387
 31
0.0
  0
LINE
  8
0
  6
CONTINUOUS
 62
     5
 10
102.76
 20
150.335
 30
0.0
 11
102.76
 21
181.339
 31
0.0
  0
TEXT
  8
0
  6
CONTINUOUS
 62
     2
 10
65.378
 20
180.339
 30
0.3
 40
3.0
  1
Ａ
 50
0.0
 41
0.6
 51
0.0
  7
KANJI1
  0
LINE
  8
0
  6
CONTINUOUS
 62
     5
 10
83.781
 20
169.339
 30
0.0
 11
114.781
 21
169.339
 31
0.0
  0
LINE
  8
0
  6
CONTINUOUS
 62
     5
 10
112.781
 20
169.339
 30
0.0
 11
112.133952387
 21
166.924185434
 31
0.0
  0
LINE
  8
0
  6
CONTINUOUS
 62
     5
 10
112.781
 20
169.339
 30
0.0
 11
113.428047613
 21
166.924185434
 31
0.0
  0
LINE
  8
0
  6
CONTINUOUS
 62
     5
 10
112.781
 20
169.339
 30
0.0
 11
112.781
 21
129.339
 31
0.0
  0
LINE
  8
0
  6
CONTINUOUS
 62
     5
 10
112.781
 20
129.339
 30
0.0
 11
113.428047613
 21
131.753814566
 31
0.0
  0
LINE
  8
0
  6
CONTINUOUS
 62
     5
 10
112.781
 20
129.339
 30
0.0
 11
112.133952387
 21
131.753814566
 31
0.0
  0
LINE
  8
0
  6
CONTINUOUS
 62
     5
 10
83.781
 20
129.339
 30
0.0
 11
114.781
 21
129.339
 31
0.0
  0
TEXT
  8
0
  6
CONTINUOUS
 62
     2
 10
111.781
 20
146.939
 30
0.3
 40
3.0
  1
Ｄ
 50
90.0
 41
0.6
 51
0.0
  7
KANJI1
  0
LINE
  8
0
  6
CONTINUOUS
 62
     5
 10
83.781
 20
169.339
 30
0.0
 11
119.781
 21
169.339
 31
0.0
  0
LINE
  8
0
  6
CONTINUOUS
 62
     5
 10
117.781
 20
169.339
 30
0.0
 11
117.133952387
 21
166.924185434
 31
0.0
  0
LINE
  8
0
  6
CONTINUOUS
 62
     5
 10
117.781
 20
169.339
 30
0.0
 11
118.428047613
 21
166.924185434
 31
0.0
  0
LINE
  8
0
  6
CONTINUOUS
 62
     5
 10
117.781
 20
169.339
 30
0.0
 11
117.781
 21
128.339
 31
0.0
  0
LINE
  8
0
  6
CONTINUOUS
 62
     5
 10
117.781
 20
128.339
 30
0.0
 11
118.428047613
 21
130.753814566
 31
0.0
  0
LINE
  8
0
  6
CONTINUOUS
 62
     5
 10
117.781
 20
128.339
 30
0.0
 11
117.133952387
 21
130.753814566
 31
0.0
  0
LINE
  8
0
  6
CONTINUOUS
 62
     5
 10
67.281
 20
128.339
 30
0.0
 11
119.781
 21
128.339
 31
0.0
  0
TEXT
  8
0
  6
CONTINUOUS
 62
     2
 10
116.781
 20
147.939
 30
0.3
 40
3.0
  1
Ｂ
 50
90.0
 41
0.6
 51
0.0
  7
KANJI1
  0
LINE
  8
0
  6
CONTINUOUS
 62
     5
 10
73.239
 20
96.089
 30
0.0
 11
74.910867756
 21
97.947724887
 31
0.0
  0
LINE
  8
0
  6
CONTINUOUS
 62
     5
 10
73.239
 20
96.089
 30
0.0
 11
73.757517505
 21
98.534636849
 31
0.0
  0
LINE
  8
0
  6
CONTINUOUS
 62
     5
 10
73.239
 20
96.089
 30
0.0
 11
77.539
 21
104.539
 31
0.0
  0
LINE
  8
0
  6
CONTINUOUS
 62
     5
 10
77.539
 20
104.539
 30
0.0
 11
94.039
 21
104.539
 31
0.0
  0
LINE
  8
0
  6
CONTINUOUS
 62
     5
 10
103.781
 20
76.439
 30
0.0
 11
114.781
 21
76.439
 31
0.0
  0
LINE
  8
0
  6
CONTINUOUS
 62
     5
 10
112.781
 20
76.439
 30
0.0
 11
112.133952387
 21
74.024185434
 31
0.0
  0
LINE
  8
0
  6
CONTINUOUS
 62
     5
 10
112.781
 20
76.439
 30
0.0
 11
113.428047613
 21
74.024185434
 31
0.0
  0
LINE
  8
0
  6
CONTINUOUS
 62
     5
 10
112.781
 20
76.439
 30
0.0
 11
112.781
 21
43.839
 31
0.0
  0
LINE
  8
0
  6
CONTINUOUS
 62
     5
 10
112.781
 20
43.839
 30
0.0
 11
113.428047613
 21
46.253814566
 31
0.0
  0
LINE
  8
0
  6
CONTINUOUS
 62
     5
 10
112.781
 20
43.839
 30
0.0
 11
112.133952387
 21
46.253814566
 31
0.0
  0
LINE
  8
0
  6
CONTINUOUS
 62
     5
 10
103.918866054
 20
43.839
 30
0.0
 11
114.781
 21
43.839
 31
0.0
  0
TEXT
  8
0
  6
CONTINUOUS
 62
     2
 10
109.981
 20
60.799
 30
0.18
 40
1.8
  1
±２
 50
90.0
 41
0.6
 51
0.0
  7
KANJI2
  0
TEXT
  8
0
  6
CONTINUOUS
 62
     2
 10
111.781
 20
58.699
 30
0.3
 40
3.0
  1
Ｉ
 50
90.0
 41
0.3
 51
0.0
  7
KANJI3
  0
LINE
  8
0
  6
CONTINUOUS
 62
     5
 10
102.118866054
 20
79.289
 30
0.0
 11
103.571825795
 21
81.323430631
 31
0.0
  0
LINE
  8
0
  6
CONTINUOUS
 62
     5
 10
102.118866054
 20
79.289
 30
0.0
 11
102.359950785
 21
81.777348479
 31
0.0
  0
LINE
  8
0
  6
CONTINUOUS
 62
     5
 10
102.118866054
 20
79.289
 30
0.0
 11
107.418866054
 21
93.439
 31
0.0
  0
LINE
  8
0
  6
CONTINUOUS
 62
     5
 10
107.418866054
 20
93.439
 30
0.0
 11
90.718866054
 21
93.439
 31
0.0
  0
TEXT
  8
0
  6
CONTINUOUS
 62
     2
 10
90.718866054
 20
94.439
 30
0.3
 40
3.0
  1
２－Ｍ６ネジ
 50
0.0
 41
1.266666667
 51
0.0
  7
KANJI4
  0
LINE
  8
0
  6
CONTINUOUS
 62
     5
 10
77.281
 20
49.939
 30
0.0
 11
109.918866054
 21
49.939
 31
0.0
  0
LINE
  8
0
  6
CONTINUOUS
 62
     5
 10
107.918866054
 20
49.939
 30
0.0
 11
108.565913667
 21
52.353814566
 31
0.0
  0
LINE
  8
0
  6
CONTINUOUS
 62
     5
 10
107.918866054
 20
49.939
 30
0.0
 11
107.271818441
 21
52.353814566
 31
0.0
  0
LINE
  8
0
  6
CONTINUOUS
 62
     5
 10
107.918866054
 20
53.689
 30
0.0
 11
107.918866054
 21
49.939
 31
0.0
  0
LINE
  8
0
  6
CONTINUOUS
 62
     5
 10
107.918866054
 20
49.939
 30
0.0
 11
107.918866054
 21
43.839
 31
0.0
  0
LINE
  8
0
  6
CONTINUOUS
 62
     5
 10
107.918866054
 20
43.839
 30
0.0
 11
107.918866054
 21
40.089
 31
0.0
  0
LINE
  8
0
  6
CONTINUOUS
 62
     5
 10
107.918866054
 20
43.839
 30
0.0
 11
107.271818441
 21
41.424185434
 31
0.0
  0
LINE
  8
0
  6
CONTINUOUS
 62
     5
 10
107.918866054
 20
43.839
 30
0.0
 11
108.565913667
 21
41.424185434
 31
0.0
  0
LINE
  8
0
  6
CONTINUOUS
 62
     5
 10
103.918866054
 20
43.839
 30
0.0
 11
109.918866054
 21
43.839
 31
0.0
  0
TEXT
  8
0
  6
CONTINUOUS
 62
     2
 10
106.918866054
 20
45.989
 30
0.3
 40
3.0
  1
Ｆ
 50
90.0
 41
0.6
 51
0.0
  7
KANJI1
  0
LINE
  8
0
  6
CONTINUOUS
 62
     5
 10
34.643133946
 20
42.839
 30
0.0
 11
34.643133946
 21
31.839
 31
0.0
  0
LINE
  8
0
  6
CONTINUOUS
 62
     5
 10
34.643133946
 20
33.839
 30
0.0
 11
37.057948512
 21
33.191952387
 31
0.0
  0
LINE
  8
0
  6
CONTINUOUS
 62
     5
 10
34.643133946
 20
33.839
 30
0.0
 11
37.057948512
 21
34.486047613
 31
0.0
  0
LINE
  8
0
  6
CONTINUOUS
 62
     5
 10
34.643133946
 20
33.839
 30
0.0
 11
97.918866054
 21
33.839
 31
0.0
  0
LINE
  8
0
  6
CONTINUOUS
 62
     5
 10
97.918866054
 20
33.839
 30
0.0
 11
95.504051488
 21
34.486047613
 31
0.0
  0
LINE
  8
0
  6
CONTINUOUS
 62
     5
 10
97.918866054
 20
33.839
 30
0.0
 11
95.504051488
 21
33.191952387
 31
0.0
  0
LINE
  8
0
  6
CONTINUOUS
 62
     5
 10
97.918866054
 20
42.839
 30
0.0
 11
97.918866054
 21
31.839
 31
0.0
  0
TEXT
  8
0
  6
CONTINUOUS
 62
     2
 10
64.841
 20
34.839
 30
0.3
 40
3.0
  1
Ｊ
 50
0.0
 41
0.6
 51
0.0
  7
KANJI1
  0
TEXT
  8
0
  6
CONTINUOUS
 62
     2
 10
66.941
 20
36.639
 30
0.18
 40
1.8
  1
±１
 50
0.0
 41
0.6
 51
0.0
  7
KANJI2
  0
LINE
  8
0
  6
LTYPE2
 62
     1
 10
34.643133946
 20
45.439
 30
0.0
 11
34.643133946
 21
43.839
 31
0.0
  0
POINT
  8
0
  6
LTYPE1
 62
     2
 10
34.643133946
 20
44.639
 30
0.0
  0
LINE
  8
0
  6
LTYPE1
 62
     2
 10
34.643133946
 20
48.439
 30
0.0
 11
34.643133946
 21
40.839
 31
0.0
  0
LINE
  8
0
  6
LTYPE2
 62
     1
 10
97.918866054
 20
45.439
 30
0.0
 11
97.918866054
 21
43.839
 31
0.0
  0
LINE
  8
0
  6
LTYPE1
 62
     2
 10
97.918866054
 20
48.439
 30
0.0
 11
97.918866054
 21
40.839
 31
0.0
  0
LINE
  8
0
  6
CONTINUOUS
 62
     5
 10
29.643133946
 20
42.839
 30
0.0
 11
29.643133946
 21
26.839
 31
0.0
  0
LINE
  8
0
  6
CONTINUOUS
 62
     5
 10
29.643133946
 20
28.839
 30
0.0
 11
32.057948512
 21
28.191952387
 31
0.0
  0
LINE
  8
0
  6
CONTINUOUS
 62
     5
 10
29.643133946
 20
28.839
 30
0.0
 11
32.057948512
 21
29.486047613
 31
0.0
  0
LINE
  8
0
  6
CONTINUOUS
 62
     5
 10
29.643133946
 20
28.839
 30
0.0
 11
102.918866054
 21
28.839
 31
0.0
  0
LINE
  8
0
  6
CONTINUOUS
 62
     5
 10
102.918866054
 20
28.839
 30
0.0
 11
100.504051488
 21
29.486047613
 31
0.0
  0
LINE
  8
0
  6
CONTINUOUS
 62
     5
 10
102.918866054
 20
28.839
 30
0.0
 11
100.504051488
 21
28.191952387
 31
0.0
  0
LINE
  8
0
  6
CONTINUOUS
 62
     5
 10
102.918866054
 20
42.839
 30
0.0
 11
102.918866054
 21
26.839
 31
0.0
  0
TEXT
  8
0
  6
CONTINUOUS
 62
     2
 10
65.381
 20
29.839
 30
0.3
 40
3.0
  1
Ｃ
 50
0.0
 41
0.6
 51
0.0
  7
KANJI1
  0
LINE
  8
0
  6
CONTINUOUS
 62
     5
 10
28.643133946
 20
45.439
 30
0.0
 11
17.643133946
 21
45.439
 31
0.0
  0
LINE
  8
0
  6
CONTINUOUS
 62
     5
 10
19.643133946
 20
45.439
 30
0.0
 11
20.290181559
 21
47.853814566
 31
0.0
  0
LINE
  8
0
  6
CONTINUOUS
 62
     5
 10
19.643133946
 20
45.439
 30
0.0
 11
18.996086333
 21
47.853814566
 31
0.0
  0
LINE
  8
0
  6
CONTINUOUS
 62
     5
 10
19.643133946
 20
55.189
 30
0.0
 11
19.643133946
 21
45.439
 31
0.0
  0
LINE
  8
0
  6
CONTINUOUS
 62
     5
 10
19.643133946
 20
45.439
 30
0.0
 11
19.643133946
 21
43.839
 31
0.0
  0
LINE
  8
0
  6
CONTINUOUS
 62
     5
 10
19.643133946
 20
43.839
 30
0.0
 11
19.643133946
 21
40.089
 31
0.0
  0
LINE
  8
0
  6
CONTINUOUS
 62
     5
 10
19.643133946
 20
43.839
 30
0.0
 11
18.996086333
 21
41.424185434
 31
0.0
  0
LINE
  8
0
  6
CONTINUOUS
 62
     5
 10
19.643133946
 20
43.839
 30
0.0
 11
20.290181559
 21
41.424185434
 31
0.0
  0
LINE
  8
0
  6
CONTINUOUS
 62
     5
 10
28.643133946
 20
43.839
 30
0.0
 11
17.643133946
 21
43.839
 31
0.0
  0
TEXT
  8
0
  6
CONTINUOUS
 62
     2
 10
18.643133946
 20
49.189
 30
0.3
 40
3.0
  1
１．６
 50
90.0
 41
0.6
 51
0.0
  7
KANJI1
  0
LINE
  8
0
  6
CONTINUOUS
 62
     5
 10
31.893133946
 20
43.539
 30
0.0
 11
30.279828447
 21
41.629223739
 31
0.0
  0
LINE
  8
0
  6
CONTINUOUS
 62
     5
 10
31.893133946
 20
43.539
 30
0.0
 11
31.450858531
 21
41.078432493
 31
0.0
  0
LINE
  8
0
  6
CONTINUOUS
 62
     5
 10
31.893133946
 20
43.539
 30
0.0
 11
19.546508179
 21
17.289
 31
0.0
  0
LINE
  8
0
  6
LTYPE1
 62
     2
 10
193.531
 20
76.439
 30
0.0
 11
139.531
 21
76.439
 31
0.0
  0
LINE
  8
0
  6
CONTINUOUS
 62
     5
 10
164.531
 20
42.939
 30
0.0
 11
164.531
 21
31.939
 31
0.0
  0
LINE
  8
0
  6
CONTINUOUS
 62
     5
 10
164.531
 20
33.939
 30
0.0
 11
162.116185434
 21
34.586047613
 31
0.0
  0
LINE
  8
0
  6
CONTINUOUS
 62
     5
 10
164.531
 20
33.939
 30
0.0
 11
162.116185434
 21
33.291952387
 31
0.0
  0
LINE
  8
0
  6
CONTINUOUS
 62
     5
 10
158.981
 20
33.939
 30
0.0
 11
164.531
 21
33.939
 31
0.0
  0
LINE
  8
0
  6
CONTINUOUS
 62
     5
 10
164.531
 20
33.939
 30
0.0
 11
168.531
 21
33.939
 31
0.0
  0
LINE
  8
0
  6
CONTINUOUS
 62
     5
 10
168.531
 20
33.939
 30
0.0
 11
172.281
 21
33.939
 31
0.0
  0
LINE
  8
0
  6
CONTINUOUS
 62
     5
 10
168.531
 20
33.939
 30
0.0
 11
170.945814566
 21
33.291952387
 31
0.0
  0
LINE
  8
0
  6
CONTINUOUS
 62
     5
 10
168.531
 20
33.939
 30
0.0
 11
170.945814566
 21
34.586047613
 31
0.0
  0
LINE
  8
0
  6
CONTINUOUS
 62
     5
 10
168.531
 20
42.939
 30
0.0
 11
168.531
 21
31.939
 31
0.0
  0
TEXT
  8
0
  6
CONTINUOUS
 62
     2
 10
158.981
 20
34.939
 30
0.3
 40
3.0
  1
８
 50
0.0
 41
0.6
 51
0.0
  7
KANJI1
  0
LINE
  8
0
  6
CONTINUOUS
 62
     5
 10
156.531
 20
42.939
 30
0.0
 11
156.531
 21
26.939
 31
0.0
  0
LINE
  8
0
  6
CONTINUOUS
 62
     5
 10
156.531
 20
28.939
 30
0.0
 11
158.945814566
 21
28.291952387
 31
0.0
  0
LINE
  8
0
  6
CONTINUOUS
 62
     5
 10
156.531
 20
28.939
 30
0.0
 11
158.945814566
 21
29.586047613
 31
0.0
  0
LINE
  8
0
  6
CONTINUOUS
 62
     5
 10
156.531
 20
28.939
 30
0.0
 11
176.531
 21
28.939
 31
0.0
  0
LINE
  8
0
  6
CONTINUOUS
 62
     5
 10
176.531
 20
28.939
 30
0.0
 11
174.116185434
 21
29.586047613
 31
0.0
  0
LINE
  8
0
  6
CONTINUOUS
 62
     5
 10
176.531
 20
28.939
 30
0.0
 11
174.116185434
 21
28.291952387
 31
0.0
  0
LINE
  8
0
  6
CONTINUOUS
 62
     5
 10
176.531
 20
42.939
 30
0.0
 11
176.531
 21
26.939
 31
0.0
  0
TEXT
  8
0
  6
CONTINUOUS
 62
     2
 10
165.631
 20
29.939
 30
0.3
 40
3.0
  1
Ｇ
 50
0.0
 41
0.6
 51
0.0
  7
KANJI1
  0
LINE
  8
0
  6
CONTINUOUS
 62
     5
 10
153.388864376
 20
97.652203436
 30
0.0
 11
198.531
 21
97.652203436
 31
0.0
  0
LINE
  8
0
  6
CONTINUOUS
 62
     5
 10
196.531
 20
97.652203436
 30
0.0
 11
195.883952387
 21
95.23738887
 31
0.0
  0
LINE
  8
0
  6
CONTINUOUS
 62
     5
 10
196.531
 20
97.652203436
 30
0.0
 11
197.178047613
 21
95.23738887
 31
0.0
  0
LINE
  8
0
  6
CONTINUOUS
 62
     5
 10
196.531
 20
97.652203436
 30
0.0
 11
196.531
 21
43.939
 31
0.0
  0
TEXT
  8
0
  6
CONTINUOUS
 62
     2
 10
195.531
 20
69.895601718
 30
0.3
 40
3.0
  1
Ｈ
 50
90.0
 41
0.6
 51
0.0
  7
KANJI1
  0
LINE
  8
0
  6
CONTINUOUS
 62
     1
 10
146.908786822
 20
92.172125881
 30
0.0
 11
150.797874119
 21
96.061213178
 31
0.0
  0
LINE
  8
0
  6
CONTINUOUS
 62
     5
 10
47.297802692
 20
148.522197308
 30
0.0
 11
45.015004471
 21
147.502966086
 31
0.0
  0
LINE
  8
0
  6
CONTINUOUS
 62
     5
 10
47.297802692
 20
148.522197308
 30
0.0
 11
45.830457052
 21
146.498118067
 31
0.0
  0
LINE
  8
0
  6
CONTINUOUS
 62
     5
 10
47.297802692
 20
148.522197308
 30
0.0
 11
28.197802692
 21
133.022197308
 31
0.0
  0
LINE
  8
0
  6
CONTINUOUS
 62
     2
 10
24.787802692
 20
139.462197308
 30
0.0
 11
24.787802692
 21
134.182197308
 31
0.0
  0
LINE
  8
0
  6
CONTINUOUS
 62
     2
 10
24.907802692
 20
139.462197308
 30
0.0
 11
24.907802692
 21
134.182197308
 31
0.0
  0
LINE
  8
0
  6
CONTINUOUS
 62
     2
 10
25.027802692
 20
139.462197308
 30
0.0
 11
25.027802692
 21
134.182197308
 31
0.0
  0
ARC
  8
0
  6
CONTINUOUS
 62
     2
 10
25.027802692
 20
139.462197308
 30
0.0
 40
0.12
 50
0.0
 51
180.0
  0
ARC
  8
0
  6
CONTINUOUS
 62
     2
 10
25.027802692
 20
139.462197308
 30
0.0
 40
0.24
 50
0.0
 51
180.0
  0
ARC
  8
0
  6
CONTINUOUS
 62
     2
 10
27.667802692
 20
139.462197308
 30
0.0
 40
0.12
 50
316.880304398
 51
136.880304398
  0
ARC
  8
0
  6
CONTINUOUS
 62
     2
 10
27.667802692
 20
139.462197308
 30
0.0
 40
0.24
 50
316.880304398
 51
136.880304398
  0
LINE
  8
0
  6
CONTINUOUS
 62
     2
 10
26.447639167
 20
137.808079048
 30
0.0
 11
27.890018578
 21
134.272862074
 31
0.0
  0
LINE
  8
0
  6
CONTINUOUS
 62
     2
 10
25.267802692
 20
136.548146696
 30
0.0
 11
25.267802692
 21
134.182197308
 31
0.0
  0
LINE
  8
0
  6
CONTINUOUS
 62
     2
 10
25.267802692
 20
139.462197308
 30
0.0
 11
25.267802692
 21
137.250389029
 31
0.0
  0
LINE
  8
0
  6
CONTINUOUS
 62
     2
 10
25.267802692
 20
136.548146696
 30
0.0
 11
26.086550978
 21
137.422477568
 31
0.0
  0
LINE
  8
0
  6
CONTINUOUS
 62
     2
 10
25.147802692
 20
136.595560807
 30
0.0
 11
25.147802692
 21
134.182197308
 31
0.0
  0
LINE
  8
0
  6
CONTINUOUS
 62
     2
 10
25.147802692
 20
139.462197308
 30
0.0
 11
25.147802692
 21
136.946681973
 31
0.0
  0
LINE
  8
0
  6
CONTINUOUS
 62
     2
 10
25.267802692
 20
137.250389029
 30
0.0
 11
27.492620126
 21
139.626243243
 31
0.0
  0
LINE
  8
0
  6
CONTINUOUS
 62
     2
 10
25.147802692
 20
136.946681973
 30
0.0
 11
27.580211409
 21
139.544220276
 31
0.0
  0
LINE
  8
0
  6
CONTINUOUS
 62
     2
 10
25.027802692
 20
136.642974918
 30
0.0
 11
27.667802692
 21
139.462197308
 31
0.0
  0
LINE
  8
0
  6
CONTINUOUS
 62
     2
 10
26.086550978
 20
137.422477568
 30
0.0
 11
27.445586805
 21
134.091532542
 31
0.0
  0
LINE
  8
0
  6
CONTINUOUS
 62
     2
 10
26.447639167
 20
137.808079048
 30
0.0
 11
27.842985257
 21
139.298151373
 31
0.0
  0
LINE
  8
0
  6
CONTINUOUS
 62
     2
 10
26.307475643
 20
137.833960788
 30
0.0
 11
27.778910635
 21
134.227529691
 31
0.0
  0
LINE
  8
0
  6
CONTINUOUS
 62
     2
 10
26.307475643
 20
137.833960788
 30
0.0
 11
27.755393975
 21
139.380174341
 31
0.0
  0
LINE
  8
0
  6
CONTINUOUS
 62
     2
 10
25.147802692
 20
136.595560807
 30
0.0
 11
26.126931548
 21
137.641160047
 31
0.0
  0
LINE
  8
0
  6
CONTINUOUS
 62
     2
 10
26.126931548
 20
137.641160047
 30
0.0
 11
27.556694749
 21
134.136864925
 31
0.0
  0
LINE
  8
0
  6
CONTINUOUS
 62
     2
 10
26.167312118
 20
137.859842527
 30
0.0
 11
27.667802692
 21
134.182197308
 31
0.0
  0
ARC
  8
0
  6
CONTINUOUS
 62
     2
 10
25.027802692
 20
134.182197308
 30
0.0
 40
0.12
 50
180.0
 51
0.0
  0
ARC
  8
0
  6
CONTINUOUS
 62
     2
 10
25.027802692
 20
134.182197308
 30
0.0
 40
0.24
 50
180.0
 51
0.0
  0
ARC
  8
0
  6
CONTINUOUS
 62
     2
 10
27.667802692
 20
134.182197308
 30
0.0
 40
0.12
 50
202.195610779
 51
22.195610779
  0
ARC
  8
0
  6
CONTINUOUS
 62
     2
 10
27.667802692
 20
134.182197308
 30
0.0
 40
0.24
 50
202.195610779
 51
22.195610779
  0
LINE
  8
0
  6
CONTINUOUS
 62
     2
 10
165.531
 20
94.839
 30
0.0
 11
165.531
 21
90.439
 31
0.0
  0
LINE
  8
0
  6
CONTINUOUS
 62
     2
 10
165.631
 20
94.839
 30
0.0
 11
165.631
 21
90.439
 31
0.0
  0
LINE
  8
0
  6
CONTINUOUS
 62
     2
 10
165.731
 20
94.839
 30
0.0
 11
165.731
 21
90.439
 31
0.0
  0
ARC
  8
0
  6
CONTINUOUS
 62
     2
 10
165.731
 20
94.839
 30
0.0
 40
0.2
 50
0.0
 51
180.0
  0
ARC
  8
0
  6
CONTINUOUS
 62
     2
 10
165.731
 20
94.839
 30
0.0
 40
0.1
 50
0.0
 51
180.0
  0
LINE
  8
0
  6
CONTINUOUS
 62
     2
 10
165.731
 20
90.439
 30
0.0
 11
167.531
 21
90.439
 31
0.0
  0
LINE
  8
0
  6
CONTINUOUS
 62
     2
 10
165.731
 20
90.339
 30
0.0
 11
167.531
 21
90.339
 31
0.0
  0
LINE
  8
0
  6
CONTINUOUS
 62
     2
 10
165.731
 20
90.239
 30
0.0
 11
167.531
 21
90.239
 31
0.0
  0
ARC
  8
0
  6
CONTINUOUS
 62
     2
 10
165.731
 20
90.439
 30
0.0
 40
0.2
 50
180.0
 51
270.0
  0
ARC
  8
0
  6
CONTINUOUS
 62
     2
 10
165.731
 20
90.439
 30
0.0
 40
0.1
 50
180.0
 51
270.0
  0
ARC
  8
0
  6
CONTINUOUS
 62
     2
 10
167.531
 20
90.439
 30
0.0
 40
0.2
 50
270.0
 51
90.0
  0
ARC
  8
0
  6
CONTINUOUS
 62
     2
 10
167.531
 20
90.439
 30
0.0
 40
0.1
 50
270.0
 51
90.0
  0
LINE
  8
0
  6
CONTINUOUS
 62
     2
 10
165.931
 20
94.839
 30
0.0
 11
165.931
 21
90.639
 31
0.0
  0
LINE
  8
0
  6
CONTINUOUS
 62
     2
 10
165.931
 20
90.639
 30
0.0
 11
167.531
 21
90.639
 31
0.0
  0
LINE
  8
0
  6
CONTINUOUS
 62
     2
 10
165.831
 20
94.839
 30
0.0
 11
165.831
 21
90.539
 31
0.0
  0
LINE
  8
0
  6
CONTINUOUS
 62
     2
 10
165.831
 20
90.539
 30
0.0
 11
167.531
 21
90.539
 31
0.0
  0
LINE
  8
0
  6
CONTINUOUS
 62
     5
 10
55.281
 20
132.889
 30
0.0
 11
53.248817227
 21
131.432897952
 31
0.0
  0
LINE
  8
0
  6
CONTINUOUS
 62
     5
 10
55.281
 20
132.889
 30
0.0
 11
54.249129117
 21
130.611887249
 31
0.0
  0
LINE
  8
0
  6
CONTINUOUS
 62
     5
 10
55.281
 20
132.889
 30
0.0
 11
46.581
 21
122.289
 31
0.0
  0
LINE
  8
0
  6
CONTINUOUS
 62
     5
 10
46.581
 20
122.289
 30
0.0
 11
43.281
 21
122.289
 31
0.0
  0
LINE
  8
0
  6
CONTINUOUS
 62
     5
 10
28.197802692
 20
133.022197308
 30
0.0
 11
22.697802692
 21
133.022197308
 31
0.0
  0
TEXT
  8
0
  6
CONTINUOUS
 62
     2
 10
77.539
 20
105.539
 30
0.3
 40
3.0
  1
２－Ｍ５ネジ
 50
0.0
 41
1.266666667
 51
0.0
  7
KANJI4
  0
LINE
  8
0
  6
CONTINUOUS
 62
     5
 10
72.572700673
 20
45.522299327
 30
0.0
 11
72.929212135
 21
43.047849979
 31
0.0
  0
LINE
  8
0
  6
CONTINUOUS
 62
     5
 10
72.572700673
 20
45.522299327
 30
0.0
 11
74.11867333
 21
43.557619062
 31
0.0
  0
LINE
  8
0
  6
CONTINUOUS
 62
     5
 10
72.572700673
 20
45.522299327
 30
0.0
 11
76.172700673
 21
37.122299327
 31
0.0
  0
LINE
  8
0
  6
CONTINUOUS
 62
     5
 10
76.172700673
 20
37.122299327
 30
0.0
 11
92.872700673
 21
37.122299327
 31
0.0
  0
TEXT
  8
0
  6
CONTINUOUS
 62
     2
 10
76.172700673
 20
38.122299327
 30
0.3
 40
3.0
  1
２－Ｍ５ネジ
 50
0.0
 41
1.266666667
 51
0.0
  7
KANJI4
  0
LINE
  8
0
  6
CONTINUOUS
 62
     5
 10
85.264197308
 20
148.522197308
 30
0.0
 11
87.546995529
 21
147.502966086
 31
0.0
  0
LINE
  8
0
  6
CONTINUOUS
 62
     5
 10
85.264197308
 20
148.522197308
 30
0.0
 11
86.731542948
 21
146.498118067
 31
0.0
  0
LINE
  8
0
  6
CONTINUOUS
 62
     5
 10
85.264197308
 20
148.522197308
 30
0.0
 11
104.364197308
 21
133.022197308
 31
0.0
  0
LINE
  8
0
  6
CONTINUOUS
 62
     5
 10
104.364197308
 20
133.022197308
 30
0.0
 11
109.864197308
 21
133.022197308
 31
0.0
  0
LINE
  8
0
  6
CONTINUOUS
 62
     5
 10
77.281
 20
132.889
 30
0.0
 11
79.313182773
 21
131.432897952
 31
0.0
  0
LINE
  8
0
  6
CONTINUOUS
 62
     5
 10
77.281
 20
132.889
 30
0.0
 11
78.312870883
 21
130.611887249
 31
0.0
  0
LINE
  8
0
  6
CONTINUOUS
 62
     5
 10
77.281
 20
132.889
 30
0.0
 11
85.981
 21
122.289
 31
0.0
  0
LINE
  8
0
  6
CONTINUOUS
 62
     5
 10
77.281
 20
132.889
 30
0.0
 11
85.981
 21
122.289
 31
0.0
  0
LINE
  8
0
  6
CONTINUOUS
 62
     5
 10
85.981
 20
122.289
 30
0.0
 11
89.281
 21
122.289
 31
0.0
  0
POLYLINE
  8
0
  6
CONTINUOUS
 62
     2
 66
     1
  0
VERTEX
  8
0
  6
CONTINUOUS
 62
     2
 10
150.862927942
 20
90.794681872
 30
0.0
  0
VERTEX
  8
0
  6
CONTINUOUS
 62
     2
 10
150.872827437
 20
90.835694065
 30
0.0
  0
VERTEX
  8
0
  6
CONTINUOUS
 62
     2
 10
150.883434039
 20
90.897212355
 30
0.0
  0
VERTEX
  8
0
  6
CONTINUOUS
 62
     2
 10
150.903940136
 20
90.967215926
 30
0.0
  0
VERTEX
  8
0
  6
CONTINUOUS
 62
     2
 10
150.908889883
 20
91.03439107
 30
0.0
  0
VERTEX
  8
0
  6
CONTINUOUS
 62
     2
 10
150.923739126
 20
91.100152001
 30
0.0
  0
VERTEX
  8
0
  6
CONTINUOUS
 62
     2
 10
150.944245222
 20
91.171569786
 30
0.0
  0
VERTEX
  8
0
  6
CONTINUOUS
 62
     2
 10
150.954144717
 20
91.232380969
 30
0.0
  0
VERTEX
  8
0
  6
CONTINUOUS
 62
     2
 10
150.944245222
 20
91.273393163
 30
0.0
  0
VERTEX
  8
0
  6
CONTINUOUS
 62
     2
 10
150.944245222
 20
91.334204346
 30
0.0
  0
VERTEX
  8
0
  6
CONTINUOUS
 62
     2
 10
150.944245222
 20
91.385116034
 30
0.0
  0
VERTEX
  8
0
  6
CONTINUOUS
 62
     2
 10
150.94919497
 20
91.450876965
 30
0.0
  0
VERTEX
  8
0
  6
CONTINUOUS
 62
     2
 10
150.954851824
 20
91.507445507
 30
0.0
  0
VERTEX
  8
0
  6
CONTINUOUS
 62
     2
 10
150.954144717
 20
91.557650089
 30
0.0
  0
VERTEX
  8
0
  6
CONTINUOUS
 62
     2
 10
150.944952329
 20
91.629067873
 30
0.0
  0
VERTEX
  8
0
  6
CONTINUOUS
 62
     2
 10
150.949902077
 20
91.684929309
 30
0.0
  0
VERTEX
  8
0
  6
CONTINUOUS
 62
     2
 10
150.939295475
 20
91.746447599
 30
0.0
  0
VERTEX
  8
0
  6
CONTINUOUS
 62
     2
 10
150.944245222
 20
91.802309035
 30
0.0
  0
VERTEX
  8
0
  6
CONTINUOUS
 62
     2
 10
150.94919497
 20
91.868069965
 30
0.0
  0
VERTEX
  8
0
  6
CONTINUOUS
 62
     2
 10
150.934345727
 20
91.923931401
 30
0.0
  0
VERTEX
  8
0
  6
CONTINUOUS
 62
     2
 10
150.918789378
 20
91.980499944
 30
0.0
  0
VERTEX
  8
0
  6
CONTINUOUS
 62
     2
 10
150.908889883
 20
92.051210622
 30
0.0
  0
VERTEX
  8
0
  6
CONTINUOUS
 62
     2
 10
150.898990388
 20
92.112021805
 30
0.0
  0
VERTEX
  8
0
  6
CONTINUOUS
 62
     2
 10
150.888383787
 20
92.173540095
 30
0.0
  0
VERTEX
  8
0
  6
CONTINUOUS
 62
     2
 10
150.862927942
 20
92.240008132
 30
0.0
  0
VERTEX
  8
0
  6
CONTINUOUS
 62
     2
 10
150.838179205
 20
92.305769063
 30
0.0
  0
VERTEX
  8
0
  6
CONTINUOUS
 62
     2
 10
150.807066507
 20
92.376479741
 30
0.0
  0
VERTEX
  8
0
  6
CONTINUOUS
 62
     2
 10
150.78656041
 20
92.437998031
 30
0.0
  0
VERTEX
  8
0
  6
CONTINUOUS
 62
     2
 10
150.751205071
 20
92.514365563
 30
0.0
  0
VERTEX
  8
0
  6
CONTINUOUS
 62
     2
 10
150.710192878
 20
92.585076242
 30
0.0
  0
VERTEX
  8
0
  6
CONTINUOUS
 62
     2
 10
150.674837539
 20
92.651544279
 30
0.0
  0
VERTEX
  8
0
  6
CONTINUOUS
 62
     2
 10
150.6394822
 20
92.718012316
 30
0.0
  0
VERTEX
  8
0
  6
CONTINUOUS
 62
     2
 10
150.608369501
 20
92.7788235
 30
0.0
  0
VERTEX
  8
0
  6
CONTINUOUS
 62
     2
 10
150.568064415
 20
92.829028081
 30
0.0
  0
VERTEX
  8
0
  6
CONTINUOUS
 62
     2
 10
150.527759328
 20
92.880646876
 30
0.0
  0
VERTEX
  8
0
  6
CONTINUOUS
 62
     2
 10
150.491696882
 20
92.926608817
 30
0.0
  0
VERTEX
  8
0
  6
CONTINUOUS
 62
     2
 10
150.440785194
 20
92.98742
 30
0.0
  0
VERTEX
  8
0
  6
CONTINUOUS
 62
     2
 10
150.389873506
 20
93.058130678
 30
0.0
  0
VERTEX
  8
0
  6
CONTINUOUS
 62
     2
 10
150.343911565
 20
93.104092619
 30
0.0
  0
VERTEX
  8
0
  6
CONTINUOUS
 62
     2
 10
150.297949624
 20
93.15005456
 30
0.0
  0
VERTEX
  8
0
  6
CONTINUOUS
 62
     2
 10
150.247745043
 20
93.190359646
 30
0.0
  0
VERTEX
  8
0
  6
CONTINUOUS
 62
     2
 10
150.1911765
 20
93.246928189
 30
0.0
  0
VERTEX
  8
0
  6
CONTINUOUS
 62
     2
 10
150.135315065
 20
93.302789625
 30
0.0
  0
VERTEX
  8
0
  6
CONTINUOUS
 62
     2
 10
150.069554134
 20
93.348751565
 30
0.0
  0
VERTEX
  8
0
  6
CONTINUOUS
 62
     2
 10
150.023592193
 20
93.394713506
 30
0.0
  0
VERTEX
  8
0
  6
CONTINUOUS
 62
     2
 10
149.967730757
 20
93.429361738
 30
0.0
  0
VERTEX
  8
0
  6
CONTINUOUS
 62
     2
 10
149.891363225
 20
93.476030786
 30
0.0
  0
VERTEX
  8
0
  6
CONTINUOUS
 62
     2
 10
149.810045945
 20
93.526235367
 30
0.0
  0
VERTEX
  8
0
  6
CONTINUOUS
 62
     2
 10
149.728021559
 20
93.567247561
 30
0.0
  0
VERTEX
  8
0
  6
CONTINUOUS
 62
     2
 10
149.652361133
 20
93.582096803
 30
0.0
  0
VERTEX
  8
0
  6
CONTINUOUS
 62
     2
 10
149.602156552
 20
93.592703405
 30
0.0
  0
VERTEX
  8
0
  6
CONTINUOUS
 62
     2
 10
149.525081912
 20
93.597653152
 30
0.0
  0
VERTEX
  8
0
  6
CONTINUOUS
 62
     2
 10
149.464270729
 20
93.597653152
 30
0.0
  0
VERTEX
  8
0
  6
CONTINUOUS
 62
     2
 10
149.397802692
 20
93.572197308
 30
0.0
  0
VERTEX
  8
0
  6
CONTINUOUS
 62
     2
 10
149.321435159
 20
93.526942474
 30
0.0
  0
VERTEX
  8
0
  6
CONTINUOUS
 62
     2
 10
149.270523471
 20
93.485930281
 30
0.0
  0
VERTEX
  8
0
  6
CONTINUOUS
 62
     2
 10
149.230218385
 20
93.424411991
 30
0.0
  0
VERTEX
  8
0
  6
CONTINUOUS
 62
     2
 10
149.204762541
 20
93.348044459
 30
0.0
  0
VERTEX
  8
0
  6
CONTINUOUS
 62
     2
 10
149.189206191
 20
93.261777431
 30
0.0
  0
VERTEX
  8
0
  6
CONTINUOUS
 62
     2
 10
149.189913298
 20
93.180460151
 30
0.0
  0
VERTEX
  8
0
  6
CONTINUOUS
 62
     2
 10
149.194155939
 20
93.094193124
 30
0.0
  0
VERTEX
  8
0
  6
CONTINUOUS
 62
     2
 10
149.209712288
 20
93.027725087
 30
0.0
  0
VERTEX
  8
0
  6
CONTINUOUS
 62
     2
 10
149.22456153
 20
92.971863651
 30
0.0
  0
VERTEX
  8
0
  6
CONTINUOUS
 62
     2
 10
149.24011788
 20
92.895496119
 30
0.0
  0
VERTEX
  8
0
  6
CONTINUOUS
 62
     2
 10
149.265573724
 20
92.819128586
 30
0.0
  0
VERTEX
  8
0
  6
CONTINUOUS
 62
     2
 10
149.30163617
 20
92.743468161
 30
0.0
  0
VERTEX
  8
0
  6
CONTINUOUS
 62
     2
 10
149.327092014
 20
92.667100628
 30
0.0
  0
VERTEX
  8
0
  6
CONTINUOUS
 62
     2
 10
149.3673971
 20
92.585783348
 30
0.0
  0
VERTEX
  8
0
  6
CONTINUOUS
 62
     2
 10
149.402752439
 20
92.529214806
 30
0.0
  0
VERTEX
  8
0
  6
CONTINUOUS
 62
     2
 10
149.433865138
 20
92.458504128
 30
0.0
  0
VERTEX
  8
0
  6
CONTINUOUS
 62
     2
 10
149.484069719
 20
92.387086343
 30
0.0
  0
VERTEX
  8
0
  6
CONTINUOUS
 62
     2
 10
149.525081912
 20
92.316375665
 30
0.0
  0
VERTEX
  8
0
  6
CONTINUOUS
 62
     2
 10
149.571043853
 20
92.239301026
 30
0.0
  0
VERTEX
  8
0
  6
CONTINUOUS
 62
     2
 10
149.621955541
 20
92.168590347
 30
0.0
  0
VERTEX
  8
0
  6
CONTINUOUS
 62
     2
 10
149.687716472
 20
92.112728912
 30
0.0
  0
VERTEX
  8
0
  6
CONTINUOUS
 62
     2
 10
149.728728665
 20
92.061817224
 30
0.0
  0
VERTEX
  8
0
  6
CONTINUOUS
 62
     2
 10
149.774690606
 20
92.005955788
 30
0.0
  0
VERTEX
  8
0
  6
CONTINUOUS
 62
     2
 10
149.825602294
 20
91.9550441
 30
0.0
  0
VERTEX
  8
0
  6
CONTINUOUS
 62
     2
 10
149.88146373
 20
91.899182664
 30
0.0
  0
VERTEX
  8
0
  6
CONTINUOUS
 62
     2
 10
149.932375418
 20
91.848270976
 30
0.0
  0
VERTEX
  8
0
  6
CONTINUOUS
 62
     2
 10
149.988236854
 20
91.79240954
 30
0.0
  0
VERTEX
  8
0
  6
CONTINUOUS
 62
     2
 10
150.04409829
 20
91.756347094
 30
0.0
  0
VERTEX
  8
0
  6
CONTINUOUS
 62
     2
 10
150.095009978
 20
91.705435406
 30
0.0
  0
VERTEX
  8
0
  6
CONTINUOUS
 62
     2
 10
150.160770909
 20
91.64957397
 30
0.0
  0
VERTEX
  8
0
  6
CONTINUOUS
 62
     2
 10
150.216632344
 20
91.603612029
 30
0.0
  0
VERTEX
  8
0
  6
CONTINUOUS
 62
     2
 10
150.278150634
 20
91.563306943
 30
0.0
  0
VERTEX
  8
0
  6
CONTINUOUS
 62
     2
 10
150.338961818
 20
91.522294749
 30
0.0
  0
VERTEX
  8
0
  6
CONTINUOUS
 62
     2
 10
150.394823253
 20
91.486232304
 30
0.0
  0
VERTEX
  8
0
  6
CONTINUOUS
 62
     2
 10
150.461291291
 20
91.450876965
 30
0.0
  0
VERTEX
  8
0
  6
CONTINUOUS
 62
     2
 10
150.532709076
 20
91.410571878
 30
0.0
  0
VERTEX
  8
0
  6
CONTINUOUS
 62
     2
 10
150.609076608
 20
91.385116034
 30
0.0
  0
VERTEX
  8
0
  6
CONTINUOUS
 62
     2
 10
150.659281189
 20
91.364609937
 30
0.0
  0
VERTEX
  8
0
  6
CONTINUOUS
 62
     2
 10
150.710899985
 20
91.344103841
 30
0.0
  0
VERTEX
  8
0
  6
CONTINUOUS
 62
     2
 10
150.776660915
 20
91.319355103
 30
0.0
  0
VERTEX
  8
0
  6
CONTINUOUS
 62
     2
 10
150.827572603
 20
91.2981419
 30
0.0
  0
VERTEX
  8
0
  6
CONTINUOUS
 62
     2
 10
150.857978195
 20
91.298849007
 30
0.0
  0
VERTEX
  8
0
  6
CONTINUOUS
 62
     2
 10
150.913839631
 20
91.262786561
 30
0.0
  0
VERTEX
  8
0
  6
CONTINUOUS
 62
     2
 10
150.974650814
 20
91.252887066
 30
0.0
  0
VERTEX
  8
0
  6
CONTINUOUS
 62
     2
 10
151.020612755
 20
91.226724115
 30
0.0
  0
VERTEX
  8
0
  6
CONTINUOUS
 62
     2
 10
151.081423938
 20
91.21682462
 30
0.0
  0
SEQEND
  0
POLYLINE
  8
0
  6
CONTINUOUS
 62
     2
 66
     1
  0
VERTEX
  8
0
  6
CONTINUOUS
 62
     2
 10
151.056675201
 20
91.221774367
 30
0.0
  0
VERTEX
  8
0
  6
CONTINUOUS
 62
     2
 10
151.102637141
 20
91.21682462
 30
0.0
  0
VERTEX
  8
0
  6
CONTINUOUS
 62
     2
 10
151.198803664
 20
91.222481474
 30
0.0
  0
VERTEX
  8
0
  6
CONTINUOUS
 62
     2
 10
151.259614847
 20
91.222481474
 30
0.0
  0
VERTEX
  8
0
  6
CONTINUOUS
 62
     2
 10
151.331032632
 20
91.242987571
 30
0.0
  0
VERTEX
  8
0
  6
CONTINUOUS
 62
     2
 10
151.422956513
 20
91.272686056
 30
0.0
  0
VERTEX
  8
0
  6
CONTINUOUS
 62
     2
 10
151.514173288
 20
91.375216539
 30
0.0
  0
VERTEX
  8
0
  6
CONTINUOUS
 62
     2
 10
151.555185481
 20
91.445927217
 30
0.0
  0
VERTEX
  8
0
  6
CONTINUOUS
 62
     2
 10
151.59054082
 20
91.512395255
 30
0.0
  0
VERTEX
  8
0
  6
CONTINUOUS
 62
     2
 10
151.615996664
 20
91.598662282
 30
0.0
  0
VERTEX
  8
0
  6
CONTINUOUS
 62
     2
 10
151.625896159
 20
91.710385153
 30
0.0
  0
VERTEX
  8
0
  6
CONTINUOUS
 62
     2
 10
151.620946412
 20
91.776146084
 30
0.0
  0
SEQEND
  0
POLYLINE
  8
0
  6
CONTINUOUS
 62
     2
 66
     1
  0
VERTEX
  8
0
  6
CONTINUOUS
 62
     2
 10
150.858508525
 20
90.777534532
 30
0.0
  0
VERTEX
  8
0
  6
CONTINUOUS
 62
     2
 10
150.837295322
 20
90.694449485
 30
0.0
  0
VERTEX
  8
0
  6
CONTINUOUS
 62
     2
 10
150.785146197
 20
90.621087157
 30
0.0
  0
VERTEX
  8
0
  6
CONTINUOUS
 62
     2
 10
150.74271979
 20
90.536234343
 30
0.0
  0
SEQEND
  0
LINE
  8
0
  6
CONTINUOUS
 62
     2
 10
155.841450673
 20
179.503549327
 30
0.0
 11
155.841450673
 21
127.941049327
 31
0.0
  0
TEXT
  8
0
  6
CONTINUOUS
 62
     2
 10
133.435200673
 20
151.847299327
 30
0.375
 40
3.75
  1
定格一次電流
 50
0.0
 41
0.9
 51
0.0
  7
KANJI5
  0
TEXT
  8
0
  6
CONTINUOUS
 62
     2
 10
133.435200673
 20
147.159799327
 30
0.375
 40
3.75
  1
定格二次電流
 50
0.0
 41
0.9
 51
0.0
  7
KANJI5
  0
TEXT
  8
0
  6
CONTINUOUS
 62
     2
 10
137.185200673
 20
142.472299327
 30
0.375
 40
3.75
  1
定格負担
 50
0.0
 41
0.9
 51
0.0
  7
KANJI5
  0
TEXT
  8
0
  6
CONTINUOUS
 62
     2
 10
135.778950673
 20
137.784799327
 30
0.375
 40
3.75
  1
過電流強度
 50
0.0
 41
0.9
 51
0.0
  7
KANJI5
  0
TEXT
  8
0
  6
CONTINUOUS
 62
     2
 10
135.778950673
 20
133.097299327
 30
0.375
 40
3.75
  1
定格周波数
 50
0.0
 41
0.9
 51
0.0
  7
KANJI5
  0
TEXT
  8
0
  6
CONTINUOUS
 62
     2
 10
137.185200673
 20
156.534799327
 30
0.375
 40
3.75
  1
最高電圧
 50
0.0
 41
0.9
 51
0.0
  7
KANJI5
  0
TEXT
  8
0
  6
CONTINUOUS
 62
     2
 10
139.060200673
 20
161.222299327
 30
0.375
 40
3.75
  1
階　級
 50
0.0
 41
0.9
 51
0.0
  7
KANJI5
  0
TEXT
  8
0
  6
CONTINUOUS
 62
     2
 10
139.060200673
 20
165.909799327
 30
0.375
 40
3.75
  1
規　格
 50
0.0
 41
0.9
 51
0.0
  7
KANJI5
  0
TEXT
  8
0
  6
CONTINUOUS
 62
     2
 10
139.060200673
 20
170.597299327
 30
0.375
 40
3.75
  1
構　造
 50
0.0
 41
0.9
 51
0.0
  7
KANJI5
  0
LINE
  8
0
  6
CONTINUOUS
 62
     2
 10
173.185200673
 20
179.503549327
 30
0.0
 11
173.185200673
 21
174.816049327
 31
0.0
  0
LINE
  8
0
  6
CONTINUOUS
 62
     2
 10
173.185200673
 20
132.628549327
 30
0.0
 11
173.185200673
 21
127.941049327
 31
0.0
  0
LINE
  8
0
  6
CONTINUOUS
 62
     2
 10
173.185200673
 20
146.691049327
 30
0.0
 11
173.185200673
 21
142.003549327
 31
0.0
  0
LINE
  8
0
  6
CONTINUOUS
 62
     2
 10
194.278950673
 20
179.503549327
 30
0.0
 11
194.278950673
 21
174.816049327
 31
0.0
  0
LINE
  8
0
  6
CONTINUOUS
 62
     2
 10
215.372700673
 20
179.503549327
 30
0.0
 11
215.372700673
 21
174.816049327
 31
0.0
  0
LINE
  8
0
  6
CONTINUOUS
 62
     2
 10
194.278950673
 20
146.691049327
 30
0.0
 11
194.278950673
 21
142.003549327
 31
0.0
  0
TEXT
  8
0
  6
CONTINUOUS
 62
     2
 10
158.935200673
 20
128.409799327
 30
0.375
 40
3.75
  1
１ｋｇ
 50
0.0
 41
0.9
 51
0.0
  7
KANJI5
  0
TEXT
  8
0
  6
CONTINUOUS
 62
     2
 10
175.341450673
 20
128.409799327
 30
0.375
 40
3.75
  1
１．５ｋｇ
 50
0.0
 41
0.9
 51
0.0
  7
KANJI5
  0
LINE
  8
0
  6
CONTINUOUS
 62
     2
 10
194.278950673
 20
132.628549327
 30
0.0
 11
194.278950673
 21
127.941049327
 31
0.0
  0
TEXT
  8
0
  6
CONTINUOUS
 62
     2
 10
199.247700673
 20
128.409799327
 30
0.375
 40
3.75
  1
３ｋｇ
 50
0.0
 41
0.9
 51
0.0
  7
KANJI5
  0
LINE
  8
0
  6
CONTINUOUS
 62
     2
 10
215.372700673
 20
179.503549327
 30
0.0
 11
132.216450673
 21
179.503549327
 31
0.0
  0
LINE
  8
0
  6
CONTINUOUS
 62
     2
 10
132.216450673
 20
127.941049327
 30
0.0
 11
132.216450673
 21
179.503549327
 31
0.0
  0
LINE
  8
0
  6
CONTINUOUS
 62
     2
 10
132.216450673
 20
127.941049327
 30
0.0
 11
215.372700673
 21
127.941049327
 31
0.0
  0
LINE
  8
0
  6
CONTINUOUS
 62
     2
 10
215.372700673
 20
174.816049327
 30
0.0
 11
215.372700673
 21
127.941049327
 31
0.0
  0
LINE
  8
0
  6
CONTINUOUS
 62
     2
 10
132.216450673
 20
174.816049327
 30
0.0
 11
215.372700673
 21
174.816049327
 31
0.0
  0
LINE
  8
0
  6
CONTINUOUS
 62
     2
 10
132.216450673
 20
170.128549327
 30
0.0
 11
215.372700673
 21
170.128549327
 31
0.0
  0
LINE
  8
0
  6
CONTINUOUS
 62
     2
 10
132.216450673
 20
165.441049327
 30
0.0
 11
215.372700673
 21
165.441049327
 31
0.0
  0
LINE
  8
0
  6
CONTINUOUS
 62
     2
 10
132.216450673
 20
160.753549327
 30
0.0
 11
215.372700673
 21
160.753549327
 31
0.0
  0
LINE
  8
0
  6
CONTINUOUS
 62
     2
 10
132.216450673
 20
156.066049327
 30
0.0
 11
215.372700673
 21
156.066049327
 31
0.0
  0
LINE
  8
0
  6
CONTINUOUS
 62
     2
 10
132.216450673
 20
151.378549327
 30
0.0
 11
215.372700673
 21
151.378549327
 31
0.0
  0
LINE
  8
0
  6
CONTINUOUS
 62
     2
 10
132.216450673
 20
146.691049327
 30
0.0
 11
215.372700673
 21
146.691049327
 31
0.0
  0
LINE
  8
0
  6
CONTINUOUS
 62
     2
 10
132.216450673
 20
142.003549327
 30
0.0
 11
215.372700673
 21
142.003549327
 31
0.0
  0
LINE
  8
0
  6
CONTINUOUS
 62
     2
 10
132.216450673
 20
137.316049327
 30
0.0
 11
215.372700673
 21
137.316049327
 31
0.0
  0
LINE
  8
0
  6
CONTINUOUS
 62
     2
 10
132.216450673
 20
132.628549327
 30
0.0
 11
215.372700673
 21
132.628549327
 31
0.0
  0
TEXT
  8
0
  6
CONTINUOUS
 62
     2
 10
171.122700673
 20
170.597299327
 30
0.375
 40
3.75
  1
樹脂全モールド
 50
0.0
 41
0.9
 51
0.0
  7
KANJI5
  0
TEXT
  8
0
  6
CONTINUOUS
 62
     2
 10
179.091450673
 20
161.222299327
 30
0.375
 40
3.75
  1
１．０
 50
0.0
 41
0.9
 51
0.0
  7
KANJI5
  0
TEXT
  8
0
  6
CONTINUOUS
 62
     2
 10
180.028950673
 20
137.784799327
 30
0.375
 40
3.75
  1
４０
 50
0.0
 41
0.9
 51
0.0
  7
KANJI5
  0
POLYLINE
  8
0
  6
CONTINUOUS
 62
     2
 66
     1
  0
VERTEX
  8
0
  6
CONTINUOUS
 62
     2
 10
87.070453877
 20
123.048910025
 30
0.0
  0
VERTEX
  8
0
  6
CONTINUOUS
 62
     2
 10
87.113653877
 20
123.075310025
 30
0.0
  0
VERTEX
  8
0
  6
CONTINUOUS
 62
     2
 10
87.174853877
 20
123.118510025
 30
0.0
  0
VERTEX
  8
0
  6
CONTINUOUS
 62
     2
 10
87.251653877
 20
123.160510025
 30
0.0
  0
VERTEX
  8
0
  6
CONTINUOUS
 62
     2
 10
87.312853877
 20
123.213310025
 30
0.0
  0
VERTEX
  8
0
  6
CONTINUOUS
 62
     2
 10
87.381253877
 20
123.256510025
 30
0.0
  0
VERTEX
  8
0
  6
CONTINUOUS
 62
     2
 10
87.459253877
 20
123.299710025
 30
0.0
  0
VERTEX
  8
0
  6
CONTINUOUS
 62
     2
 10
87.519253877
 20
123.342910025
 30
0.0
  0
VERTEX
  8
0
  6
CONTINUOUS
 62
     2
 10
87.545653877
 20
123.386110025
 30
0.0
  0
VERTEX
  8
0
  6
CONTINUOUS
 62
     2
 10
87.597253877
 20
123.437710025
 30
0.0
  0
VERTEX
  8
0
  6
CONTINUOUS
 62
     2
 10
87.640453877
 20
123.480910025
 30
0.0
  0
VERTEX
  8
0
  6
CONTINUOUS
 62
     2
 10
87.700453877
 20
123.532510025
 30
0.0
  0
VERTEX
  8
0
  6
CONTINUOUS
 62
     2
 10
87.753253877
 20
123.575710025
 30
0.0
  0
VERTEX
  8
0
  6
CONTINUOUS
 62
     2
 10
87.795253877
 20
123.618910025
 30
0.0
  0
VERTEX
  8
0
  6
CONTINUOUS
 62
     2
 10
87.848053877
 20
123.687310025
 30
0.0
  0
VERTEX
  8
0
  6
CONTINUOUS
 62
     2
 10
87.899653877
 20
123.730510025
 30
0.0
  0
VERTEX
  8
0
  6
CONTINUOUS
 62
     2
 10
87.942853877
 20
123.791710025
 30
0.0
  0
VERTEX
  8
0
  6
CONTINUOUS
 62
     2
 10
87.994453877
 20
123.834910025
 30
0.0
  0
VERTEX
  8
0
  6
CONTINUOUS
 62
     2
 10
88.054453877
 20
123.886510025
 30
0.0
  0
VERTEX
  8
0
  6
CONTINUOUS
 62
     2
 10
88.089253877
 20
123.946510025
 30
0.0
  0
VERTEX
  8
0
  6
CONTINUOUS
 62
     2
 10
88.124053877
 20
124.007710025
 30
0.0
  0
VERTEX
  8
0
  6
CONTINUOUS
 62
     2
 10
88.175653877
 20
124.076110025
 30
0.0
  0
VERTEX
  8
0
  6
CONTINUOUS
 62
     2
 10
88.218853877
 20
124.136110025
 30
0.0
  0
VERTEX
  8
0
  6
CONTINUOUS
 62
     2
 10
88.262053877
 20
124.197310025
 30
0.0
  0
VERTEX
  8
0
  6
CONTINUOUS
 62
     2
 10
88.296853877
 20
124.275310025
 30
0.0
  0
VERTEX
  8
0
  6
CONTINUOUS
 62
     2
 10
88.331653877
 20
124.352110025
 30
0.0
  0
VERTEX
  8
0
  6
CONTINUOUS
 62
     2
 10
88.365253877
 20
124.438510025
 30
0.0
  0
VERTEX
  8
0
  6
CONTINUOUS
 62
     2
 10
88.400053877
 20
124.508110025
 30
0.0
  0
VERTEX
  8
0
  6
CONTINUOUS
 62
     2
 10
88.434853877
 20
124.602910025
 30
0.0
  0
VERTEX
  8
0
  6
CONTINUOUS
 62
     2
 10
88.460053877
 20
124.697710025
 30
0.0
  0
VERTEX
  8
0
  6
CONTINUOUS
 62
     2
 10
88.486453877
 20
124.784110025
 30
0.0
  0
VERTEX
  8
0
  6
CONTINUOUS
 62
     2
 10
88.512853877
 20
124.870510025
 30
0.0
  0
VERTEX
  8
0
  6
CONTINUOUS
 62
     2
 10
88.538053877
 20
124.948510025
 30
0.0
  0
VERTEX
  8
0
  6
CONTINUOUS
 62
     2
 10
88.546453877
 20
125.025310025
 30
0.0
  0
VERTEX
  8
0
  6
CONTINUOUS
 62
     2
 10
88.556053877
 20
125.103310025
 30
0.0
  0
VERTEX
  8
0
  6
CONTINUOUS
 62
     2
 10
88.564453877
 20
125.172910025
 30
0.0
  0
VERTEX
  8
0
  6
CONTINUOUS
 62
     2
 10
88.572853877
 20
125.267710025
 30
0.0
  0
VERTEX
  8
0
  6
CONTINUOUS
 62
     2
 10
88.589653877
 20
125.370910025
 30
0.0
  0
VERTEX
  8
0
  6
CONTINUOUS
 62
     2
 10
88.589653877
 20
125.448910025
 30
0.0
  0
VERTEX
  8
0
  6
CONTINUOUS
 62
     2
 10
88.589653877
 20
125.526910025
 30
0.0
  0
VERTEX
  8
0
  6
CONTINUOUS
 62
     2
 10
88.581253877
 20
125.603710025
 30
0.0
  0
VERTEX
  8
0
  6
CONTINUOUS
 62
     2
 10
88.581253877
 20
125.699710025
 30
0.0
  0
VERTEX
  8
0
  6
CONTINUOUS
 62
     2
 10
88.581253877
 20
125.794510025
 30
0.0
  0
VERTEX
  8
0
  6
CONTINUOUS
 62
     2
 10
88.564453877
 20
125.889310025
 30
0.0
  0
VERTEX
  8
0
  6
CONTINUOUS
 62
     2
 10
88.564453877
 20
125.967310025
 30
0.0
  0
VERTEX
  8
0
  6
CONTINUOUS
 62
     2
 10
88.546453877
 20
126.044110025
 30
0.0
  0
VERTEX
  8
0
  6
CONTINUOUS
 62
     2
 10
88.521253877
 20
126.148510025
 30
0.0
  0
VERTEX
  8
0
  6
CONTINUOUS
 62
     2
 10
88.494853877
 20
126.260110025
 30
0.0
  0
VERTEX
  8
0
  6
CONTINUOUS
 62
     2
 10
88.460053877
 20
126.364510025
 30
0.0
  0
VERTEX
  8
0
  6
CONTINUOUS
 62
     2
 10
88.408453877
 20
126.441310025
 30
0.0
  0
VERTEX
  8
0
  6
CONTINUOUS
 62
     2
 10
88.374853877
 20
126.492910025
 30
0.0
  0
VERTEX
  8
0
  6
CONTINUOUS
 62
     2
 10
88.313653877
 20
126.562510025
 30
0.0
  0
VERTEX
  8
0
  6
CONTINUOUS
 62
     2
 10
88.262053877
 20
126.614110025
 30
0.0
  0
VERTEX
  8
0
  6
CONTINUOUS
 62
     2
 10
88.184053877
 20
126.648910025
 30
0.0
  0
VERTEX
  8
0
  6
CONTINUOUS
 62
     2
 10
88.080853877
 20
126.675310025
 30
0.0
  0
VERTEX
  8
0
  6
CONTINUOUS
 62
     2
 10
88.002853877
 20
126.683710025
 30
0.0
  0
VERTEX
  8
0
  6
CONTINUOUS
 62
     2
 10
87.916453877
 20
126.665710025
 30
0.0
  0
VERTEX
  8
0
  6
CONTINUOUS
 62
     2
 10
87.830053877
 20
126.622510025
 30
0.0
  0
VERTEX
  8
0
  6
CONTINUOUS
 62
     2
 10
87.743653877
 20
126.562510025
 30
0.0
  0
VERTEX
  8
0
  6
CONTINUOUS
 62
     2
 10
87.675253877
 20
126.492910025
 30
0.0
  0
VERTEX
  8
0
  6
CONTINUOUS
 62
     2
 10
87.605653877
 20
126.416110025
 30
0.0
  0
VERTEX
  8
0
  6
CONTINUOUS
 62
     2
 10
87.562453877
 20
126.346510025
 30
0.0
  0
VERTEX
  8
0
  6
CONTINUOUS
 62
     2
 10
87.527653877
 20
126.286510025
 30
0.0
  0
VERTEX
  8
0
  6
CONTINUOUS
 62
     2
 10
87.476053877
 20
126.208510025
 30
0.0
  0
VERTEX
  8
0
  6
CONTINUOUS
 62
     2
 10
87.432853877
 20
126.122110025
 30
0.0
  0
VERTEX
  8
0
  6
CONTINUOUS
 62
     2
 10
87.399253877
 20
126.027310025
 30
0.0
  0
VERTEX
  8
0
  6
CONTINUOUS
 62
     2
 10
87.356053877
 20
125.940910025
 30
0.0
  0
VERTEX
  8
0
  6
CONTINUOUS
 62
     2
 10
87.321253877
 20
125.837710025
 30
0.0
  0
VERTEX
  8
0
  6
CONTINUOUS
 62
     2
 10
87.303253877
 20
125.759710025
 30
0.0
  0
VERTEX
  8
0
  6
CONTINUOUS
 62
     2
 10
87.269653877
 20
125.673310025
 30
0.0
  0
VERTEX
  8
0
  6
CONTINUOUS
 62
     2
 10
87.251653877
 20
125.570110025
 30
0.0
  0
VERTEX
  8
0
  6
CONTINUOUS
 62
     2
 10
87.226453877
 20
125.475310025
 30
0.0
  0
VERTEX
  8
0
  6
CONTINUOUS
 62
     2
 10
87.200053877
 20
125.370910025
 30
0.0
  0
VERTEX
  8
0
  6
CONTINUOUS
 62
     2
 10
87.183253877
 20
125.267710025
 30
0.0
  0
VERTEX
  8
0
  6
CONTINUOUS
 62
     2
 10
87.191653877
 20
125.164510025
 30
0.0
  0
VERTEX
  8
0
  6
CONTINUOUS
 62
     2
 10
87.183253877
 20
125.086510025
 30
0.0
  0
VERTEX
  8
0
  6
CONTINUOUS
 62
     2
 10
87.174853877
 20
125.000110025
 30
0.0
  0
VERTEX
  8
0
  6
CONTINUOUS
 62
     2
 10
87.174853877
 20
124.913710025
 30
0.0
  0
VERTEX
  8
0
  6
CONTINUOUS
 62
     2
 10
87.174853877
 20
124.818910025
 30
0.0
  0
VERTEX
  8
0
  6
CONTINUOUS
 62
     2
 10
87.174853877
 20
124.732510025
 30
0.0
  0
VERTEX
  8
0
  6
CONTINUOUS
 62
     2
 10
87.174853877
 20
124.637710025
 30
0.0
  0
VERTEX
  8
0
  6
CONTINUOUS
 62
     2
 10
87.191653877
 20
124.559710025
 30
0.0
  0
VERTEX
  8
0
  6
CONTINUOUS
 62
     2
 10
87.191653877
 20
124.473310025
 30
0.0
  0
VERTEX
  8
0
  6
CONTINUOUS
 62
     2
 10
87.200053877
 20
124.370110025
 30
0.0
  0
VERTEX
  8
0
  6
CONTINUOUS
 62
     2
 10
87.208453877
 20
124.283710025
 30
0.0
  0
VERTEX
  8
0
  6
CONTINUOUS
 62
     2
 10
87.226453877
 20
124.197310025
 30
0.0
  0
VERTEX
  8
0
  6
CONTINUOUS
 62
     2
 10
87.243253877
 20
124.110910025
 30
0.0
  0
VERTEX
  8
0
  6
CONTINUOUS
 62
     2
 10
87.260053877
 20
124.032910025
 30
0.0
  0
VERTEX
  8
0
  6
CONTINUOUS
 62
     2
 10
87.286453877
 20
123.946510025
 30
0.0
  0
VERTEX
  8
0
  6
CONTINUOUS
 62
     2
 10
87.312853877
 20
123.851710025
 30
0.0
  0
VERTEX
  8
0
  6
CONTINUOUS
 62
     2
 10
87.356053877
 20
123.765310025
 30
0.0
  0
VERTEX
  8
0
  6
CONTINUOUS
 62
     2
 10
87.381253877
 20
123.705310025
 30
0.0
  0
VERTEX
  8
0
  6
CONTINUOUS
 62
     2
 10
87.407653877
 20
123.644110025
 30
0.0
  0
VERTEX
  8
0
  6
CONTINUOUS
 62
     2
 10
87.442453877
 20
123.567310025
 30
0.0
  0
VERTEX
  8
0
  6
CONTINUOUS
 62
     2
 10
87.467653877
 20
123.506110025
 30
0.0
  0
VERTEX
  8
0
  6
CONTINUOUS
 62
     2
 10
87.494053877
 20
123.480910025
 30
0.0
  0
VERTEX
  8
0
  6
CONTINUOUS
 62
     2
 10
87.510853877
 20
123.402910025
 30
0.0
  0
VERTEX
  8
0
  6
CONTINUOUS
 62
     2
 10
87.554053877
 20
123.342910025
 30
0.0
  0
VERTEX
  8
0
  6
CONTINUOUS
 62
     2
 10
87.570853877
 20
123.281710025
 30
0.0
  0
VERTEX
  8
0
  6
CONTINUOUS
 62
     2
 10
87.614053877
 20
123.221710025
 30
0.0
  0
SEQEND
  0
POLYLINE
  8
0
  6
CONTINUOUS
 62
     2
 66
     1
  0
VERTEX
  8
0
  6
CONTINUOUS
 62
     2
 10
87.597253877
 20
123.246910025
 30
0.0
  0
VERTEX
  8
0
  6
CONTINUOUS
 62
     2
 10
87.632053877
 20
123.203710025
 30
0.0
  0
VERTEX
  8
0
  6
CONTINUOUS
 62
     2
 10
87.718453877
 20
123.126910025
 30
0.0
  0
VERTEX
  8
0
  6
CONTINUOUS
 62
     2
 10
87.770053877
 20
123.075310025
 30
0.0
  0
VERTEX
  8
0
  6
CONTINUOUS
 62
     2
 10
87.848053877
 20
123.032110025
 30
0.0
  0
VERTEX
  8
0
  6
CONTINUOUS
 62
     2
 10
87.951253877
 20
122.979310025
 30
0.0
  0
VERTEX
  8
0
  6
CONTINUOUS
 62
     2
 10
88.115653877
 20
122.988910025
 30
0.0
  0
VERTEX
  8
0
  6
CONTINUOUS
 62
     2
 10
88.210453877
 20
123.014110025
 30
0.0
  0
VERTEX
  8
0
  6
CONTINUOUS
 62
     2
 10
88.296853877
 20
123.040510025
 30
0.0
  0
VERTEX
  8
0
  6
CONTINUOUS
 62
     2
 10
88.391653877
 20
123.092110025
 30
0.0
  0
VERTEX
  8
0
  6
CONTINUOUS
 62
     2
 10
88.494853877
 20
123.178510025
 30
0.0
  0
VERTEX
  8
0
  6
CONTINUOUS
 62
     2
 10
88.546453877
 20
123.238510025
 30
0.0
  0
SEQEND
  0
POLYLINE
  8
0
  6
CONTINUOUS
 62
     2
 66
     1
  0
VERTEX
  8
0
  6
CONTINUOUS
 62
     2
 10
87.052153877
 20
123.038110025
 30
0.0
  0
VERTEX
  8
0
  6
CONTINUOUS
 62
     2
 10
86.963653877
 20
122.985610025
 30
0.0
  0
VERTEX
  8
0
  6
CONTINUOUS
 62
     2
 10
86.857153877
 20
122.967610025
 30
0.0
  0
VERTEX
  8
0
  6
CONTINUOUS
 62
     2
 10
86.749153877
 20
122.931610025
 30
0.0
  0
SEQEND
  0
POLYLINE
  8
0
  6
CONTINUOUS
 62
     2
 66
     1
  0
VERTEX
  8
0
  6
CONTINUOUS
 62
     2
 10
43.790571667
 20
124.07940984
 30
0.0
  0
VERTEX
  8
0
  6
CONTINUOUS
 62
     2
 10
43.925145067
 20
124.165536816
 30
0.0
  0
VERTEX
  8
0
  6
CONTINUOUS
 62
     2
 10
44.059718467
 20
124.252560948
 30
0.0
  0
VERTEX
  8
0
  6
CONTINUOUS
 62
     2
 10
44.194291867
 20
124.341379392
 30
0.0
  0
VERTEX
  8
0
  6
CONTINUOUS
 62
     2
 10
44.328865267
 20
124.432889304
 30
0.0
  0
VERTEX
  8
0
  6
CONTINUOUS
 62
     2
 10
44.463438667
 20
124.52798784
 30
0.0
  0
VERTEX
  8
0
  6
CONTINUOUS
 62
     2
 10
44.605189315
 20
124.634749404
 30
0.0
  0
VERTEX
  8
0
  6
CONTINUOUS
 62
     2
 10
44.745145651
 20
124.745099592
 30
0.0
  0
VERTEX
  8
0
  6
CONTINUOUS
 62
     2
 10
44.881513363
 20
124.858141248
 30
0.0
  0
VERTEX
  8
0
  6
CONTINUOUS
 62
     2
 10
45.012498139
 20
124.972977216
 30
0.0
  0
VERTEX
  8
0
  6
CONTINUOUS
 62
     2
 10
45.136305667
 20
125.08871034
 30
0.0
  0
VERTEX
  8
0
  6
CONTINUOUS
 62
     2
 10
45.247553011
 20
125.197266216
 30
0.0
  0
VERTEX
  8
0
  6
CONTINUOUS
 62
     2
 10
45.348931639
 20
125.306719248
 30
0.0
  0
VERTEX
  8
0
  6
CONTINUOUS
 62
     2
 10
45.439544395
 20
125.417966592
 30
0.0
  0
VERTEX
  8
0
  6
CONTINUOUS
 62
     2
 10
45.518494123
 20
125.531905404
 30
0.0
  0
VERTEX
  8
0
  6
CONTINUOUS
 62
     2
 10
45.584883667
 20
125.64943284
 30
0.0
  0
VERTEX
  8
0
  6
CONTINUOUS
 62
     2
 10
45.630638623
 20
125.789389176
 30
0.0
  0
VERTEX
  8
0
  6
CONTINUOUS
 62
     2
 10
45.663833395
 20
125.930242668
 30
0.0
  0
VERTEX
  8
0
  6
CONTINUOUS
 62
     2
 10
45.685365139
 20
126.068404692
 30
0.0
  0
VERTEX
  8
0
  6
CONTINUOUS
 62
     2
 10
45.696131011
 20
126.200286624
 30
0.0
  0
VERTEX
  8
0
  6
CONTINUOUS
 62
     2
 10
45.697028167
 20
126.32229984
 30
0.0
  0
VERTEX
  8
0
  6
CONTINUOUS
 62
     2
 10
45.696131011
 20
126.420089844
 30
0.0
  0
VERTEX
  8
0
  6
CONTINUOUS
 62
     2
 10
45.685365139
 20
126.503525352
 30
0.0
  0
VERTEX
  8
0
  6
CONTINUOUS
 62
     2
 10
45.663833395
 20
126.571709208
 30
0.0
  0
VERTEX
  8
0
  6
CONTINUOUS
 62
     2
 10
45.630638623
 20
126.623744256
 30
0.0
  0
VERTEX
  8
0
  6
CONTINUOUS
 62
     2
 10
45.584883667
 20
126.65873334
 30
0.0
  0
VERTEX
  8
0
  6
CONTINUOUS
 62
     2
 10
45.504139627
 20
126.668602056
 30
0.0
  0
VERTEX
  8
0
  6
CONTINUOUS
 62
     2
 10
45.414424027
 20
126.661424808
 30
0.0
  0
VERTEX
  8
0
  6
CONTINUOUS
 62
     2
 10
45.320222647
 20
126.638098752
 30
0.0
  0
VERTEX
  8
0
  6
CONTINUOUS
 62
     2
 10
45.226021267
 20
126.599521044
 30
0.0
  0
VERTEX
  8
0
  6
CONTINUOUS
 62
     2
 10
45.136305667
 20
126.54658884
 30
0.0
  0
VERTEX
  8
0
  6
CONTINUOUS
 62
     2
 10
45.084270619
 20
126.480199296
 30
0.0
  0
VERTEX
  8
0
  6
CONTINUOUS
 62
     2
 10
45.038515663
 20
126.401249568
 30
0.0
  0
VERTEX
  8
0
  6
CONTINUOUS
 62
     2
 10
44.996349331
 20
126.310636812
 30
0.0
  0
VERTEX
  8
0
  6
CONTINUOUS
 62
     2
 10
44.955080155
 20
126.209258184
 30
0.0
  0
VERTEX
  8
0
  6
CONTINUOUS
 62
     2
 10
44.912016667
 20
126.09801084
 30
0.0
  0
VERTEX
  8
0
  6
CONTINUOUS
 62
     2
 10
44.842935655
 20
125.977791936
 30
0.0
  0
VERTEX
  8
0
  6
CONTINUOUS
 62
     2
 10
44.772060331
 20
125.849498628
 30
0.0
  0
VERTEX
  8
0
  6
CONTINUOUS
 62
     2
 10
44.702082163
 20
125.714028072
 30
0.0
  0
VERTEX
  8
0
  6
CONTINUOUS
 62
     2
 10
44.635692619
 20
125.572277424
 30
0.0
  0
VERTEX
  8
0
  6
CONTINUOUS
 62
     2
 10
44.575583167
 20
125.42514384
 30
0.0
  0
VERTEX
  8
0
  6
CONTINUOUS
 62
     2
 10
44.538799771
 20
125.273524476
 30
0.0
  0
VERTEX
  8
0
  6
CONTINUOUS
 62
     2
 10
44.510090779
 20
125.118316488
 30
0.0
  0
VERTEX
  8
0
  6
CONTINUOUS
 62
     2
 10
44.488559035
 20
124.960417032
 30
0.0
  0
VERTEX
  8
0
  6
CONTINUOUS
 62
     2
 10
44.473307383
 20
124.800723264
 30
0.0
  0
VERTEX
  8
0
  6
CONTINUOUS
 62
     2
 10
44.463438667
 20
124.64013234
 30
0.0
  0
VERTEX
  8
0
  6
CONTINUOUS
 62
     2
 10
44.458055731
 20
124.475952792
 30
0.0
  0
VERTEX
  8
0
  6
CONTINUOUS
 62
     2
 10
44.456261419
 20
124.313567556
 30
0.0
  0
VERTEX
  8
0
  6
CONTINUOUS
 62
     2
 10
44.457158575
 20
124.154770944
 30
0.0
  0
VERTEX
  8
0
  6
CONTINUOUS
 62
     2
 10
44.459850043
 20
124.001357268
 30
0.0
  0
VERTEX
  8
0
  6
CONTINUOUS
 62
     2
 10
44.463438667
 20
123.85512084
 30
0.0
  0
VERTEX
  8
0
  6
CONTINUOUS
 62
     2
 10
44.463438667
 20
123.72503322
 30
0.0
  0
VERTEX
  8
0
  6
CONTINUOUS
 62
     2
 10
44.463438667
 20
123.60391716
 30
0.0
  0
VERTEX
  8
0
  6
CONTINUOUS
 62
     2
 10
44.463438667
 20
123.49177266
 30
0.0
  0
VERTEX
  8
0
  6
CONTINUOUS
 62
     2
 10
44.463438667
 20
123.38859972
 30
0.0
  0
VERTEX
  8
0
  6
CONTINUOUS
 62
     2
 10
44.463438667
 20
123.29439834
 30
0.0
  0
VERTEX
  8
0
  6
CONTINUOUS
 62
     2
 10
44.459850043
 20
123.169693656
 30
0.0
  0
VERTEX
  8
0
  6
CONTINUOUS
 62
     2
 10
44.457158575
 20
123.063829248
 30
0.0
  0
VERTEX
  8
0
  6
CONTINUOUS
 62
     2
 10
44.456261419
 20
122.986673832
 30
0.0
  0
VERTEX
  8
0
  6
CONTINUOUS
 62
     2
 10
44.458055731
 20
122.948096124
 30
0.0
  0
VERTEX
  8
0
  6
CONTINUOUS
 62
     2
 10
44.463438667
 20
122.95796484
 30
0.0
  0
VERTEX
  8
0
  6
CONTINUOUS
 62
     2
 10
44.469718759
 20
123.133807416
 30
0.0
  0
VERTEX
  8
0
  6
CONTINUOUS
 62
     2
 10
44.482278943
 20
123.350919168
 30
0.0
  0
VERTEX
  8
0
  6
CONTINUOUS
 62
     2
 10
44.502913531
 20
123.592254132
 30
0.0
  0
VERTEX
  8
0
  6
CONTINUOUS
 62
     2
 10
44.533416835
 20
123.840766344
 30
0.0
  0
VERTEX
  8
0
  6
CONTINUOUS
 62
     2
 10
44.575583167
 20
124.07940984
 30
0.0
  0
VERTEX
  8
0
  6
CONTINUOUS
 62
     2
 10
44.649149959
 20
124.212188928
 30
0.0
  0
VERTEX
  8
0
  6
CONTINUOUS
 62
     2
 10
44.733482623
 20
124.320744804
 30
0.0
  0
VERTEX
  8
0
  6
CONTINUOUS
 62
     2
 10
44.825889691
 20
124.407768936
 30
0.0
  0
VERTEX
  8
0
  6
CONTINUOUS
 62
     2
 10
44.923679695
 20
124.475952792
 30
0.0
  0
VERTEX
  8
0
  6
CONTINUOUS
 62
     2
 10
45.024161167
 20
124.52798784
 30
0.0
  0
VERTEX
  8
0
  6
CONTINUOUS
 62
     2
 10
45.113876767
 20
124.573742796
 30
0.0
  0
VERTEX
  8
0
  6
CONTINUOUS
 62
     2
 10
45.203592367
 20
124.606937568
 30
0.0
  0
VERTEX
  8
0
  6
CONTINUOUS
 62
     2
 10
45.293307967
 20
124.628469312
 30
0.0
  0
VERTEX
  8
0
  6
CONTINUOUS
 62
     2
 10
45.383023567
 20
124.639235184
 30
0.0
  0
VERTEX
  8
0
  6
CONTINUOUS
 62
     2
 10
45.472739167
 20
124.64013234
 30
0.0
  0
VERTEX
  8
0
  6
CONTINUOUS
 62
     2
 10
45.576809263
 20
124.642823808
 30
0.0
  0
VERTEX
  8
0
  6
CONTINUOUS
 62
     2
 10
45.677290735
 20
124.634749404
 30
0.0
  0
VERTEX
  8
0
  6
CONTINUOUS
 62
     2
 10
45.770594959
 20
124.614114816
 30
0.0
  0
VERTEX
  8
0
  6
CONTINUOUS
 62
     2
 10
45.853133311
 20
124.579125732
 30
0.0
  0
VERTEX
  8
0
  6
CONTINUOUS
 62
     2
 10
45.921317167
 20
124.52798784
 30
0.0
  0
VERTEX
  8
0
  6
CONTINUOUS
 62
     2
 10
45.953614783
 20
124.426609212
 30
0.0
  0
VERTEX
  8
0
  6
CONTINUOUS
 62
     2
 10
45.968866435
 20
124.313567556
 30
0.0
  0
VERTEX
  8
0
  6
CONTINUOUS
 62
     2
 10
45.967969279
 20
124.195142964
 30
0.0
  0
VERTEX
  8
0
  6
CONTINUOUS
 62
     2
 10
45.951820471
 20
124.077615528
 30
0.0
  0
VERTEX
  8
0
  6
CONTINUOUS
 62
     2
 10
45.921317167
 20
123.96726534
 30
0.0
  0
VERTEX
  8
0
  6
CONTINUOUS
 62
     2
 10
45.870179275
 20
123.89549286
 30
0.0
  0
VERTEX
  8
0
  6
CONTINUOUS
 62
     2
 10
45.808275511
 20
123.83717772
 30
0.0
  0
VERTEX
  8
0
  6
CONTINUOUS
 62
     2
 10
45.738297343
 20
123.79231992
 30
0.0
  0
VERTEX
  8
0
  6
CONTINUOUS
 62
     2
 10
45.662936239
 20
123.76091946
 30
0.0
  0
VERTEX
  8
0
  6
CONTINUOUS
 62
     2
 10
45.584883667
 20
123.74297634
 30
0.0
  0
VERTEX
  8
0
  6
CONTINUOUS
 62
     2
 10
45.506831095
 20
123.745667808
 30
0.0
  0
VERTEX
  8
0
  6
CONTINUOUS
 62
     2
 10
45.431469991
 20
123.760022304
 30
0.0
  0
VERTEX
  8
0
  6
CONTINUOUS
 62
     2
 10
45.361491823
 20
123.784245516
 30
0.0
  0
VERTEX
  8
0
  6
CONTINUOUS
 62
     2
 10
45.299588059
 20
123.816543132
 30
0.0
  0
VERTEX
  8
0
  6
CONTINUOUS
 62
     2
 10
45.248450167
 20
123.85512084
 30
0.0
  0
VERTEX
  8
0
  6
CONTINUOUS
 62
     2
 10
45.232301359
 20
123.923304696
 30
0.0
  0
VERTEX
  8
0
  6
CONTINUOUS
 62
     2
 10
45.226918423
 20
123.987899928
 30
0.0
  0
VERTEX
  8
0
  6
CONTINUOUS
 62
     2
 10
45.229609891
 20
124.040832132
 30
0.0
  0
VERTEX
  8
0
  6
CONTINUOUS
 62
     2
 10
45.237684295
 20
124.074026904
 30
0.0
  0
VERTEX
  8
0
  6
CONTINUOUS
 62
     2
 10
45.248450167
 20
124.07940984
 30
0.0
  0
VERTEX
  8
0
  6
CONTINUOUS
 62
     2
 10
45.241272919
 20
123.98072268
 30
0.0
  0
VERTEX
  8
0
  6
CONTINUOUS
 62
     2
 10
45.235889983
 20
123.85512084
 30
0.0
  0
VERTEX
  8
0
  6
CONTINUOUS
 62
     2
 10
45.234095671
 20
123.71157588
 30
0.0
  0
VERTEX
  8
0
  6
CONTINUOUS
 62
     2
 10
45.237684295
 20
123.55905936
 30
0.0
  0
VERTEX
  8
0
  6
CONTINUOUS
 62
     2
 10
45.248450167
 20
123.40654284
 30
0.0
  0
VERTEX
  8
0
  6
CONTINUOUS
 62
     2
 10
45.278953471
 20
123.291706872
 30
0.0
  0
VERTEX
  8
0
  6
CONTINUOUS
 62
     2
 10
45.317531179
 20
123.187636776
 30
0.0
  0
VERTEX
  8
0
  6
CONTINUOUS
 62
     2
 10
45.363286135
 20
123.096126864
 30
0.0
  0
VERTEX
  8
0
  6
CONTINUOUS
 62
     2
 10
45.415321183
 20
123.018971448
 30
0.0
  0
VERTEX
  8
0
  6
CONTINUOUS
 62
     2
 10
45.472739167
 20
122.95796484
 30
0.0
  0
VERTEX
  8
0
  6
CONTINUOUS
 62
     2
 10
45.538231555
 20
122.936433096
 30
0.0
  0
VERTEX
  8
0
  6
CONTINUOUS
 62
     2
 10
45.606415411
 20
122.929255848
 30
0.0
  0
VERTEX
  8
0
  6
CONTINUOUS
 62
     2
 10
45.675496423
 20
122.932844472
 30
0.0
  0
VERTEX
  8
0
  6
CONTINUOUS
 62
     2
 10
45.743680279
 20
122.943610344
 30
0.0
  0
VERTEX
  8
0
  6
CONTINUOUS
 62
     2
 10
45.809172667
 20
122.95796484
 30
0.0
  0
VERTEX
  8
0
  6
CONTINUOUS
 62
     2
 10
45.859413403
 20
122.95796484
 30
0.0
  0
VERTEX
  8
0
  6
CONTINUOUS
 62
     2
 10
45.906065515
 20
122.95796484
 30
0.0
  0
VERTEX
  8
0
  6
CONTINUOUS
 62
     2
 10
45.950026159
 20
122.95796484
 30
0.0
  0
VERTEX
  8
0
  6
CONTINUOUS
 62
     2
 10
45.992192491
 20
122.95796484
 30
0.0
  0
VERTEX
  8
0
  6
CONTINUOUS
 62
     2
 10
46.033461667
 20
122.95796484
 30
0.0
  0
SEQEND
  0
TEXT
  8
0
  6
CONTINUOUS
 62
     3
 10
235.4
 20
17.0
 30
0.2
 40
5.8
  1
ＭＳ－６０３０　　Ａ
 50
0.0
 41
0.827586207
 51
0.0
  7
KANJI6
  0
LINE
  8
0
  6
CONTINUOUS
 62
     2
 10
105.661
 20
139.579
 30
0.0
 11
105.661
 21
134.299
 31
0.0
  0
LINE
  8
0
  6
CONTINUOUS
 62
     2
 10
105.781
 20
139.579
 30
0.0
 11
105.781
 21
134.299
 31
0.0
  0
LINE
  8
0
  6
CONTINUOUS
 62
     2
 10
105.901
 20
139.579
 30
0.0
 11
105.901
 21
134.299
 31
0.0
  0
ARC
  8
0
  6
CONTINUOUS
 62
     2
 10
105.901
 20
139.579
 30
0.0
 40
0.24
 50
0.0
 51
180.0
  0
ARC
  8
0
  6
CONTINUOUS
 62
     2
 10
105.901
 20
139.579
 30
0.0
 40
0.12
 50
0.0
 51
180.0
  0
LINE
  8
0
  6
CONTINUOUS
 62
     2
 10
105.901
 20
134.299
 30
0.0
 11
108.061
 21
134.299
 31
0.0
  0
LINE
  8
0
  6
CONTINUOUS
 62
     2
 10
105.901
 20
134.179
 30
0.0
 11
108.061
 21
134.179
 31
0.0
  0
LINE
  8
0
  6
CONTINUOUS
 62
     2
 10
105.901
 20
134.059
 30
0.0
 11
108.061
 21
134.059
 31
0.0
  0
ARC
  8
0
  6
CONTINUOUS
 62
     2
 10
105.901
 20
134.299
 30
0.0
 40
0.24
 50
180.0
 51
270.0
  0
ARC
  8
0
  6
CONTINUOUS
 62
     2
 10
105.901
 20
134.299
 30
0.0
 40
0.12
 50
180.0
 51
270.0
  0
ARC
  8
0
  6
CONTINUOUS
 62
     2
 10
108.061
 20
134.299
 30
0.0
 40
0.24
 50
270.0
 51
90.0
  0
ARC
  8
0
  6
CONTINUOUS
 62
     2
 10
108.061
 20
134.299
 30
0.0
 40
0.12
 50
270.0
 51
90.0
  0
LINE
  8
0
  6
CONTINUOUS
 62
     2
 10
106.141
 20
139.579
 30
0.0
 11
106.141
 21
134.539
 31
0.0
  0
LINE
  8
0
  6
CONTINUOUS
 62
     2
 10
106.141
 20
134.539
 30
0.0
 11
108.061
 21
134.539
 31
0.0
  0
LINE
  8
0
  6
CONTINUOUS
 62
     2
 10
106.021
 20
139.579
 30
0.0
 11
106.021
 21
134.419
 31
0.0
  0
LINE
  8
0
  6
CONTINUOUS
 62
     2
 10
106.021
 20
134.419
 30
0.0
 11
108.061
 21
134.419
 31
0.0
  0
LINE
  8
0
  6
CONTINUOUS
 62
     1
 10
47.355695771
 20
88.011408731
 30
0.0
 11
34.493652114
 21
84.152795634
 31
0.0
  0
LINE
  8
0
  6
CONTINUOUS
 62
     1
 10
33.781
 20
83.194969349
 30
0.0
 11
33.781
 21
76.439
 31
0.0
  0
ARC
  8
0
  6
CONTINUOUS
 62
     1
 10
34.781
 20
83.194969349
 30
0.0
 40
1.0
 50
106.699244234
 51
180.0
  0
LINE
  8
0
  6
CONTINUOUS
 62
     1
 10
33.781
 20
69.683030651
 30
0.0
 11
33.781
 21
76.439
 31
0.0
  0
LINE
  8
0
  6
CONTINUOUS
 62
     1
 10
47.355695771
 20
64.866591269
 30
0.0
 11
34.493652114
 21
68.725204366
 31
0.0
  0
ARC
  8
0
  6
CONTINUOUS
 62
     1
 10
34.781
 20
69.683030651
 30
0.0
 40
1.0
 50
180.0
 51
253.300755766
  0
LINE
  8
0
  6
CONTINUOUS
 62
     1
 10
85.206304229
 20
64.866591269
 30
0.0
 11
98.068347886
 21
68.725204366
 31
0.0
  0
LINE
  8
0
  6
CONTINUOUS
 62
     1
 10
98.781
 20
69.683030651
 30
0.0
 11
98.781
 21
76.439
 31
0.0
  0
ARC
  8
0
  6
CONTINUOUS
 62
     1
 10
97.781
 20
69.683030651
 30
0.0
 40
1.0
 50
286.699244234
 51
0.0
  0
LINE
  8
0
  6
CONTINUOUS
 62
     1
 10
85.206304229
 20
88.011408731
 30
0.0
 11
98.068347886
 21
84.152795634
 31
0.0
  0
LINE
  8
0
  6
CONTINUOUS
 62
     1
 10
98.781
 20
83.194969349
 30
0.0
 11
98.781
 21
76.439
 31
0.0
  0
ARC
  8
0
  6
CONTINUOUS
 62
     1
 10
97.781
 20
83.194969349
 30
0.0
 40
1.0
 50
0.0
 51
73.300755766
  0
LINE
  8
0
  6
CONTINUOUS
 62
     1
 10
47.355695771
 20
160.911408731
 30
0.0
 11
34.493652114
 21
157.052795634
 31
0.0
  0
LINE
  8
0
  6
CONTINUOUS
 62
     1
 10
33.781
 20
156.094969349
 30
0.0
 11
33.781
 21
149.339
 31
0.0
  0
ARC
  8
0
  6
CONTINUOUS
 62
     1
 10
34.781
 20
156.094969349
 30
0.0
 40
1.0
 50
106.699244234
 51
180.0
  0
LINE
  8
0
  6
CONTINUOUS
 62
     1
 10
33.781
 20
142.583030651
 30
0.0
 11
33.781
 21
149.339
 31
0.0
  0
LINE
  8
0
  6
CONTINUOUS
 62
     1
 10
47.355695771
 20
137.766591269
 30
0.0
 11
34.493652114
 21
141.625204366
 31
0.0
  0
ARC
  8
0
  6
CONTINUOUS
 62
     1
 10
34.781
 20
142.583030651
 30
0.0
 40
1.0
 50
180.0
 51
253.300755766
  0
LINE
  8
0
  6
CONTINUOUS
 62
     1
 10
85.206304229
 20
160.911408731
 30
0.0
 11
98.068347886
 21
157.052795634
 31
0.0
  0
LINE
  8
0
  6
CONTINUOUS
 62
     1
 10
98.781
 20
156.094969349
 30
0.0
 11
98.781
 21
149.339
 31
0.0
  0
ARC
  8
0
  6
CONTINUOUS
 62
     1
 10
97.781
 20
156.094969349
 30
0.0
 40
1.0
 50
0.0
 51
73.300755766
  0
LINE
  8
0
  6
CONTINUOUS
 62
     1
 10
85.206304229
 20
137.766591269
 30
0.0
 11
98.068347886
 21
141.625204366
 31
0.0
  0
LINE
  8
0
  6
CONTINUOUS
 62
     1
 10
98.781
 20
142.583030651
 30
0.0
 11
98.781
 21
149.339
 31
0.0
  0
ARC
  8
0
  6
CONTINUOUS
 62
     1
 10
97.781
 20
142.583030651
 30
0.0
 40
1.0
 50
286.699244234
 51
0.0
  0
LINE
  8
0
  6
CONTINUOUS
 62
     1
 10
53.942926408
 20
45.439
 30
0.0
 11
29.843133946
 21
45.439
 31
0.0
  0
LINE
  8
0
  6
CONTINUOUS
 62
     1
 10
29.643133946
 20
45.239
 30
0.0
 11
29.643133946
 21
43.839
 31
0.0
  0
ARC
  8
0
  6
CONTINUOUS
 62
     1
 10
29.843133946
 20
45.239
 30
0.0
 40
0.2
 50
90.0
 51
180.0
  0
LINE
  8
0
  6
CONTINUOUS
 62
     1
 10
78.619073592
 20
45.439
 30
0.0
 11
102.718866054
 21
45.439
 31
0.0
  0
LINE
  8
0
  6
CONTINUOUS
 62
     1
 10
102.918866054
 20
45.239
 30
0.0
 11
102.918866054
 21
43.839
 31
0.0
  0
ARC
  8
0
  6
CONTINUOUS
 62
     1
 10
102.718866054
 20
45.239
 30
0.0
 40
0.2
 50
0.0
 51
90.0
  0
TEXT
  8
0
  6
CONTINUOUS
 62
     2
 10
158.528950673
 20
175.284799327
 30
0.375
 40
3.75
  1
ＣＯＭＡ－５
 50
0.0
 41
0.45
 51
0.0
  7
KANJI7
  0
TEXT
  8
0
  6
CONTINUOUS
 62
     2
 10
176.872700673
 20
175.284799327
 30
0.375
 40
3.75
  1
ＣＯＭＡ－１５
 50
0.0
 41
0.45
 51
0.0
  7
KANJI7
  0
TEXT
  8
0
  6
CONTINUOUS
 62
     2
 10
197.966450673
 20
175.284799327
 30
0.375
 40
3.75
  1
ＣＯＭＡ－４０
 50
0.0
 41
0.45
 51
0.0
  7
KANJI7
  0
TEXT
  8
0
  6
CONTINUOUS
 62
     2
 10
174.872700673
 20
156.534799327
 30
0.375
 40
3.75
  1
１１５０Ｖ
 50
0.0
 41
0.9
 51
0.0
  7
KANJI5
  0
TEXT
  8
0
  6
CONTINUOUS
 62
     2
 10
172.060200673
 20
147.159799327
 30
0.375
 40
3.75
  1
５Ａ　又は　１Ａ
 50
0.0
 41
0.9
 51
0.0
  7
KANJI5
  0
TEXT
  8
0
  6
CONTINUOUS
 62
     2
 10
172.528950673
 20
133.097299327
 30
0.375
 40
3.75
  1
５０，６０Ｈｚ
 50
0.0
 41
0.9
 51
0.0
  7
KANJI5
  0
TEXT
  8
0
  6
CONTINUOUS
 62
     2
 10
159.310200673
 20
142.472299327
 30
0.375
 40
3.75
  1
５ＶＡ
 50
0.0
 41
0.9
 51
0.0
  7
KANJI5
  0
TEXT
  8
0
  6
CONTINUOUS
 62
     2
 10
176.185200673
 20
142.472299327
 30
0.375
 40
3.75
  1
１５ＶＡ
 50
0.0
 41
0.9
 51
0.0
  7
KANJI5
  0
TEXT
  8
0
  6
CONTINUOUS
 62
     2
 10
197.278950673
 20
142.472299327
 30
0.375
 40
3.75
  1
４０ＶＡ
 50
0.0
 41
0.9
 51
0.0
  7
KANJI5
  0
TEXT
  8
0
  6
CONTINUOUS
 62
     2
 10
139.060200673
 20
128.409799327
 30
0.375
 40
3.75
  1
質　量
 50
0.0
 41
0.9
 51
0.0
  7
KANJI5
  0
TEXT
  8
0
  6
CONTINUOUS
 62
     2
 10
167.685200673
 20
165.909799327
 30
0.375
 40
3.75
  1
ＪＩＳ　Ｃ　１７３１
 50
0.0
 41
0.9
 51
0.0
  7
KANJI5
  0
LINE
  8
0
  6
CONTINUOUS
 62
     2
 10
112.920817086
 20
120.392350879
 30
0.0
 11
112.920817086
 21
105.392350879
 31
0.0
  0
TEXT
  8
0
  6
CONTINUOUS
 62
     2
 10
113.670817086
 20
117.204850879
 30
0.375
 40
2.8125
  1
定格負担
 50
0.0
 41
1.0
 51
0.0
  7
KANJI8
  0
LINE
  8
0
  6
CONTINUOUS
 62
     2
 10
112.920817086
 20
120.392350879
 30
0.0
 11
126.795817086
 21
120.392350879
 31
0.0
  0
LINE
  8
0
  6
CONTINUOUS
 62
     2
 10
126.795817086
 20
120.392350879
 30
0.0
 11
126.795817086
 21
105.392350879
 31
0.0
  0
LINE
  8
0
  6
CONTINUOUS
 62
     2
 10
112.920817086
 20
116.642350879
 30
0.0
 11
126.983317086
 21
116.642350879
 31
0.0
  0
LINE
  8
0
  6
CONTINUOUS
 62
     2
 10
112.920817086
 20
112.892350879
 30
0.0
 11
126.795817086
 21
112.892350879
 31
0.0
  0
LINE
  8
0
  6
CONTINUOUS
 62
     2
 10
112.920817086
 20
109.142350879
 30
0.0
 11
126.795817086
 21
109.142350879
 31
0.0
  0
LINE
  8
0
  6
CONTINUOUS
 62
     2
 10
112.920817086
 20
105.392350879
 30
0.0
 11
126.795817086
 21
105.392350879
 31
0.0
  0
TEXT
  8
0
  6
CONTINUOUS
 62
     2
 10
127.545817086
 20
113.267350879
 30
0.375
 40
2.8125
  1
１００
 50
0.0
 41
1.0
 51
0.0
  7
KANJI8
  0
TEXT
  8
0
  6
CONTINUOUS
 62
     2
 10
127.545817086
 20
109.704850879
 30
0.375
 40
2.8125
  1
１４０
 50
0.0
 41
1.0
 51
0.0
  7
KANJI8
  0
TEXT
  8
0
  6
CONTINUOUS
 62
     2
 10
127.545817086
 20
105.767350879
 30
0.375
 40
2.8125
  1
１６０
 50
0.0
 41
1.0
 51
0.0
  7
KANJI8
  0
LINE
  8
0
  6
CONTINUOUS
 62
     2
 10
137.670817086
 20
120.392350879
 30
0.0
 11
137.670817086
 21
105.392350879
 31
0.0
  0
LINE
  8
0
  6
CONTINUOUS
 62
     2
 10
126.795817086
 20
120.392350879
 30
0.0
 11
137.670817086
 21
120.392350879
 31
0.0
  0
LINE
  8
0
  6
CONTINUOUS
 62
     2
 10
126.795817086
 20
105.392350879
 30
0.0
 11
137.670817086
 21
105.392350879
 31
0.0
  0
LINE
  8
0
  6
CONTINUOUS
 62
     2
 10
126.795817086
 20
109.142350879
 30
0.0
 11
137.670817086
 21
109.142350879
 31
0.0
  0
LINE
  8
0
  6
CONTINUOUS
 62
     2
 10
126.795817086
 20
112.892350879
 30
0.0
 11
137.670817086
 21
112.892350879
 31
0.0
  0
LINE
  8
0
  6
CONTINUOUS
 62
     2
 10
126.983317086
 20
116.642350879
 30
0.0
 11
137.670817086
 21
116.642350879
 31
0.0
  0
LINE
  8
0
  6
CONTINUOUS
 62
     2
 10
148.545817086
 20
120.392350879
 30
0.0
 11
148.545817086
 21
105.392350879
 31
0.0
  0
LINE
  8
0
  6
CONTINUOUS
 62
     2
 10
137.670817086
 20
120.392350879
 30
0.0
 11
148.545817086
 21
120.392350879
 31
0.0
  0
LINE
  8
0
  6
CONTINUOUS
 62
     2
 10
137.670817086
 20
105.392350879
 30
0.0
 11
148.545817086
 21
105.392350879
 31
0.0
  0
LINE
  8
0
  6
CONTINUOUS
 62
     2
 10
137.670817086
 20
109.142350879
 30
0.0
 11
148.545817086
 21
109.142350879
 31
0.0
  0
LINE
  8
0
  6
CONTINUOUS
 62
     2
 10
137.670817086
 20
112.892350879
 30
0.0
 11
148.545817086
 21
112.892350879
 31
0.0
  0
LINE
  8
0
  6
CONTINUOUS
 62
     2
 10
137.858317086
 20
116.642350879
 30
0.0
 11
148.545817086
 21
116.642350879
 31
0.0
  0
TEXT
  8
0
  6
CONTINUOUS
 62
     2
 10
149.295817086
 20
113.267350879
 30
0.375
 40
2.8125
  1
１００
 50
0.0
 41
1.0
 51
0.0
  7
KANJI8
  0
LINE
  8
0
  6
CONTINUOUS
 62
     2
 10
159.420817086
 20
120.392350879
 30
0.0
 11
159.420817086
 21
105.392350879
 31
0.0
  0
LINE
  8
0
  6
CONTINUOUS
 62
     2
 10
148.545817086
 20
120.392350879
 30
0.0
 11
159.420817086
 21
120.392350879
 31
0.0
  0
LINE
  8
0
  6
CONTINUOUS
 62
     2
 10
148.545817086
 20
105.392350879
 30
0.0
 11
159.420817086
 21
105.392350879
 31
0.0
  0
LINE
  8
0
  6
CONTINUOUS
 62
     2
 10
148.545817086
 20
109.142350879
 30
0.0
 11
159.420817086
 21
109.142350879
 31
0.0
  0
LINE
  8
0
  6
CONTINUOUS
 62
     2
 10
148.545817086
 20
112.892350879
 30
0.0
 11
159.420817086
 21
112.892350879
 31
0.0
  0
LINE
  8
0
  6
CONTINUOUS
 62
     2
 10
148.733317086
 20
116.642350879
 30
0.0
 11
159.420817086
 21
116.642350879
 31
0.0
  0
LINE
  8
0
  6
CONTINUOUS
 62
     2
 10
170.295817086
 20
120.392350879
 30
0.0
 11
170.295817086
 21
105.392350879
 31
0.0
  0
LINE
  8
0
  6
CONTINUOUS
 62
     2
 10
159.420817086
 20
120.392350879
 30
0.0
 11
170.295817086
 21
120.392350879
 31
0.0
  0
LINE
  8
0
  6
CONTINUOUS
 62
     2
 10
159.420817086
 20
105.392350879
 30
0.0
 11
170.295817086
 21
105.392350879
 31
0.0
  0
LINE
  8
0
  6
CONTINUOUS
 62
     2
 10
159.420817086
 20
109.142350879
 30
0.0
 11
170.295817086
 21
109.142350879
 31
0.0
  0
LINE
  8
0
  6
CONTINUOUS
 62
     2
 10
159.420817086
 20
112.892350879
 30
0.0
 11
170.295817086
 21
112.892350879
 31
0.0
  0
LINE
  8
0
  6
CONTINUOUS
 62
     2
 10
159.608317086
 20
116.642350879
 30
0.0
 11
170.295817086
 21
116.642350879
 31
0.0
  0
LINE
  8
0
  6
CONTINUOUS
 62
     2
 10
181.170817086
 20
120.392350879
 30
0.0
 11
181.170817086
 21
105.392350879
 31
0.0
  0
LINE
  8
0
  6
CONTINUOUS
 62
     2
 10
170.295817086
 20
120.392350879
 30
0.0
 11
181.170817086
 21
120.392350879
 31
0.0
  0
LINE
  8
0
  6
CONTINUOUS
 62
     2
 10
170.295817086
 20
105.392350879
 30
0.0
 11
181.170817086
 21
105.392350879
 31
0.0
  0
LINE
  8
0
  6
CONTINUOUS
 62
     2
 10
170.295817086
 20
109.142350879
 30
0.0
 11
181.170817086
 21
109.142350879
 31
0.0
  0
LINE
  8
0
  6
CONTINUOUS
 62
     2
 10
170.295817086
 20
112.892350879
 30
0.0
 11
181.170817086
 21
112.892350879
 31
0.0
  0
LINE
  8
0
  6
CONTINUOUS
 62
     2
 10
170.483317086
 20
116.642350879
 30
0.0
 11
181.170817086
 21
116.642350879
 31
0.0
  0
LINE
  8
0
  6
CONTINUOUS
 62
     2
 10
192.045817086
 20
120.392350879
 30
0.0
 11
192.045817086
 21
105.392350879
 31
0.0
  0
LINE
  8
0
  6
CONTINUOUS
 62
     2
 10
181.170817086
 20
120.392350879
 30
0.0
 11
192.045817086
 21
120.392350879
 31
0.0
  0
LINE
  8
0
  6
CONTINUOUS
 62
     2
 10
181.170817086
 20
105.392350879
 30
0.0
 11
192.045817086
 21
105.392350879
 31
0.0
  0
LINE
  8
0
  6
CONTINUOUS
 62
     2
 10
181.170817086
 20
109.142350879
 30
0.0
 11
192.045817086
 21
109.142350879
 31
0.0
  0
LINE
  8
0
  6
CONTINUOUS
 62
     2
 10
181.170817086
 20
112.892350879
 30
0.0
 11
192.045817086
 21
112.892350879
 31
0.0
  0
LINE
  8
0
  6
CONTINUOUS
 62
     2
 10
181.358317086
 20
116.642350879
 30
0.0
 11
192.045817086
 21
116.642350879
 31
0.0
  0
TEXT
  8
0
  6
CONTINUOUS
 62
     2
 10
149.295817086
 20
109.704850879
 30
0.375
 40
2.8125
  1
１００
 50
0.0
 41
1.0
 51
0.0
  7
KANJI8
  0
TEXT
  8
0
  6
CONTINUOUS
 62
     2
 10
149.295817086
 20
105.767350879
 30
0.375
 40
2.8125
  1
１１２
 50
0.0
 41
1.0
 51
0.0
  7
KANJI8
  0
TEXT
  8
0
  6
CONTINUOUS
 62
     2
 10
139.920817086
 20
113.267350879
 30
0.375
 40
2.8125
  1
８５
 50
0.0
 41
1.0
 51
0.0
  7
KANJI8
  0
TEXT
  8
0
  6
CONTINUOUS
 62
     2
 10
139.920817086
 20
109.704850879
 30
0.375
 40
2.8125
  1
８５
 50
0.0
 41
1.0
 51
0.0
  7
KANJI8
  0
TEXT
  8
0
  6
CONTINUOUS
 62
     2
 10
139.920817086
 20
105.767350879
 30
0.375
 40
2.8125
  1
９５
 50
0.0
 41
1.0
 51
0.0
  7
KANJI8
  0
TEXT
  8
0
  6
CONTINUOUS
 62
     2
 10
161.483317086
 20
113.267350879
 30
0.375
 40
2.8125
  1
８０
 50
0.0
 41
1.0
 51
0.0
  7
KANJI8
  0
TEXT
  8
0
  6
CONTINUOUS
 62
     2
 10
161.483317086
 20
109.704850879
 30
0.375
 40
2.8125
  1
８０
 50
0.0
 41
1.0
 51
0.0
  7
KANJI8
  0
TEXT
  8
0
  6
CONTINUOUS
 62
     2
 10
161.483317086
 20
105.767350879
 30
0.375
 40
2.8125
  1
９５
 50
0.0
 41
1.0
 51
0.0
  7
KANJI8
  0
TEXT
  8
0
  6
CONTINUOUS
 62
     2
 10
172.358317086
 20
113.267350879
 30
0.375
 40
2.8125
  1
１０
 50
0.0
 41
1.0
 51
0.0
  7
KANJI8
  0
TEXT
  8
0
  6
CONTINUOUS
 62
     2
 10
172.358317086
 20
109.704850879
 30
0.375
 40
2.8125
  1
１０
 50
0.0
 41
1.0
 51
0.0
  7
KANJI8
  0
TEXT
  8
0
  6
CONTINUOUS
 62
     2
 10
172.358317086
 20
105.767350879
 30
0.375
 40
2.8125
  1
１５
 50
0.0
 41
1.0
 51
0.0
  7
KANJI8
  0
TEXT
  8
0
  6
CONTINUOUS
 62
     2
 10
183.233317086
 20
113.267350879
 30
0.375
 40
2.8125
  1
４２
 50
0.0
 41
1.0
 51
0.0
  7
KANJI8
  0
TEXT
  8
0
  6
CONTINUOUS
 62
     2
 10
183.233317086
 20
109.704850879
 30
0.375
 40
2.8125
  1
４２
 50
0.0
 41
1.0
 51
0.0
  7
KANJI8
  0
TEXT
  8
0
  6
CONTINUOUS
 62
     2
 10
183.233317086
 20
105.767350879
 30
0.375
 40
2.8125
  1
５０
 50
0.0
 41
1.0
 51
0.0
  7
KANJI8
  0
LINE
  8
0
  6
CONTINUOUS
 62
     2
 10
202.920817086
 20
120.392350879
 30
0.0
 11
202.920817086
 21
105.392350879
 31
0.0
  0
LINE
  8
0
  6
CONTINUOUS
 62
     2
 10
192.045817086
 20
120.392350879
 30
0.0
 11
202.920817086
 21
120.392350879
 31
0.0
  0
LINE
  8
0
  6
CONTINUOUS
 62
     2
 10
192.045817086
 20
105.392350879
 30
0.0
 11
202.920817086
 21
105.392350879
 31
0.0
  0
LINE
  8
0
  6
CONTINUOUS
 62
     2
 10
192.045817086
 20
109.142350879
 30
0.0
 11
202.920817086
 21
109.142350879
 31
0.0
  0
LINE
  8
0
  6
CONTINUOUS
 62
     2
 10
192.045817086
 20
112.892350879
 30
0.0
 11
202.920817086
 21
112.892350879
 31
0.0
  0
LINE
  8
0
  6
CONTINUOUS
 62
     2
 10
192.233317086
 20
116.642350879
 30
0.0
 11
202.920817086
 21
116.642350879
 31
0.0
  0
LINE
  8
0
  6
CONTINUOUS
 62
     2
 10
213.795817086
 20
120.392350879
 30
0.0
 11
213.795817086
 21
105.392350879
 31
0.0
  0
LINE
  8
0
  6
CONTINUOUS
 62
     2
 10
202.920817086
 20
120.392350879
 30
0.0
 11
213.795817086
 21
120.392350879
 31
0.0
  0
LINE
  8
0
  6
CONTINUOUS
 62
     2
 10
202.920817086
 20
105.392350879
 30
0.0
 11
213.795817086
 21
105.392350879
 31
0.0
  0
LINE
  8
0
  6
CONTINUOUS
 62
     2
 10
202.920817086
 20
109.142350879
 30
0.0
 11
213.795817086
 21
109.142350879
 31
0.0
  0
LINE
  8
0
  6
CONTINUOUS
 62
     2
 10
202.920817086
 20
112.892350879
 30
0.0
 11
213.795817086
 21
112.892350879
 31
0.0
  0
LINE
  8
0
  6
CONTINUOUS
 62
     2
 10
203.108317086
 20
116.642350879
 30
0.0
 11
213.795817086
 21
116.642350879
 31
0.0
  0
TEXT
  8
0
  6
CONTINUOUS
 62
     2
 10
204.983317086
 20
113.267350879
 30
0.375
 40
2.8125
  1
６５
 50
0.0
 41
1.0
 51
0.0
  7
KANJI8
  0
TEXT
  8
0
  6
CONTINUOUS
 62
     2
 10
204.983317086
 20
109.704850879
 30
0.375
 40
2.8125
  1
６５
 50
0.0
 41
1.0
 51
0.0
  7
KANJI8
  0
TEXT
  8
0
  6
CONTINUOUS
 62
     2
 10
204.983317086
 20
105.767350879
 30
0.375
 40
2.8125
  1
８２
 50
0.0
 41
1.0
 51
0.0
  7
KANJI8
  0
LINE
  8
0
  6
CONTINUOUS
 62
     2
 10
224.670817086
 20
120.392350879
 30
0.0
 11
224.670817086
 21
105.392350879
 31
0.0
  0
LINE
  8
0
  6
CONTINUOUS
 62
     2
 10
213.795817086
 20
120.392350879
 30
0.0
 11
224.670817086
 21
120.392350879
 31
0.0
  0
LINE
  8
0
  6
CONTINUOUS
 62
     2
 10
213.795817086
 20
105.392350879
 30
0.0
 11
224.670817086
 21
105.392350879
 31
0.0
  0
LINE
  8
0
  6
CONTINUOUS
 62
     2
 10
213.795817086
 20
109.142350879
 30
0.0
 11
224.670817086
 21
109.142350879
 31
0.0
  0
LINE
  8
0
  6
CONTINUOUS
 62
     2
 10
213.795817086
 20
112.892350879
 30
0.0
 11
224.670817086
 21
112.892350879
 31
0.0
  0
LINE
  8
0
  6
CONTINUOUS
 62
     2
 10
213.983317086
 20
116.642350879
 30
0.0
 11
224.670817086
 21
116.642350879
 31
0.0
  0
LINE
  8
0
  6
CONTINUOUS
 62
     2
 10
99.608317086
 20
120.392350879
 30
0.0
 11
99.608317086
 21
105.392350879
 31
0.0
  0
TEXT
  8
0
  6
CONTINUOUS
 62
     2
 10
100.358317086
 20
113.267350879
 30
0.375
 40
2.8125
  1
ＣＯＭＡ－５
 50
0.0
 41
0.5
 51
0.0
  7
KANJI9
  0
TEXT
  8
0
  6
CONTINUOUS
 62
     2
 10
100.358317086
 20
109.704850879
 30
0.375
 40
2.8125
  1
ＣＯＭＡ－１５
 50
0.0
 41
0.5
 51
0.0
  7
KANJI9
  0
TEXT
  8
0
  6
CONTINUOUS
 62
     2
 10
100.358317086
 20
105.767350879
 30
0.375
 40
2.8125
  1
ＣＯＭＡ－４０
 50
0.0
 41
0.5
 51
0.0
  7
KANJI9
  0
LINE
  8
0
  6
CONTINUOUS
 62
     2
 10
99.608317086
 20
120.392350879
 30
0.0
 11
112.920817086
 21
120.392350879
 31
0.0
  0
LINE
  8
0
  6
CONTINUOUS
 62
     2
 10
99.608317086
 20
116.642350879
 30
0.0
 11
113.670817086
 21
116.642350879
 31
0.0
  0
LINE
  8
0
  6
CONTINUOUS
 62
     2
 10
99.608317086
 20
112.892350879
 30
0.0
 11
112.920817086
 21
112.892350879
 31
0.0
  0
LINE
  8
0
  6
CONTINUOUS
 62
     2
 10
99.608317086
 20
109.142350879
 30
0.0
 11
112.920817086
 21
109.142350879
 31
0.0
  0
LINE
  8
0
  6
CONTINUOUS
 62
     2
 10
99.608317086
 20
105.392350879
 30
0.0
 11
112.920817086
 21
105.392350879
 31
0.0
  0
TEXT
  8
0
  6
CONTINUOUS
 62
     2
 10
116.670817086
 20
113.267350879
 30
0.375
 40
2.8125
  1
５ＶＡ
 50
0.0
 41
1.0
 51
0.0
  7
KANJI8
  0
TEXT
  8
0
  6
CONTINUOUS
 62
     2
 10
113.670817086
 20
109.704850879
 30
0.375
 40
2.8125
  1
１５ＶＡ
 50
0.0
 41
1.0
 51
0.0
  7
KANJI8
  0
TEXT
  8
0
  6
CONTINUOUS
 62
     2
 10
113.670817086
 20
105.767350879
 30
0.375
 40
2.8125
  1
４０ＶＡ
 50
0.0
 41
1.0
 51
0.0
  7
KANJI8
  0
TEXT
  8
0
  6
CONTINUOUS
 62
     2
 10
215.858317086
 20
113.267350879
 30
0.375
 40
2.8125
  1
８４
 50
0.0
 41
1.0
 51
0.0
  7
KANJI8
  0
TEXT
  8
0
  6
CONTINUOUS
 62
     2
 10
215.858317086
 20
109.704850879
 30
0.375
 40
2.8125
  1
８４
 50
0.0
 41
1.0
 51
0.0
  7
KANJI8
  0
TEXT
  8
0
  6
CONTINUOUS
 62
     2
 10
215.858317086
 20
105.767350879
 30
0.375
 40
2.8125
  1
９４
 50
0.0
 41
1.0
 51
0.0
  7
KANJI8
  0
TEXT
  8
0
  6
CONTINUOUS
 62
     2
 10
192.608317086
 20
113.267350879
 30
0.375
 40
2.8125
  1
１１０
 50
0.0
 41
1.0
 51
0.0
  7
KANJI8
  0
TEXT
  8
0
  6
CONTINUOUS
 62
     2
 10
192.608317086
 20
109.704850879
 30
0.375
 40
2.8125
  1
１１０
 50
0.0
 41
1.0
 51
0.0
  7
KANJI8
  0
TEXT
  8
0
  6
CONTINUOUS
 62
     2
 10
192.608317086
 20
105.767350879
 30
0.375
 40
2.8125
  1
１３０
 50
0.0
 41
1.0
 51
0.0
  7
KANJI8
  0
TEXT
  8
0
  6
CONTINUOUS
 62
     2
 10
130.795817086
 20
117.204850879
 30
0.375
 40
2.8125
  1
Ａ
 50
0.0
 41
1.0
 51
0.0
  7
KANJI8
  0
TEXT
  8
0
  6
CONTINUOUS
 62
     2
 10
141.670817086
 20
117.204850879
 30
0.375
 40
2.8125
  1
Ｂ
 50
0.0
 41
1.0
 51
0.0
  7
KANJI8
  0
TEXT
  8
0
  6
CONTINUOUS
 62
     2
 10
152.545817086
 20
117.204850879
 30
0.375
 40
2.8125
  1
Ｃ
 50
0.0
 41
1.0
 51
0.0
  7
KANJI8
  0
TEXT
  8
0
  6
CONTINUOUS
 62
     2
 10
163.420817086
 20
117.204850879
 30
0.375
 40
2.8125
  1
Ｄ
 50
0.0
 41
1.0
 51
0.0
  7
KANJI8
  0
TEXT
  8
0
  6
CONTINUOUS
 62
     2
 10
174.295817086
 20
117.204850879
 30
0.375
 40
2.8125
  1
Ｆ
 50
0.0
 41
1.0
 51
0.0
  7
KANJI8
  0
TEXT
  8
0
  6
CONTINUOUS
 62
     2
 10
196.045817086
 20
117.204850879
 30
0.375
 40
2.8125
  1
Ｈ
 50
0.0
 41
1.0
 51
0.0
  7
KANJI8
  0
TEXT
  8
0
  6
CONTINUOUS
 62
     2
 10
184.670817086
 20
117.204850879
 30
0.375
 40
2.8125
  1
Ｇ
 50
0.0
 41
1.0
 51
0.0
  7
KANJI8
  0
TEXT
  8
0
  6
CONTINUOUS
 62
     2
 10
206.420817086
 20
117.204850879
 30
0.375
 40
2.8125
  1
Ｉ
 50
0.0
 41
1.0
 51
0.0
  7
KANJI8
  0
TEXT
  8
0
  6
CONTINUOUS
 62
     2
 10
217.295817086
 20
117.204850879
 30
0.375
 40
2.8125
  1
Ｊ
 50
0.0
 41
1.0
 51
0.0
  7
KANJI8
  0
TEXT
  8
0
  6
CONTINUOUS
 62
     2
 10
102.372317086
 20
123.017350879
 30
0.5
 40
3.75
  1
寸法表
 50
0.0
 41
1.0
 51
0.0
  7
KANJI10
  0
LINE
  8
0
  6
CONTINUOUS
 62
     2
 10
100.872317086
 20
122.017350879
 30
0.0
 11
115.872317086
 21
122.017350879
 31
0.0
  0
LINE
  8
2
  6
LTYPE1
 62
     2
 10
166.531
 20
35.55488664
 30
0.0
 11
166.531
 21
103.32311336
 31
0.0
  0
TEXT
  8
0
  6
CONTINUOUS
 62
     2
 10
139.310200673
 20
175.284799327
 30
0.375
 40
3.75
  1
形　式
 50
0.0
 41
0.9
 51
0.0
  7
KANJI5
  0
TEXT
  8
0
  6
CONTINUOUS
 62
     2
 10
172.997700673
 20
151.847299327
 30
0.375
 40
3.75
  1
５　－　３０Ａ
 50
0.0
 41
0.9
 51
0.0
  7
KANJI5
  0
TEXT
  8
0
  6
CONTINUOUS
 62
     2
 10
31.346508179
 20
22.289
 30
0.4
 40
3.0
  1
取付金具はＣＴ裏面の止めネジを
 50
0.0
 41
1.0
 51
0.0
  7
KANJI11
  0
TEXT
  8
0
  6
CONTINUOUS
 62
     2
 10
24.596508179
 20
18.289
 30
0.3
 40
3.0
  1
ゆるめれば、９０゜回転することが出来ます。
 50
0.0
 41
1.0
 51
0.0
  7
KANJI12
  0
LINE
  8
0
  6
CONTINUOUS
 62
     5
 10
19.546508179
 20
17.289
 30
0.0
 11
92.122508179
 21
17.289
 31
0.0
  0
LINE
  8
0
  6
CONTINUOUS
 62
     1
 10
63.621
 20
47.339
 30
0.0
 11
59.621
 21
47.339
 31
0.0
  0
LINE
  8
0
  6
CONTINUOUS
 62
     1
 10
64.371
 20
47.839
 30
0.0
 11
63.621
 21
47.839
 31
0.0
  0
LINE
  8
0
  6
CONTINUOUS
 62
     1
 10
63.621
 20
47.339
 30
0.0
 11
63.621
 21
47.839
 31
0.0
  0
LINE
  8
0
  6
CONTINUOUS
 62
     1
 10
64.371
 20
47.839
 30
0.0
 11
64.371
 21
48.339
 31
0.0
  0
LINE
  8
0
  6
CONTINUOUS
 62
     1
 10
58.871
 20
47.839
 30
0.0
 11
58.871
 21
48.339
 31
0.0
  0
LINE
  8
0
  6
CONTINUOUS
 62
     1
 10
59.621
 20
47.339
 30
0.0
 11
59.621
 21
47.839
 31
0.0
  0
LINE
  8
0
  6
CONTINUOUS
 62
     1
 10
63.621
 20
47.839
 30
0.0
 11
59.621
 21
47.839
 31
0.0
  0
LINE
  8
0
  6
CONTINUOUS
 62
     1
 10
59.621
 20
47.839
 30
0.0
 11
58.871
 21
47.839
 31
0.0
  0
LINE
  8
0
  6
CONTINUOUS
 62
     1
 10
61.371
 20
47.339
 30
0.0
 11
61.371
 21
47.839
 31
0.0
  0
LINE
  8
0
  6
CONTINUOUS
 62
     1
 10
61.871
 20
47.339
 30
0.0
 11
61.871
 21
47.839
 31
0.0
  0
LINE
  8
0
  6
CONTINUOUS
 62
     1
 10
61.371
 20
45.339
 30
0.0
 11
61.371
 21
45.839
 31
0.0
  0
LINE
  8
0
  6
CONTINUOUS
 62
     1
 10
61.871
 20
45.339
 30
0.0
 11
61.871
 21
45.839
 31
0.0
  0
LINE
  8
0
  6
CONTINUOUS
 62
     1
 10
61.371
 20
45.839
 30
0.0
 11
61.871
 21
45.839
 31
0.0
  0
LINE
  8
0
  6
CONTINUOUS
 62
     1
 10
63.621
 20
47.339
 30
0.0
 11
63.621
 21
46.339
 31
0.0
  0
ARC
  8
0
  6
CONTINUOUS
 62
     1
 10
62.621
 20
46.339
 30
0.0
 40
1.0
 50
270.0
 51
0.0
  0
LINE
  8
0
  6
CONTINUOUS
 62
     1
 10
59.621
 20
47.339
 30
0.0
 11
59.621
 21
46.339
 31
0.0
  0
ARC
  8
0
  6
CONTINUOUS
 62
     1
 10
60.621
 20
46.339
 30
0.0
 40
1.0
 50
180.0
 51
270.0
  0
LINE
  8
0
  6
CONTINUOUS
 62
     1
 10
61.871
 20
45.339
 30
0.0
 11
62.621
 21
45.339
 31
0.0
  0
LINE
  8
0
  6
CONTINUOUS
 62
     1
 10
60.621
 20
45.339
 30
0.0
 11
61.371
 21
45.339
 31
0.0
  0
LINE
  8
0
  6
CONTINUOUS
 62
     1
 10
64.371
 20
48.339
 30
0.0
 11
58.871
 21
48.339
 31
0.0
  0
LINE
  8
0
  6
CONTINUOUS
 62
     1
 10
72.941
 20
47.339
 30
0.0
 11
68.941
 21
47.339
 31
0.0
  0
LINE
  8
0
  6
CONTINUOUS
 62
     1
 10
73.691
 20
47.839
 30
0.0
 11
72.941
 21
47.839
 31
0.0
  0
LINE
  8
0
  6
CONTINUOUS
 62
     1
 10
72.941
 20
47.339
 30
0.0
 11
72.941
 21
47.839
 31
0.0
  0
LINE
  8
0
  6
CONTINUOUS
 62
     1
 10
73.691
 20
47.839
 30
0.0
 11
73.691
 21
48.339
 31
0.0
  0
LINE
  8
0
  6
CONTINUOUS
 62
     1
 10
68.191
 20
47.839
 30
0.0
 11
68.191
 21
48.339
 31
0.0
  0
LINE
  8
0
  6
CONTINUOUS
 62
     1
 10
68.941
 20
47.339
 30
0.0
 11
68.941
 21
47.839
 31
0.0
  0
LINE
  8
0
  6
CONTINUOUS
 62
     1
 10
72.941
 20
47.839
 30
0.0
 11
68.941
 21
47.839
 31
0.0
  0
LINE
  8
0
  6
CONTINUOUS
 62
     1
 10
68.941
 20
47.839
 30
0.0
 11
68.191
 21
47.839
 31
0.0
  0
LINE
  8
0
  6
CONTINUOUS
 62
     1
 10
70.691
 20
47.339
 30
0.0
 11
70.691
 21
47.839
 31
0.0
  0
LINE
  8
0
  6
CONTINUOUS
 62
     1
 10
71.191
 20
47.339
 30
0.0
 11
71.191
 21
47.839
 31
0.0
  0
LINE
  8
0
  6
CONTINUOUS
 62
     1
 10
70.691
 20
45.339
 30
0.0
 11
70.691
 21
45.839
 31
0.0
  0
LINE
  8
0
  6
CONTINUOUS
 62
     1
 10
71.191
 20
45.339
 30
0.0
 11
71.191
 21
45.839
 31
0.0
  0
LINE
  8
0
  6
CONTINUOUS
 62
     1
 10
70.691
 20
45.839
 30
0.0
 11
71.191
 21
45.839
 31
0.0
  0
LINE
  8
0
  6
CONTINUOUS
 62
     1
 10
72.941
 20
47.339
 30
0.0
 11
72.941
 21
46.339
 31
0.0
  0
ARC
  8
0
  6
CONTINUOUS
 62
     1
 10
71.941
 20
46.339
 30
0.0
 40
1.0
 50
270.0
 51
0.0
  0
LINE
  8
0
  6
CONTINUOUS
 62
     1
 10
68.941
 20
47.339
 30
0.0
 11
68.941
 21
46.339
 31
0.0
  0
ARC
  8
0
  6
CONTINUOUS
 62
     1
 10
69.941
 20
46.339
 30
0.0
 40
1.0
 50
180.0
 51
270.0
  0
LINE
  8
0
  6
CONTINUOUS
 62
     1
 10
71.191
 20
45.339
 30
0.0
 11
71.941
 21
45.339
 31
0.0
  0
LINE
  8
0
  6
CONTINUOUS
 62
     1
 10
69.941
 20
45.339
 30
0.0
 11
70.691
 21
45.339
 31
0.0
  0
LINE
  8
0
  6
CONTINUOUS
 62
     1
 10
73.691
 20
48.339
 30
0.0
 11
68.191
 21
48.339
 31
0.0
  0
LINE
  8
0
  6
CONTINUOUS
 62
     1
 10
156.531
 20
49.939
 30
0.0
 11
176.531
 21
49.939
 31
0.0
  0
LINE
  8
0
  6
CONTINUOUS
 62
     1
 10
156.531
 20
43.839
 30
0.0
 11
176.531
 21
43.839
 31
0.0
  0
LINE
  8
0
  6
CONTINUOUS
 62
     1
 10
176.531
 20
43.839
 30
0.0
 11
176.531
 21
45.439
 31
0.0
  0
LINE
  8
0
  6
CONTINUOUS
 62
     1
 10
156.531
 20
45.439
 30
0.0
 11
176.531
 21
45.439
 31
0.0
  0
LINE
  8
0
  6
CONTINUOUS
 62
     1
 10
168.531
 20
43.839
 30
0.0
 11
168.531
 21
45.439
 31
0.0
  0
LINE
  8
0
  6
CONTINUOUS
 62
     1
 10
164.531
 20
43.839
 30
0.0
 11
164.531
 21
45.439
 31
0.0
  0
LINE
  8
0
  6
CONTINUOUS
 62
     5
 10
196.531
 20
43.839
 30
0.0
 11
197.178047613
 21
46.253814566
 31
0.0
  0
LINE
  8
0
  6
CONTINUOUS
 62
     5
 10
196.531
 20
43.839
 30
0.0
 11
195.883952387
 21
46.253814566
 31
0.0
  0
LINE
  8
0
  6
CONTINUOUS
 62
     5
 10
177.531
 20
43.839
 30
0.0
 11
198.531
 21
43.839
 31
0.0
  0
CIRCLE
  8
2
  6
CONTINUOUS
 62
     1
 10
166.531
 20
76.439
 30
0.0
 40
7.28
  0
LINE
  8
0
  6
CONTINUOUS
 62
     1
 10
48.281
 20
151.839
 30
0.0
 11
48.781
 21
151.839
 31
0.0
  0
LINE
  8
2
  6
CONTINUOUS
 62
     1
 10
48.281
 20
151.839
 30
0.0
 11
48.281
 21
146.839
 31
0.0
  0
LINE
  8
0
  6
CONTINUOUS
 62
     1
 10
48.281
 20
146.839
 30
0.0
 11
48.781
 21
146.839
 31
0.0
  0
LINE
  8
0
  6
CONTINUOUS
 62
     1
 10
84.281
 20
151.839
 30
0.0
 11
83.781
 21
151.839
 31
0.0
  0
LINE
  8
2
  6
CONTINUOUS
 62
     1
 10
84.281
 20
151.839
 30
0.0
 11
84.281
 21
146.839
 31
0.0
  0
LINE
  8
0
  6
CONTINUOUS
 62
     1
 10
84.281
 20
146.839
 30
0.0
 11
83.781
 21
146.839
 31
0.0
  0
LINE
  8
0
  6
CONTINUOUS
 62
     1
 10
84.281
 20
95.139
 30
0.0
 11
83.781
 21
95.139
 31
0.0
  0
LINE
  8
2
  6
CONTINUOUS
 62
     1
 10
84.281
 20
95.139
 30
0.0
 11
84.281
 21
90.139
 31
0.0
  0
LINE
  8
0
  6
CONTINUOUS
 62
     1
 10
84.281
 20
90.139
 30
0.0
 11
83.781
 21
90.139
 31
0.0
  0
LINE
  8
0
  6
CONTINUOUS
 62
     1
 10
48.281
 20
95.139
 30
0.0
 11
48.781
 21
95.139
 31
0.0
  0
LINE
  8
2
  6
CONTINUOUS
 62
     1
 10
48.281
 20
95.139
 30
0.0
 11
48.281
 21
90.139
 31
0.0
  0
LINE
  8
0
  6
CONTINUOUS
 62
     1
 10
48.281
 20
90.139
 30
0.0
 11
48.781
 21
90.139
 31
0.0
  0
LINE
  8
2
  6
LTYPE2
 62
     2
 10
34.643133946
 20
151.339
 30
0.0
 11
30.628024338
 21
151.339
 31
0.0
  0
LINE
  8
2
  6
LTYPE2
 62
     2
 10
34.643133946
 20
147.339
 30
0.0
 11
30.628024338
 21
147.339
 31
0.0
  0
ARC
  8
2
  6
LTYPE2
 62
     2
 10
34.643133946
 20
149.339
 30
0.0
 40
2.0
 50
270.0
 51
90.0
  0
LINE
  8
2
  6
LTYPE3
 62
     2
 10
34.643133946
 20
151.839
 30
0.0
 11
34.643133946
 21
146.839
 31
0.0
  0
LINE
  8
2
  6
CONTINUOUS
 62
     1
 10
42.114333333
 20
159.339
 30
0.0
 11
30.143133946
 21
159.339
 31
0.0
  0
ARC
  8
2
  6
CONTINUOUS
 62
     1
 10
30.143133946
 20
158.839
 30
0.0
 40
0.5
 50
90.0
 51
180.0
  0
LINE
  8
2
  6
CONTINUOUS
 62
     1
 10
30.628024338
 20
151.339
 30
0.0
 11
30.143133946
 21
151.339
 31
0.0
  0
ARC
  8
2
  6
CONTINUOUS
 62
     1
 10
30.143133946
 20
151.839
 30
0.0
 40
0.5
 50
180.0
 51
270.0
  0
LINE
  8
2
  6
CONTINUOUS
 62
     1
 10
29.643133946
 20
158.839
 30
0.0
 11
29.643133946
 21
151.839
 31
0.0
  0
ARC
  8
2
  6
CONTINUOUS
 62
     1
 10
30.143133946
 20
158.839
 30
0.0
 40
0.5
 50
90.0
 51
180.0
  0
LINE
  8
2
  6
LTYPE2
 62
     2
 10
34.643133946
 20
151.339
 30
0.0
 11
30.628024338
 21
151.339
 31
0.0
  0
LINE
  8
2
  6
CONTINUOUS
 62
     1
 10
30.628024338
 20
151.339
 30
0.0
 11
30.143133946
 21
151.339
 31
0.0
  0
ARC
  8
2
  6
CONTINUOUS
 62
     1
 10
30.143133946
 20
151.839
 30
0.0
 40
0.5
 50
180.0
 51
270.0
  0
LINE
  8
2
  6
CONTINUOUS
 62
     1
 10
42.114333333
 20
139.339
 30
0.0
 11
30.143133946
 21
139.339
 31
0.0
  0
ARC
  8
2
  6
CONTINUOUS
 62
     1
 10
30.143133946
 20
139.839
 30
0.0
 40
0.5
 50
180.0
 51
270.0
  0
ARC
  8
2
  6
CONTINUOUS
 62
     1
 10
30.143133946
 20
139.839
 30
0.0
 40
0.5
 50
180.0
 51
270.0
  0
ARC
  8
2
  6
CONTINUOUS
 62
     1
 10
30.143133946
 20
139.839
 30
0.0
 40
0.5
 50
180.0
 51
270.0
  0
LINE
  8
2
  6
CONTINUOUS
 62
     1
 10
30.628024338
 20
147.339
 30
0.0
 11
30.143133946
 21
147.339
 31
0.0
  0
ARC
  8
2
  6
CONTINUOUS
 62
     1
 10
30.143133946
 20
146.839
 30
0.0
 40
0.5
 50
90.0
 51
180.0
  0
LINE
  8
2
  6
CONTINUOUS
 62
     1
 10
29.643133946
 20
139.839
 30
0.0
 11
29.643133946
 21
146.839
 31
0.0
  0
ARC
  8
2
  6
CONTINUOUS
 62
     1
 10
30.143133946
 20
139.839
 30
0.0
 40
0.5
 50
180.0
 51
270.0
  0
LINE
  8
2
  6
CONTINUOUS
 62
     1
 10
30.628024338
 20
147.339
 30
0.0
 11
30.143133946
 21
147.339
 31
0.0
  0
ARC
  8
2
  6
CONTINUOUS
 62
     1
 10
30.143133946
 20
146.839
 30
0.0
 40
0.5
 50
90.0
 51
180.0
  0
LINE
  8
2
  6
LTYPE2
 62
     2
 10
97.918866054
 20
151.339
 30
0.0
 11
101.933975662
 21
151.339
 31
0.0
  0
LINE
  8
2
  6
CONTINUOUS
 62
     1
 10
101.933975662
 20
151.339
 30
0.0
 11
102.418866054
 21
151.339
 31
0.0
  0
ARC
  8
2
  6
CONTINUOUS
 62
     1
 10
102.418866054
 20
151.839
 30
0.0
 40
0.5
 50
270.0
 51
0.0
  0
LINE
  8
2
  6
CONTINUOUS
 62
     1
 10
102.918866054
 20
158.839
 30
0.0
 11
102.918866054
 21
151.839
 31
0.0
  0
LINE
  8
2
  6
CONTINUOUS
 62
     1
 10
90.447666667
 20
159.339
 30
0.0
 11
102.418866054
 21
159.339
 31
0.0
  0
ARC
  8
2
  6
CONTINUOUS
 62
     1
 10
102.418866054
 20
158.839
 30
0.0
 40
0.5
 50
0.0
 51
90.0
  0
LINE
  8
2
  6
CONTINUOUS
 62
     1
 10
102.918866054
 20
147.339
 30
0.0
 11
102.918866054
 21
139.839
 31
0.0
  0
LINE
  8
2
  6
CONTINUOUS
 62
     1
 10
102.418866054
 20
139.339
 30
0.0
 11
90.447666667
 21
139.339
 31
0.0
  0
ARC
  8
2
  6
CONTINUOUS
 62
     1
 10
102.418866054
 20
139.839
 30
0.0
 40
0.5
 50
270.0
 51
0.0
  0
LINE
  8
2
  6
LTYPE2
 62
     2
 10
97.918866054
 20
147.339
 30
0.0
 11
101.933975662
 21
147.339
 31
0.0
  0
LINE
  8
2
  6
CONTINUOUS
 62
     1
 10
101.933975662
 20
147.339
 30
0.0
 11
102.418866054
 21
147.339
 31
0.0
  0
ARC
  8
2
  6
CONTINUOUS
 62
     1
 10
102.418866054
 20
146.839
 30
0.0
 40
0.5
 50
0.0
 51
90.0
  0
ARC
  8
2
  6
LTYPE2
 62
     2
 10
97.918866054
 20
149.339
 30
0.0
 40
2.0
 50
90.0
 51
270.0
  0
LINE
  8
2
  6
LTYPE3
 62
     2
 10
97.918866054
 20
151.839
 30
0.0
 11
97.918866054
 21
146.839
 31
0.0
  0
TEXT
  8
0
  6
CONTINUOUS
 62
     2
 10
238.0
 20
29.0
 30
0.4
 40
4.0
  1
変流器　外形図
 50
0.0
 41
0.9
 51
0.0
  7
KANJI13
  0
TEXT
  8
0
  6
CONTINUOUS
 62
     2
 10
238.0
 20
37.0
 30
0.5
 40
3.0
  1
ＣＯＭＡ－４０
 50
0.0
 41
0.6
 51
0.0
  7
KANJI14
  0
TEXT
  8
0
  6
CONTINUOUS
 62
     2
 10
238.0
 20
43.666666667
 30
0.5
 40
3.0
  1
ＣＯＭＡ－５
 50
0.0
 41
0.6
 51
0.0
  7
KANJI14
  0
TEXT
  8
0
  6
CONTINUOUS
 62
     2
 10
238.0
 20
40.333333333
 30
0.5
 40
3.0
  1
ＣＯＭＡ－１５
 50
0.0
 41
0.6
 51
0.0
  7
KANJI14
  0
LINE
  8
0
  6
LTYPE1
 62
     2
 10
105.0
 20
149.339
 30
0.0
 11
26.0
 21
149.339
 31
0.0
  0
LINE
  8
0
  6
LTYPE1
 62
     2
 10
66.281
 20
172.0
 30
0.0
 11
66.281
 21
126.0
 31
0.0
  0
LINE
  8
0
  6
LTYPE1
 62
     2
 10
66.281
 20
45.0
 30
0.0
 11
66.281
 21
104.0
 31
0.0
  0
ENDSEC
  0
EOF
