  0
SECTION
  2
HEADER
  9
$ACADVER
  1
AC1009
  9
$DWGCODEPAGE
  3
dos932
  9
$EXTMIN
 10
0.0
 20
0.0
 30
0.0
  9
$EXTMAX
 10
297.0
 20
210.0
 30
0.0
  9
$LIMMIN
 10
0.0
 20
0.0
  9
$LIMMAX
 10
297.0
 20
210.0
  9
$LTSCALE
 40
1.0
  9
$PDMODE
 70
     0
  0
ENDSEC
  0
SECTION
  2
TABLES
  0
TABLE
  2
VPORT
 70
     1
  0
VPORT
  2
*ACTIVE
 70
     0
 10
0.0
 20
0.0
 11
1.0
 21
1.0
 12
148.5
 22
105.0
 13
0.0
 23
0.0
 14
10.0
 24
10.0
 15
10.0
 25
10.0
 16
0.0
 26
0.0
 36
1.0
 17
0.0
 27
0.0
 37
0.0
 40
297.0
 41
1.414285714
 42
50.0
 43
0.0
 44
0.0
 50
0.0
 51
0.0
 71
     0
 72
  1000
 73
     1
 74
     3
 75
     0
 76
     0
 77
     0
 78
     0
  0
ENDTAB
  0
TABLE
  2
LTYPE
 70
     3
  0
LTYPE
  2
CONTINUOUS
 70
    64
  3
Solid line
 72
    65
 73
     0
 40
0.0
  0
LTYPE
  2
LTYPE1
 70
    64
  3
CENTER
 72
    65
 73
     4
 40
5.0
 49
3.5
 49
-0.5
 49
0.5
 49
-0.5
  0
LTYPE
  2
LTYPE2
 70
    64
  3
HIDDEN
 72
    65
 73
     2
 40
2.0
 49
1.2
 49
-0.8
  0
ENDTAB
  0
TABLE
  2
LAYER
 70
   128
  0
LAYER
  2
0
 70
     0
 62
     7
  6
CONTINUOUS
  0
LAYER
  2
2
 70
     0
 62
     7
  6
CONTINUOUS
  0
LAYER
  2
3
 70
     0
 62
     7
  6
CONTINUOUS
  0
LAYER
  2
4
 70
     0
 62
     7
  6
CONTINUOUS
  0
LAYER
  2
5
 70
     0
 62
     7
  6
CONTINUOUS
  0
LAYER
  2
6
 70
     0
 62
     7
  6
CONTINUOUS
  0
LAYER
  2
7
 70
     0
 62
     7
  6
CONTINUOUS
  0
LAYER
  2
8
 70
     0
 62
     7
  6
CONTINUOUS
  0
LAYER
  2
9
 70
     0
 62
     7
  6
CONTINUOUS
  0
LAYER
  2
10
 70
     0
 62
     7
  6
CONTINUOUS
  0
LAYER
  2
11
 70
     0
 62
     7
  6
CONTINUOUS
  0
LAYER
  2
12
 70
     0
 62
     7
  6
CONTINUOUS
  0
LAYER
  2
13
 70
     0
 62
     7
  6
CONTINUOUS
  0
LAYER
  2
14
 70
     0
 62
     7
  6
CONTINUOUS
  0
LAYER
  2
15
 70
     0
 62
     7
  6
CONTINUOUS
  0
LAYER
  2
16
 70
     0
 62
     7
  6
CONTINUOUS
  0
LAYER
  2
17
 70
     0
 62
     7
  6
CONTINUOUS
  0
LAYER
  2
18
 70
     0
 62
     7
  6
CONTINUOUS
  0
LAYER
  2
19
 70
     0
 62
     7
  6
CONTINUOUS
  0
LAYER
  2
20
 70
     0
 62
     7
  6
CONTINUOUS
  0
LAYER
  2
21
 70
     0
 62
     7
  6
CONTINUOUS
  0
LAYER
  2
22
 70
     0
 62
     7
  6
CONTINUOUS
  0
LAYER
  2
23
 70
     0
 62
     7
  6
CONTINUOUS
  0
LAYER
  2
24
 70
     0
 62
     7
  6
CONTINUOUS
  0
LAYER
  2
25
 70
     0
 62
     7
  6
CONTINUOUS
  0
LAYER
  2
26
 70
     0
 62
     7
  6
CONTINUOUS
  0
LAYER
  2
27
 70
     0
 62
     7
  6
CONTINUOUS
  0
LAYER
  2
28
 70
     0
 62
     7
  6
CONTINUOUS
  0
LAYER
  2
29
 70
     0
 62
     7
  6
CONTINUOUS
  0
LAYER
  2
30
 70
     0
 62
     7
  6
CONTINUOUS
  0
LAYER
  2
31
 70
     0
 62
     7
  6
CONTINUOUS
  0
LAYER
  2
32
 70
     0
 62
     7
  6
CONTINUOUS
  0
LAYER
  2
33
 70
     0
 62
     7
  6
CONTINUOUS
  0
LAYER
  2
34
 70
     0
 62
     7
  6
CONTINUOUS
  0
LAYER
  2
35
 70
     0
 62
     7
  6
CONTINUOUS
  0
LAYER
  2
36
 70
     0
 62
     7
  6
CONTINUOUS
  0
LAYER
  2
37
 70
     0
 62
     7
  6
CONTINUOUS
  0
LAYER
  2
38
 70
     0
 62
     7
  6
CONTINUOUS
  0
LAYER
  2
39
 70
     0
 62
     7
  6
CONTINUOUS
  0
LAYER
  2
40
 70
     0
 62
     7
  6
CONTINUOUS
  0
LAYER
  2
41
 70
     0
 62
     7
  6
CONTINUOUS
  0
LAYER
  2
42
 70
     0
 62
     7
  6
CONTINUOUS
  0
LAYER
  2
43
 70
     0
 62
     7
  6
CONTINUOUS
  0
LAYER
  2
44
 70
     0
 62
     7
  6
CONTINUOUS
  0
LAYER
  2
45
 70
     0
 62
     7
  6
CONTINUOUS
  0
LAYER
  2
46
 70
     0
 62
     7
  6
CONTINUOUS
  0
LAYER
  2
47
 70
     0
 62
     7
  6
CONTINUOUS
  0
LAYER
  2
48
 70
     0
 62
     7
  6
CONTINUOUS
  0
LAYER
  2
49
 70
     0
 62
     7
  6
CONTINUOUS
  0
LAYER
  2
50
 70
     0
 62
     7
  6
CONTINUOUS
  0
LAYER
  2
51
 70
     0
 62
     7
  6
CONTINUOUS
  0
LAYER
  2
52
 70
     0
 62
     7
  6
CONTINUOUS
  0
LAYER
  2
53
 70
     0
 62
     7
  6
CONTINUOUS
  0
LAYER
  2
54
 70
     0
 62
     7
  6
CONTINUOUS
  0
LAYER
  2
55
 70
     0
 62
     7
  6
CONTINUOUS
  0
LAYER
  2
56
 70
     0
 62
     7
  6
CONTINUOUS
  0
LAYER
  2
57
 70
     0
 62
     7
  6
CONTINUOUS
  0
LAYER
  2
58
 70
     0
 62
     7
  6
CONTINUOUS
  0
LAYER
  2
59
 70
     0
 62
     7
  6
CONTINUOUS
  0
LAYER
  2
60
 70
     0
 62
     7
  6
CONTINUOUS
  0
LAYER
  2
61
 70
     0
 62
     7
  6
CONTINUOUS
  0
LAYER
  2
62
 70
     0
 62
     7
  6
CONTINUOUS
  0
LAYER
  2
63
 70
     0
 62
     7
  6
CONTINUOUS
  0
LAYER
  2
64
 70
     0
 62
     7
  6
CONTINUOUS
  0
LAYER
  2
65
 70
     0
 62
     7
  6
CONTINUOUS
  0
LAYER
  2
66
 70
     0
 62
     7
  6
CONTINUOUS
  0
LAYER
  2
67
 70
     0
 62
     7
  6
CONTINUOUS
  0
LAYER
  2
68
 70
     0
 62
     7
  6
CONTINUOUS
  0
LAYER
  2
69
 70
     0
 62
     7
  6
CONTINUOUS
  0
LAYER
  2
70
 70
     0
 62
     7
  6
CONTINUOUS
  0
LAYER
  2
71
 70
     0
 62
     7
  6
CONTINUOUS
  0
LAYER
  2
72
 70
     0
 62
     7
  6
CONTINUOUS
  0
LAYER
  2
73
 70
     0
 62
     7
  6
CONTINUOUS
  0
LAYER
  2
74
 70
     0
 62
     7
  6
CONTINUOUS
  0
LAYER
  2
75
 70
     0
 62
     7
  6
CONTINUOUS
  0
LAYER
  2
76
 70
     0
 62
     7
  6
CONTINUOUS
  0
LAYER
  2
77
 70
     0
 62
     7
  6
CONTINUOUS
  0
LAYER
  2
78
 70
     0
 62
     7
  6
CONTINUOUS
  0
LAYER
  2
79
 70
     0
 62
     7
  6
CONTINUOUS
  0
LAYER
  2
80
 70
     0
 62
     7
  6
CONTINUOUS
  0
LAYER
  2
81
 70
     0
 62
     7
  6
CONTINUOUS
  0
LAYER
  2
82
 70
     0
 62
     7
  6
CONTINUOUS
  0
LAYER
  2
83
 70
     0
 62
     7
  6
CONTINUOUS
  0
LAYER
  2
84
 70
     0
 62
     7
  6
CONTINUOUS
  0
LAYER
  2
85
 70
     0
 62
     7
  6
CONTINUOUS
  0
LAYER
  2
86
 70
     0
 62
     7
  6
CONTINUOUS
  0
LAYER
  2
87
 70
     0
 62
     7
  6
CONTINUOUS
  0
LAYER
  2
88
 70
     0
 62
     7
  6
CONTINUOUS
  0
LAYER
  2
89
 70
     0
 62
     7
  6
CONTINUOUS
  0
LAYER
  2
90
 70
     0
 62
     7
  6
CONTINUOUS
  0
LAYER
  2
91
 70
     0
 62
     7
  6
CONTINUOUS
  0
LAYER
  2
92
 70
     0
 62
     7
  6
CONTINUOUS
  0
LAYER
  2
93
 70
     0
 62
     7
  6
CONTINUOUS
  0
LAYER
  2
94
 70
     0
 62
     7
  6
CONTINUOUS
  0
LAYER
  2
95
 70
     0
 62
     7
  6
CONTINUOUS
  0
LAYER
  2
96
 70
     0
 62
     7
  6
CONTINUOUS
  0
LAYER
  2
97
 70
     0
 62
     7
  6
CONTINUOUS
  0
LAYER
  2
98
 70
     0
 62
     7
  6
CONTINUOUS
  0
LAYER
  2
99
 70
     0
 62
     7
  6
CONTINUOUS
  0
LAYER
  2
100
 70
     0
 62
     7
  6
CONTINUOUS
  0
LAYER
  2
101
 70
     0
 62
     7
  6
CONTINUOUS
  0
LAYER
  2
102
 70
     0
 62
     7
  6
CONTINUOUS
  0
LAYER
  2
103
 70
     0
 62
     7
  6
CONTINUOUS
  0
LAYER
  2
104
 70
     0
 62
     7
  6
CONTINUOUS
  0
LAYER
  2
105
 70
     0
 62
     7
  6
CONTINUOUS
  0
LAYER
  2
106
 70
     0
 62
     7
  6
CONTINUOUS
  0
LAYER
  2
107
 70
     0
 62
     7
  6
CONTINUOUS
  0
LAYER
  2
108
 70
     0
 62
     7
  6
CONTINUOUS
  0
LAYER
  2
109
 70
     0
 62
     7
  6
CONTINUOUS
  0
LAYER
  2
110
 70
     0
 62
     7
  6
CONTINUOUS
  0
LAYER
  2
111
 70
     0
 62
     7
  6
CONTINUOUS
  0
LAYER
  2
112
 70
     0
 62
     7
  6
CONTINUOUS
  0
LAYER
  2
113
 70
     0
 62
     7
  6
CONTINUOUS
  0
LAYER
  2
114
 70
     0
 62
     7
  6
CONTINUOUS
  0
LAYER
  2
115
 70
     0
 62
     7
  6
CONTINUOUS
  0
LAYER
  2
116
 70
     0
 62
     7
  6
CONTINUOUS
  0
LAYER
  2
117
 70
     0
 62
     7
  6
CONTINUOUS
  0
LAYER
  2
118
 70
     0
 62
     7
  6
CONTINUOUS
  0
LAYER
  2
119
 70
     0
 62
     7
  6
CONTINUOUS
  0
LAYER
  2
120
 70
     0
 62
     7
  6
CONTINUOUS
  0
LAYER
  2
121
 70
     0
 62
     7
  6
CONTINUOUS
  0
LAYER
  2
122
 70
     0
 62
     7
  6
CONTINUOUS
  0
LAYER
  2
123
 70
     0
 62
     7
  6
CONTINUOUS
  0
LAYER
  2
124
 70
     0
 62
     7
  6
CONTINUOUS
  0
LAYER
  2
125
 70
     0
 62
     7
  6
CONTINUOUS
  0
LAYER
  2
126
 70
     0
 62
     7
  6
CONTINUOUS
  0
LAYER
  2
127
 70
     0
 62
     7
  6
CONTINUOUS
  0
LAYER
  2
128
 70
     0
 62
     7
  6
CONTINUOUS
  0
ENDTAB
  0
TABLE
  2
STYLE
 70
    12
  0
STYLE
  2
STANDARD
 70
     0
 40
0.0
 41
1.0
 50
0.0
 71
     0
 42
0.2
  3
txt.shx
  4
extfont.shx
  0
STYLE
  2
KANJI0
 70
     0
 40
3.0
 41
0.45
 50
0.0
 71
     0
 42
3.0
  3
txt.shx
  4
extfont.shx
  0
STYLE
  2
KANJI1
 70
     0
 40
3.0
 41
0.9
 50
0.0
 71
     0
 42
3.0
  3
txt.shx
  4
extfont.shx
  0
STYLE
  2
KANJI2
 70
     4
 40
4.0
 41
0.9
 50
0.0
 71
     0
 42
4.0
  3
txt.shx
  4
extfont.shx
  0
STYLE
  2
KANJI3
 70
     0
 40
4.0
 41
0.9
 50
0.0
 71
     0
 42
4.0
  3
txt.shx
  4
extfont.shx
  0
STYLE
  2
KANJI4
 70
     0
 40
2.5
 41
1.0
 50
0.0
 71
     0
 42
2.5
  3
txt.shx
  4
extfont.shx
  0
STYLE
  2
KANJI5
 70
     0
 40
3.0
 41
0.9
 50
0.0
 71
     0
 42
3.0
  3
txt.shx
  4
extfont.shx
  0
STYLE
  2
KANJI6
 70
     0
 40
2.0
 41
0.9
 50
0.0
 71
     0
 42
2.0
  3
txt.shx
  4
extfont.shx
  0
STYLE
  2
KANJI7
 70
     0
 40
3.0
 41
0.9
 50
0.0
 71
     0
 42
3.0
  3
txt.shx
  4
extfont.shx
  0
STYLE
  2
KANJI8
 70
     0
 40
4.0
 41
0.9
 50
0.0
 71
     0
 42
4.0
  3
txt.shx
  4
extfont.shx
  0
STYLE
  2
KANJI9
 70
     0
 40
4.0
 41
0.75
 50
0.0
 71
     0
 42
4.0
  3
txt.shx
  4
extfont.shx
  0
STYLE
  2
KANJI10
 70
     0
 40
5.8
 41
0.827586207
 50
0.0
 71
     0
 42
5.8
  3
txt.shx
  4
extfont.shx
  0
ENDTAB
  0
TABLE
  2
VIEW
 70
     0
  0
ENDTAB
  0
ENDSEC
  0
SECTION
  2
BLOCKS
  0
ENDSEC
  0
SECTION
  2
ENTITIES
  0
POLYLINE
  8
0
  6
CONTINUOUS
 62
     2
 66
     1
  0
VERTEX
  8
0
  6
CONTINUOUS
 62
     2
 10
223.0
 20
116.0
 30
0.0
  0
VERTEX
  8
0
  6
CONTINUOUS
 62
     2
 10
163.0
 20
116.0
 30
0.0
  0
VERTEX
  8
0
  6
CONTINUOUS
 62
     2
 10
163.0
 20
126.0
 30
0.0
  0
VERTEX
  8
0
  6
CONTINUOUS
 62
     2
 10
223.0
 20
126.0
 30
0.0
  0
VERTEX
  8
0
  6
CONTINUOUS
 62
     2
 10
223.0
 20
116.0
 30
0.0
  0
SEQEND
  0
LINE
  8
0
  6
CONTINUOUS
 62
     2
 10
223.0
 20
121.0
 30
0.0
 11
163.0
 21
121.0
 31
0.0
  0
LINE
  8
0
  6
CONTINUOUS
 62
     2
 10
223.0
 20
128.0
 30
0.0
 11
163.0
 21
128.0
 31
0.0
  0
LINE
  8
0
  6
CONTINUOUS
 62
     2
 10
163.0
 20
173.0
 30
0.0
 11
223.0
 21
173.0
 31
0.0
  0
LINE
  8
0
  6
CONTINUOUS
 62
     2
 10
163.0
 20
143.0
 30
0.0
 11
223.0
 21
143.0
 31
0.0
  0
LINE
  8
0
  6
CONTINUOUS
 62
     2
 10
163.0
 20
138.0
 30
0.0
 11
223.0
 21
138.0
 31
0.0
  0
LINE
  8
0
  6
CONTINUOUS
 62
     2
 10
163.0
 20
133.0
 30
0.0
 11
223.0
 21
133.0
 31
0.0
  0
LINE
  8
0
  6
CONTINUOUS
 62
     2
 10
178.0
 20
138.0
 30
0.0
 11
178.0
 21
128.0
 31
0.0
  0
LINE
  8
0
  6
CONTINUOUS
 62
     2
 10
203.0
 20
128.0
 30
0.0
 11
203.0
 21
138.0
 31
0.0
  0
LINE
  8
0
  6
CONTINUOUS
 62
     2
 10
213.0
 20
138.0
 30
0.0
 11
213.0
 21
133.0
 31
0.0
  0
TEXT
  8
0
  6
CONTINUOUS
 62
     2
 10
180.0
 20
134.0
 30
0.3
 40
3.0
  1
ＪＩＳ－Ｃ－１７３１
 50
0.0
 41
0.45
 51
0.0
  7
KANJI0
  0
TEXT
  8
0
  6
CONTINUOUS
 62
     2
 10
180.0
 20
129.0
 30
0.3
 40
3.0
  1
約　６．３　ｋｇ
 50
0.0
 41
0.9
 51
0.0
  7
KANJI1
  0
TEXT
  8
0
  6
CONTINUOUS
 62
     2
 10
199.0
 20
139.0
 30
0.3
 40
3.0
  1
熱的負荷　１５０　ＶＡ
 50
0.0
 41
0.9
 51
0.0
  7
KANJI1
  0
LINE
  8
0
  6
CONTINUOUS
 62
     2
 10
198.0
 20
138.0
 30
0.0
 11
198.0
 21
173.0
 31
0.0
  0
LINE
  8
0
  6
CONTINUOUS
 62
     2
 10
173.0
 20
173.0
 30
0.0
 11
173.0
 21
143.0
 31
0.0
  0
LINE
  8
0
  6
CONTINUOUS
 62
     2
 10
198.0
 20
168.0
 30
0.0
 11
223.0
 21
168.0
 31
0.0
  0
LINE
  8
0
  6
CONTINUOUS
 62
     2
 10
198.0
 20
163.0
 30
0.0
 11
223.0
 21
163.0
 31
0.0
  0
LINE
  8
0
  6
CONTINUOUS
 62
     2
 10
173.0
 20
148.0
 30
0.0
 11
223.0
 21
148.0
 31
0.0
  0
LINE
  8
0
  6
CONTINUOUS
 62
     2
 10
173.0
 20
153.0
 30
0.0
 11
223.0
 21
153.0
 31
0.0
  0
LINE
  8
0
  6
CONTINUOUS
 62
     2
 10
173.0
 20
158.0
 30
0.0
 11
223.0
 21
158.0
 31
0.0
  0
LINE
  8
0
  6
CONTINUOUS
 62
     2
 10
163.0
 20
179.0
 30
0.0
 11
223.0
 21
179.0
 31
0.0
  0
LINE
  8
0
  6
CONTINUOUS
 62
     2
 10
163.0
 20
185.0
 30
0.0
 11
223.0
 21
185.0
 31
0.0
  0
LINE
  8
0
  6
CONTINUOUS
 62
     2
 10
163.0
 20
128.0
 30
0.0
 11
163.0
 21
185.0
 31
0.0
  0
LINE
  8
0
  6
CONTINUOUS
 62
     2
 10
223.0
 20
185.0
 30
0.0
 11
223.0
 21
128.0
 31
0.0
  0
TEXT
  8
0
  6
CONTINUOUS
 62
     2
 10
167.8
 20
166.0
 30
1.0
 40
4.0
  1
定　格
 50
0.0
 41
0.9
 51
0.0
  7
KANJI2
  0
TEXT
  8
0
  6
CONTINUOUS
 62
     2
 10
180.0
 20
154.0
 30
0.3
 40
3.0
  1
二次電圧
 50
0.0
 41
0.9
 51
0.0
  7
KANJI1
  0
TEXT
  8
0
  6
CONTINUOUS
 62
     2
 10
180.0
 20
144.0
 30
0.3
 40
3.0
  1
負　　担
 50
0.0
 41
0.9
 51
0.0
  7
KANJI1
  0
TEXT
  8
0
  6
CONTINUOUS
 62
     2
 10
180.0
 20
149.0
 30
0.3
 40
3.0
  1
周　波　数
 50
0.0
 41
0.9
 51
0.0
  7
KANJI1
  0
TEXT
  8
0
  6
CONTINUOUS
 62
     2
 10
180.0
 20
164.0
 30
0.3
 40
3.0
  1
一次電圧
 50
0.0
 41
0.9
 51
0.0
  7
KANJI1
  0
TEXT
  8
0
  6
CONTINUOUS
 62
     2
 10
206.0
 20
144.0
 30
0.3
 40
3.0
  1
５０　ＶＡ
 50
0.0
 41
0.45
 51
0.0
  7
KANJI0
  0
TEXT
  8
0
  6
CONTINUOUS
 62
     2
 10
206.0
 20
149.0
 30
0.3
 40
3.0
  1
５０／６０Ｈｚ
 50
0.0
 41
0.45
 51
0.0
  7
KANJI0
  0
TEXT
  8
0
  6
CONTINUOUS
 62
     2
 10
206.0
 20
154.0
 30
0.3
 40
3.0
  1
１１０Ｖ
 50
0.0
 41
0.45
 51
0.0
  7
KANJI0
  0
TEXT
  8
0
  6
CONTINUOUS
 62
     2
 10
206.0
 20
159.0
 30
0.3
 40
3.0
  1
２２０Ｖ
 50
0.0
 41
0.45
 51
0.0
  7
KANJI0
  0
TEXT
  8
0
  6
CONTINUOUS
 62
     2
 10
206.0
 20
164.0
 30
0.3
 40
3.0
  1
４４０Ｖ
 50
0.0
 41
0.45
 51
0.0
  7
KANJI0
  0
TEXT
  8
0
  6
CONTINUOUS
 62
     2
 10
206.0
 20
169.0
 30
0.3
 40
3.0
  1
６６０Ｖ
 50
0.0
 41
0.45
 51
0.0
  7
KANJI0
  0
TEXT
  8
0
  6
CONTINUOUS
 62
     2
 10
166.0
 20
173.9
 30
0.4
 40
4.0
  1
ＰＭｅ－１Ｃａ
 50
0.0
 41
0.9
 51
0.0
  7
KANJI3
  0
TEXT
  8
0
  6
CONTINUOUS
 62
     2
 10
199.0
 20
173.9
 30
0.4
 40
4.0
  1
屋内用乾式
 50
0.0
 41
0.9
 51
0.0
  7
KANJI3
  0
LINE
  8
0
  6
CONTINUOUS
 62
     2
 10
195.5
 20
173.0
 30
0.0
 11
195.5
 21
179.0
 31
0.0
  0
TEXT
  8
0
  6
CONTINUOUS
 62
     2
 10
166.5
 20
134.0
 30
0.3
 40
3.0
  1
規　格
 50
0.0
 41
0.9
 51
0.0
  7
KANJI1
  0
LINE
  8
0
  6
CONTINUOUS
 62
     2
 10
180.0
 20
126.0
 30
0.0
 11
180.0
 21
121.0
 31
0.0
  0
TEXT
  8
0
  6
CONTINUOUS
 62
     2
 10
204.0
 20
134.0
 30
0.3
 40
3.0
  1
階　級
 50
0.0
 41
0.9
 51
0.0
  7
KANJI1
  0
TEXT
  8
0
  6
CONTINUOUS
 62
     2
 10
207.0
 20
129.0
 30
0.3
 40
3.0
  1
ヒュース゛付
 50
0.0
 41
0.9
 51
0.0
  7
KANJI1
  0
TEXT
  8
0
  6
CONTINUOUS
 62
     2
 10
215.0
 20
134.0
 30
0.3
 40
3.0
  1
１．０　
 50
0.0
 41
0.45
 51
0.0
  7
KANJI0
  0
ARC
  8
0
  6
CONTINUOUS
 62
     2
 10
39.5
 20
156.9
 30
0.0
 40
0.5
 50
90.0
 51
180.0
  0
LINE
  8
0
  6
CONTINUOUS
 62
     2
 10
71.0
 20
133.1
 30
0.0
 11
71.0
 21
156.9
 31
0.0
  0
POLYLINE
  8
0
  6
CONTINUOUS
 62
     2
 66
     1
 70
     1
  0
VERTEX
  8
0
  6
CONTINUOUS
 62
     2
 10
63.7
 20
152.3
 30
0.0
  0
VERTEX
  8
0
  6
CONTINUOUS
 62
     2
 10
69.7
 20
152.3
 30
0.0
  0
VERTEX
  8
0
  6
CONTINUOUS
 62
     2
 10
69.7
 20
156.2
 30
0.0
  0
VERTEX
  8
0
  6
CONTINUOUS
 62
     2
 10
63.7
 20
156.2
 30
0.0
  0
SEQEND
  0
LINE
  8
0
  6
CONTINUOUS
 62
     2
 10
69.3
 20
152.3
 30
0.0
 11
69.3
 21
156.2
 31
0.0
  0
LINE
  8
0
  6
CONTINUOUS
 62
     2
 10
64.1
 20
156.2
 30
0.0
 11
64.1
 21
152.3
 31
0.0
  0
POLYLINE
  8
0
  6
CONTINUOUS
 62
     2
 66
     1
 70
     1
  0
VERTEX
  8
0
  6
CONTINUOUS
 62
     2
 10
63.7
 20
137.7
 30
0.0
  0
VERTEX
  8
0
  6
CONTINUOUS
 62
     2
 10
69.7
 20
137.7
 30
0.0
  0
VERTEX
  8
0
  6
CONTINUOUS
 62
     2
 10
69.7
 20
133.8
 30
0.0
  0
VERTEX
  8
0
  6
CONTINUOUS
 62
     2
 10
63.7
 20
133.8
 30
0.0
  0
SEQEND
  0
LINE
  8
0
  6
CONTINUOUS
 62
     2
 10
69.3
 20
137.7
 30
0.0
 11
69.3
 21
133.8
 31
0.0
  0
LINE
  8
0
  6
CONTINUOUS
 62
     2
 10
64.1
 20
133.8
 30
0.0
 11
64.1
 21
137.7
 31
0.0
  0
LINE
  8
0
  6
CONTINUOUS
 62
     2
 10
68.7
 20
152.3
 30
0.0
 11
68.7
 21
137.7
 31
0.0
  0
LINE
  8
0
  6
CONTINUOUS
 62
     2
 10
64.7
 20
152.3
 30
0.0
 11
64.7
 21
137.7
 31
0.0
  0
LINE
  8
0
  6
CONTINUOUS
 62
     2
 10
68.7
 20
159.2
 30
0.0
 11
64.7
 21
159.2
 31
0.0
  0
LINE
  8
0
  6
CONTINUOUS
 62
     2
 10
64.7
 20
160.0
 30
0.0
 11
64.7
 21
156.2
 31
0.0
  0
LINE
  8
0
  6
CONTINUOUS
 62
     2
 10
68.7
 20
160.0
 30
0.0
 11
64.7
 21
160.0
 31
0.0
  0
LINE
  8
0
  6
CONTINUOUS
 62
     2
 10
68.7
 20
160.0
 30
0.0
 11
68.7
 21
156.2
 31
0.0
  0
LINE
  8
0
  6
CONTINUOUS
 62
     2
 10
67.3
 20
161.7
 30
0.0
 11
67.6
 21
160.0
 31
0.0
  0
LINE
  8
0
  6
CONTINUOUS
 62
     2
 10
66.1
 20
161.7
 30
0.0
 11
65.8
 21
160.0
 31
0.0
  0
LINE
  8
0
  6
CONTINUOUS
 62
     2
 10
67.3
 20
161.7
 30
0.0
 11
66.1
 21
161.7
 31
0.0
  0
LINE
  8
0
  6
CONTINUOUS
 62
     2
 10
67.476470588
 20
160.7
 30
0.0
 11
65.923529412
 21
160.7
 31
0.0
  0
POLYLINE
  8
0
  6
CONTINUOUS
 62
     2
 66
     1
 70
     1
  0
VERTEX
  8
0
  6
CONTINUOUS
 62
     2
 10
46.3
 20
152.3
 30
0.0
  0
VERTEX
  8
0
  6
CONTINUOUS
 62
     2
 10
40.3
 20
152.3
 30
0.0
  0
VERTEX
  8
0
  6
CONTINUOUS
 62
     2
 10
40.3
 20
156.2
 30
0.0
  0
VERTEX
  8
0
  6
CONTINUOUS
 62
     2
 10
46.3
 20
156.2
 30
0.0
  0
SEQEND
  0
LINE
  8
0
  6
CONTINUOUS
 62
     2
 10
40.7
 20
152.3
 30
0.0
 11
40.7
 21
156.2
 31
0.0
  0
LINE
  8
0
  6
CONTINUOUS
 62
     2
 10
45.9
 20
156.2
 30
0.0
 11
45.9
 21
152.3
 31
0.0
  0
POLYLINE
  8
0
  6
CONTINUOUS
 62
     2
 66
     1
 70
     1
  0
VERTEX
  8
0
  6
CONTINUOUS
 62
     2
 10
46.3
 20
137.7
 30
0.0
  0
VERTEX
  8
0
  6
CONTINUOUS
 62
     2
 10
40.3
 20
137.7
 30
0.0
  0
VERTEX
  8
0
  6
CONTINUOUS
 62
     2
 10
40.3
 20
133.8
 30
0.0
  0
VERTEX
  8
0
  6
CONTINUOUS
 62
     2
 10
46.3
 20
133.8
 30
0.0
  0
SEQEND
  0
LINE
  8
0
  6
CONTINUOUS
 62
     2
 10
40.7
 20
137.7
 30
0.0
 11
40.7
 21
133.8
 31
0.0
  0
LINE
  8
0
  6
CONTINUOUS
 62
     2
 10
45.9
 20
133.8
 30
0.0
 11
45.9
 21
137.7
 31
0.0
  0
LINE
  8
0
  6
CONTINUOUS
 62
     2
 10
41.3
 20
152.3
 30
0.0
 11
41.3
 21
137.7
 31
0.0
  0
LINE
  8
0
  6
CONTINUOUS
 62
     2
 10
45.3
 20
152.3
 30
0.0
 11
45.3
 21
137.7
 31
0.0
  0
LINE
  8
0
  6
CONTINUOUS
 62
     2
 10
41.3
 20
159.2
 30
0.0
 11
45.3
 21
159.2
 31
0.0
  0
LINE
  8
0
  6
CONTINUOUS
 62
     2
 10
45.3
 20
160.0
 30
0.0
 11
45.3
 21
156.2
 31
0.0
  0
LINE
  8
0
  6
CONTINUOUS
 62
     2
 10
41.3
 20
160.0
 30
0.0
 11
45.3
 21
160.0
 31
0.0
  0
LINE
  8
0
  6
CONTINUOUS
 62
     2
 10
41.3
 20
160.0
 30
0.0
 11
41.3
 21
156.2
 31
0.0
  0
LINE
  8
0
  6
CONTINUOUS
 62
     2
 10
42.7
 20
161.7
 30
0.0
 11
42.4
 21
160.0
 31
0.0
  0
LINE
  8
0
  6
CONTINUOUS
 62
     2
 10
43.9
 20
161.7
 30
0.0
 11
44.2
 21
160.0
 31
0.0
  0
LINE
  8
0
  6
CONTINUOUS
 62
     2
 10
42.7
 20
161.7
 30
0.0
 11
43.9
 21
161.7
 31
0.0
  0
LINE
  8
0
  6
CONTINUOUS
 62
     2
 10
42.523529412
 20
160.7
 30
0.0
 11
44.076470588
 21
160.7
 31
0.0
  0
LINE
  8
0
  6
CONTINUOUS
 62
     2
 10
41.3
 20
157.4
 30
0.0
 11
39.5
 21
157.4
 31
0.0
  0
LINE
  8
0
  6
CONTINUOUS
 62
     2
 10
42.9
 20
155.4
 30
0.0
 11
43.7
 21
155.4
 31
0.0
  0
LINE
  8
0
  6
CONTINUOUS
 62
     2
 10
42.9
 20
156.2
 30
0.0
 11
42.9
 21
155.4
 31
0.0
  0
LINE
  8
0
  6
CONTINUOUS
 62
     2
 10
43.7
 20
156.2
 30
0.0
 11
43.7
 21
155.4
 31
0.0
  0
LINE
  8
0
  6
CONTINUOUS
 62
     2
 10
66.3
 20
155.4
 30
0.0
 11
67.1
 21
155.4
 31
0.0
  0
LINE
  8
0
  6
CONTINUOUS
 62
     2
 10
66.3
 20
156.2
 30
0.0
 11
66.3
 21
155.4
 31
0.0
  0
LINE
  8
0
  6
CONTINUOUS
 62
     2
 10
67.1
 20
156.2
 30
0.0
 11
67.1
 21
155.4
 31
0.0
  0
TEXT
  8
3
  6
CONTINUOUS
 62
     2
 10
41.963
 20
168.514
 30
0.0
 40
2.5
  1
Ｕ
 50
0.0
 41
1.0
 51
0.0
  7
KANJI4
  0
TEXT
  8
3
  6
CONTINUOUS
 62
     2
 10
65.363
 20
168.514
 30
0.0
 40
2.5
  1
Ｖ
 50
0.0
 41
1.0
 51
0.0
  7
KANJI4
  0
LINE
  8
0
  6
CONTINUOUS
 62
     2
 10
31.9
 20
165.0
 30
0.0
 11
31.9
 21
125.0
 31
0.0
  0
CIRCLE
  8
0
  6
CONTINUOUS
 62
     2
 10
34.7
 20
161.9
 30
0.0
 40
1.5
  0
LINE
  8
0
  6
CONTINUOUS
 62
     2
 10
39.3
 20
165.0
 30
0.0
 11
39.3
 21
158.6
 31
0.0
  0
LINE
  8
0
  6
CONTINUOUS
 62
     2
 10
31.9
 20
158.6
 30
0.0
 11
41.3
 21
158.6
 31
0.0
  0
LINE
  8
0
  6
CONTINUOUS
 62
     2
 10
31.9
 20
125.0
 30
0.0
 11
78.1
 21
125.0
 31
0.0
  0
CIRCLE
  8
0
  6
CONTINUOUS
 62
     2
 10
75.3
 20
128.1
 30
0.0
 40
1.5
  0
LINE
  8
0
  6
CONTINUOUS
 62
     2
 10
70.7
 20
131.5
 30
0.0
 11
70.7
 21
125.0
 31
0.0
  0
ARC
  8
0
  6
CONTINUOUS
 62
     2
 10
71.0
 20
132.6
 30
0.0
 40
0.5
 50
270.0
 51
0.0
  0
ARC
  8
0
  6
CONTINUOUS
 62
     2
 10
70.5
 20
133.1
 30
0.0
 40
0.5
 50
270.0
 51
0.0
  0
CIRCLE
  8
0
  6
CONTINUOUS
 62
     2
 10
75.3
 20
161.9
 30
0.0
 40
1.5
  0
LINE
  8
0
  6
CONTINUOUS
 62
     2
 10
70.7
 20
165.0
 30
0.0
 11
70.7
 21
158.6
 31
0.0
  0
ARC
  8
0
  6
CONTINUOUS
 62
     2
 10
71.0
 20
157.4
 30
0.0
 40
0.5
 50
0.0
 51
90.0
  0
ARC
  8
0
  6
CONTINUOUS
 62
     2
 10
70.5
 20
156.9
 30
0.0
 40
0.5
 50
0.0
 51
90.0
  0
LINE
  8
0
  6
CONTINUOUS
 62
     2
 10
68.7
 20
158.6
 30
0.0
 11
78.1
 21
158.6
 31
0.0
  0
LINE
  8
0
  6
CONTINUOUS
 62
     2
 10
71.0
 20
157.9
 30
0.0
 11
68.7
 21
157.9
 31
0.0
  0
LINE
  8
0
  6
CONTINUOUS
 62
     2
 10
70.5
 20
157.4
 30
0.0
 11
68.7
 21
157.4
 31
0.0
  0
LINE
  8
0
  6
CONTINUOUS
 62
     2
 10
78.1
 20
165.0
 30
0.0
 11
31.9
 21
165.0
 31
0.0
  0
LINE
  8
0
  6
CONTINUOUS
 62
     2
 10
78.1
 20
125.0
 30
0.0
 11
78.1
 21
165.0
 31
0.0
  0
LINE
  8
0
  6
CONTINUOUS
 62
     2
 10
71.5
 20
132.6
 30
0.0
 11
71.5
 21
157.4
 31
0.0
  0
LINE
  8
0
  6
CONTINUOUS
 62
     2
 10
45.3
 20
158.6
 30
0.0
 11
64.7
 21
158.6
 31
0.0
  0
LINE
  8
0
  6
CONTINUOUS
 62
     2
 10
64.7
 20
157.9
 30
0.0
 11
45.3
 21
157.9
 31
0.0
  0
LINE
  8
0
  6
CONTINUOUS
 62
     2
 10
64.7
 20
157.4
 30
0.0
 11
45.3
 21
157.4
 31
0.0
  0
CIRCLE
  8
0
  6
CONTINUOUS
 62
     2
 10
34.7
 20
128.1
 30
0.0
 40
1.5
  0
LINE
  8
0
  6
CONTINUOUS
 62
     2
 10
39.3
 20
131.5
 30
0.0
 11
39.3
 21
125.0
 31
0.0
  0
ARC
  8
0
  6
CONTINUOUS
 62
     2
 10
39.0
 20
132.6
 30
0.0
 40
0.5
 50
180.0
 51
270.0
  0
ARC
  8
0
  6
CONTINUOUS
 62
     2
 10
39.5
 20
133.1
 30
0.0
 40
0.5
 50
180.0
 51
270.0
  0
LINE
  8
0
  6
CONTINUOUS
 62
     2
 10
38.5
 20
157.4
 30
0.0
 11
38.5
 21
132.6
 31
0.0
  0
LINE
  8
0
  6
CONTINUOUS
 62
     2
 10
39.0
 20
156.9
 30
0.0
 11
39.0
 21
133.1
 31
0.0
  0
LINE
  8
0
  6
CONTINUOUS
 62
     2
 10
31.9
 20
131.5
 30
0.0
 11
78.1
 21
131.5
 31
0.0
  0
LINE
  8
0
  6
CONTINUOUS
 62
     2
 10
39.0
 20
132.1
 30
0.0
 11
71.0
 21
132.1
 31
0.0
  0
LINE
  8
0
  6
CONTINUOUS
 62
     2
 10
39.5
 20
132.6
 30
0.0
 11
70.5
 21
132.6
 31
0.0
  0
ARC
  8
0
  6
CONTINUOUS
 62
     2
 10
39.0
 20
157.4
 30
0.0
 40
0.5
 50
90.0
 51
180.0
  0
LINE
  8
0
  6
CONTINUOUS
 62
     2
 10
41.3
 20
157.9
 30
0.0
 11
39.0
 21
157.9
 31
0.0
  0
TEXT
  8
0
  6
CONTINUOUS
 62
     2
 10
166.0
 20
122.1
 30
0.3
 40
3.0
  1
絶縁種別
 50
0.0
 41
0.9
 51
0.0
  7
KANJI5
  0
TEXT
  8
0
  6
CONTINUOUS
 62
     2
 10
184.0
 20
122.1
 30
0.3
 40
3.0
  1
Ａ　種
 50
0.0
 41
0.9
 51
0.0
  7
KANJI5
  0
TEXT
  8
0
  6
CONTINUOUS
 62
     2
 10
183.97828982
 20
118.5
 30
0.2
 40
2.0
  1
φ
 50
0.0
 41
0.9
 51
0.0
  7
KANJI6
  0
TEXT
  8
0
  6
CONTINUOUS
 62
     2
 10
166.0
 20
117.0
 30
0.3
 40
3.0
  1
ヒューズ　１５　×５０　　使用（形名ＰＣ１）
 50
0.0
 41
0.9
 51
0.0
  7
KANJI5
  0
ARC
  8
0
  6
CONTINUOUS
 62
     2
 10
193.163019109
 20
119.425820013
 30
0.0
 40
0.26229859
 50
0.0
 51
175.063900229
  0
ARC
  8
0
  6
CONTINUOUS
 62
     2
 10
190.343187113
 20
118.707664529
 30
0.0
 40
3.164692124
 50
351.233883044
 51
13.116244519
  0
ARC
  8
0
  6
CONTINUOUS
 62
     2
 10
192.137679558
 20
118.319753193
 30
0.0
 40
1.333866073
 50
295.517424946
 51
355.487941371
  0
ARC
  8
0
  6
CONTINUOUS
 62
     2
 10
195.982851104
 20
118.707664529
 30
0.0
 40
3.164692124
 50
166.883755481
 51
188.766116956
  0
ARC
  8
0
  6
CONTINUOUS
 62
     2
 10
194.188358659
 20
118.319753193
 30
0.0
 40
1.333866073
 50
184.512058629
 51
244.482575054
  0
LINE
  8
14
  6
CONTINUOUS
 62
     2
 10
69.166666667
 20
45.0
 30
0.0
 11
69.166666667
 21
45.766666667
 31
0.0
  0
POINT
  8
2
  6
CONTINUOUS
 62
     2
 10
36.667
 20
43.591666667
 30
0.0
  0
LINE
  8
14
  6
CONTINUOUS
 62
     2
 10
40.833666667
 20
45.0
 30
0.0
 11
40.833666667
 21
45.766666667
 31
0.0
  0
POINT
  8
2
  6
CONTINUOUS
 62
     2
 10
73.333333333
 20
35.0
 30
0.0
  0
LINE
  8
14
  6
CONTINUOUS
 62
     2
 10
40.833666667
 20
45.766666667
 30
0.0
 11
30.599666667
 21
45.766666667
 31
0.0
  0
ARC
  8
0
  6
CONTINUOUS
 62
     2
 10
30.599666667
 20
46.266666667
 30
0.0
 40
0.5
 50
180.0
 51
270.0
  0
LINE
  8
14
  6
CONTINUOUS
 62
     2
 10
69.166666667
 20
45.766666667
 30
0.0
 11
79.4
 21
45.766666667
 31
0.0
  0
ARC
  8
0
  6
CONTINUOUS
 62
     2
 10
79.4
 20
46.266666667
 30
0.0
 40
0.5
 50
270.0
 51
0.0
  0
LINE
  8
14
  6
CONTINUOUS
 62
     2
 10
79.666666667
 20
45.0
 30
0.0
 11
69.166666667
 21
45.0
 31
0.0
  0
ARC
  8
0
  6
CONTINUOUS
 62
     2
 10
79.666666667
 20
46.0
 30
0.0
 40
1.0
 50
270.0
 51
0.0
  0
LINE
  8
14
  6
CONTINUOUS
 62
     2
 10
30.333
 20
45.0
 30
0.0
 11
40.833666667
 21
45.0
 31
0.0
  0
ARC
  8
0
  6
CONTINUOUS
 62
     2
 10
30.333
 20
46.0
 30
0.0
 40
1.0
 50
180.0
 51
270.0
  0
POINT
  8
2
  6
CONTINUOUS
 62
     2
 10
80.666666667
 20
30.0
 30
0.0
  0
LINE
  8
0
  6
CONTINUOUS
 62
     2
 10
29.333
 20
43.0
 30
0.0
 11
29.333
 21
29.0
 31
0.0
  0
LINE
  8
0
  6
CONTINUOUS
 62
     2
 10
36.667
 20
43.0
 30
0.0
 11
36.667
 21
34.0
 31
0.0
  0
LINE
  8
0
  6
CONTINUOUS
 62
     2
 10
80.666666667
 20
43.0
 30
0.0
 11
80.666666667
 21
29.0
 31
0.0
  0
LINE
  8
0
  6
CONTINUOUS
 62
     2
 10
73.333333333
 20
43.0
 30
0.0
 11
73.333333333
 21
34.0
 31
0.0
  0
LINE
  8
0
  6
CONTINUOUS
 62
     2
 10
36.667
 20
35.0
 30
0.0
 11
38.598851653
 21
35.51763809
 31
0.0
  0
LINE
  8
0
  6
CONTINUOUS
 62
     2
 10
36.667
 20
35.0
 30
0.0
 11
38.598851653
 21
34.48236191
 31
0.0
  0
LINE
  8
0
  6
CONTINUOUS
 62
     2
 10
29.333
 20
30.0
 30
0.0
 11
31.264851653
 21
30.51763809
 31
0.0
  0
LINE
  8
0
  6
CONTINUOUS
 62
     2
 10
29.333
 20
30.0
 30
0.0
 11
31.264851653
 21
29.48236191
 31
0.0
  0
LINE
  8
0
  6
CONTINUOUS
 62
     2
 10
36.667
 20
35.0
 30
0.0
 11
73.333333333
 21
35.0
 31
0.0
  0
LINE
  8
0
  6
CONTINUOUS
 62
     2
 10
29.333
 20
30.0
 30
0.0
 11
80.666666667
 21
30.0
 31
0.0
  0
LINE
  8
0
  6
CONTINUOUS
 62
     2
 10
73.333
 20
35.0
 30
0.0
 11
71.401148347
 21
35.51763809
 31
0.0
  0
LINE
  8
0
  6
CONTINUOUS
 62
     2
 10
73.333
 20
35.0
 30
0.0
 11
71.401148347
 21
34.48236191
 31
0.0
  0
LINE
  8
0
  6
CONTINUOUS
 62
     2
 10
80.667
 20
30.0
 30
0.0
 11
78.735148347
 21
30.51763809
 31
0.0
  0
LINE
  8
0
  6
CONTINUOUS
 62
     2
 10
80.667
 20
30.0
 30
0.0
 11
78.735148347
 21
29.48236191
 31
0.0
  0
LINE
  8
0
  6
CONTINUOUS
 62
     2
 10
19.333
 20
45.0
 30
0.0
 11
18.81536191
 21
46.931851653
 31
0.0
  0
LINE
  8
0
  6
CONTINUOUS
 62
     2
 10
19.333
 20
45.0
 30
0.0
 11
19.85063809
 21
46.931851653
 31
0.0
  0
LINE
  8
0
  6
CONTINUOUS
 62
     2
 10
28.333
 20
45.0
 30
0.0
 11
18.333
 21
45.0
 31
0.0
  0
TEXT
  8
3
  6
CONTINUOUS
 62
     2
 10
50.890333333
 20
64.381
 30
0.0
 40
2.5
  1
Ｎ．Ｐ．
 50
0.0
 41
1.0
 51
0.0
  7
KANJI4
  0
LINE
  8
0
  6
CONTINUOUS
 62
     2
 10
38.5
 20
74.0
 30
0.0
 11
31.5
 21
74.0
 31
0.0
  0
LINE
  8
0
  6
CONTINUOUS
 62
     2
 10
38.5
 20
75.0
 30
0.0
 11
31.5
 21
75.0
 31
0.0
  0
LINE
  8
0
  6
CONTINUOUS
 62
     2
 10
40.0
 20
73.0
 30
0.0
 11
38.5
 21
74.0
 31
0.0
  0
LINE
  8
0
  6
CONTINUOUS
 62
     2
 10
40.0
 20
74.0
 30
0.0
 11
38.5
 21
75.0
 31
0.0
  0
ARC
  8
0
  6
CONTINUOUS
 62
     2
 10
55.0
 20
66.0
 30
0.0
 40
17.0
 50
208.072486936
 51
331.927513064
  0
CIRCLE
  8
14
  6
CONTINUOUS
 62
     2
 10
50.0
 20
53.5
 30
0.0
 40
3.0
  0
LINE
  8
15
  6
LTYPE1
 62
     2
 10
53.333333333
 20
53.5
 30
0.0
 11
46.666666667
 21
53.5
 31
0.0
  0
LINE
  8
15
  6
LTYPE1
 62
     2
 10
50.0
 20
56.833333333
 30
0.0
 11
50.0
 21
50.166666667
 31
0.0
  0
CIRCLE
  8
14
  6
CONTINUOUS
 62
     2
 10
60.0
 20
53.5
 30
0.0
 40
3.0
  0
CIRCLE
  8
0
  6
CONTINUOUS
 62
     2
 10
50.0
 20
53.5
 30
0.0
 40
2.0
  0
CIRCLE
  8
0
  6
CONTINUOUS
 62
     2
 10
50.0
 20
53.5
 30
0.0
 40
1.0
  0
CIRCLE
  8
0
  6
CONTINUOUS
 62
     2
 10
60.0
 20
53.5
 30
0.0
 40
2.0
  0
CIRCLE
  8
0
  6
CONTINUOUS
 62
     2
 10
60.0
 20
53.5
 30
0.0
 40
1.0
  0
LINE
  8
0
  6
CONTINUOUS
 62
     2
 10
40.0
 20
59.0
 30
0.0
 11
38.8495
 21
58.233
 31
0.0
  0
LINE
  8
0
  6
CONTINUOUS
 62
     2
 10
40.0
 20
58.0
 30
0.0
 11
38.8495
 21
57.233
 31
0.0
  0
LINE
  8
0
  6
CONTINUOUS
 62
     2
 10
38.8495
 20
57.233
 30
0.0
 11
31.5
 21
57.233
 31
0.0
  0
LINE
  8
0
  6
CONTINUOUS
 62
     2
 10
37.5
 20
59.0
 30
0.0
 11
37.5
 21
58.233
 31
0.0
  0
LINE
  8
0
  6
CONTINUOUS
 62
     2
 10
31.5
 20
58.233
 30
0.0
 11
31.5
 21
57.233
 31
0.0
  0
LINE
  8
0
  6
CONTINUOUS
 62
     2
 10
31.5
 20
75.0
 30
0.0
 11
31.5
 21
59.0
 31
0.0
  0
LINE
  8
0
  6
CONTINUOUS
 62
     2
 10
78.5
 20
75.0
 30
0.0
 11
78.5
 21
59.0
 31
0.0
  0
LINE
  8
0
  6
CONTINUOUS
 62
     2
 10
71.1505
 20
57.233
 30
0.0
 11
78.5
 21
57.233
 31
0.0
  0
LINE
  8
0
  6
CONTINUOUS
 62
     2
 10
72.5
 20
59.0
 30
0.0
 11
72.5
 21
58.233
 31
0.0
  0
LINE
  8
0
  6
CONTINUOUS
 62
     2
 10
78.5
 20
58.233
 30
0.0
 11
78.5
 21
57.233
 31
0.0
  0
LINE
  8
0
  6
CONTINUOUS
 62
     2
 10
71.5
 20
74.0
 30
0.0
 11
78.5
 21
74.0
 31
0.0
  0
LINE
  8
0
  6
CONTINUOUS
 62
     2
 10
70.0
 20
58.0
 30
0.0
 11
71.1505
 21
57.233
 31
0.0
  0
LINE
  8
0
  6
CONTINUOUS
 62
     2
 10
40.0
 20
58.0
 30
0.0
 11
70.0
 21
58.0
 31
0.0
  0
LINE
  8
0
  6
CONTINUOUS
 62
     2
 10
70.0
 20
59.0
 30
0.0
 11
71.1505
 21
58.233
 31
0.0
  0
LINE
  8
13
  6
CONTINUOUS
 62
     2
 10
70.0
 20
73.0
 30
0.0
 11
40.0
 21
73.0
 31
0.0
  0
LINE
  8
0
  6
CONTINUOUS
 62
     2
 10
70.0
 20
73.0
 30
0.0
 11
71.5
 21
74.0
 31
0.0
  0
LINE
  8
0
  6
CONTINUOUS
 62
     2
 10
70.0
 20
74.0
 30
0.0
 11
71.5
 21
75.0
 31
0.0
  0
LINE
  8
0
  6
CONTINUOUS
 62
     2
 10
70.0
 20
74.0
 30
0.0
 11
40.0
 21
74.0
 31
0.0
  0
LINE
  8
0
  6
CONTINUOUS
 62
     2
 10
71.5
 20
75.0
 30
0.0
 11
78.5
 21
75.0
 31
0.0
  0
LINE
  8
0
  6
CONTINUOUS
 62
     2
 10
30.599666667
 20
58.233
 30
0.0
 11
38.8495
 21
58.233
 31
0.0
  0
ARC
  8
0
  6
CONTINUOUS
 62
     2
 10
30.599666667
 20
57.733
 30
0.0
 40
0.5
 50
90.0
 51
180.0
  0
LINE
  8
14
  6
CONTINUOUS
 62
     2
 10
30.099666667
 20
57.733
 30
0.0
 11
30.099666667
 21
46.266666667
 31
0.0
  0
LINE
  8
0
  6
CONTINUOUS
 62
     2
 10
79.4
 20
58.233
 30
0.0
 11
71.1505
 21
58.233
 31
0.0
  0
LINE
  8
14
  6
CONTINUOUS
 62
     2
 10
79.9
 20
57.733
 30
0.0
 11
79.9
 21
46.266666667
 31
0.0
  0
ARC
  8
0
  6
CONTINUOUS
 62
     2
 10
79.4
 20
57.733
 30
0.0
 40
0.5
 50
0.0
 51
90.0
  0
ARC
  8
0
  6
CONTINUOUS
 62
     2
 10
79.666666667
 20
58.0
 30
0.0
 40
1.0
 50
0.0
 51
90.0
  0
LINE
  8
14
  6
CONTINUOUS
 62
     2
 10
80.666666667
 20
58.0
 30
0.0
 11
80.666666667
 21
46.0
 31
0.0
  0
LINE
  8
12
  6
CONTINUOUS
 62
     2
 10
30.333
 20
59.0
 30
0.0
 11
79.666666667
 21
59.0
 31
0.0
  0
LINE
  8
14
  6
CONTINUOUS
 62
     2
 10
29.333
 20
58.0
 30
0.0
 11
29.333
 21
46.0
 31
0.0
  0
ARC
  8
0
  6
CONTINUOUS
 62
     2
 10
30.333
 20
58.0
 30
0.0
 40
1.0
 50
90.0
 51
180.0
  0
LINE
  8
0
  6
CONTINUOUS
 62
     2
 10
33.0
 20
57.233
 30
0.0
 11
33.0
 21
56.533
 31
0.0
  0
LINE
  8
0
  6
CONTINUOUS
 62
     2
 10
37.0
 20
56.533
 30
0.0
 11
33.0
 21
56.533
 31
0.0
  0
LINE
  8
0
  6
CONTINUOUS
 62
     2
 10
37.0
 20
57.233
 30
0.0
 11
37.0
 21
56.533
 31
0.0
  0
LINE
  8
0
  6
CONTINUOUS
 62
     2
 10
36.5
 20
55.233
 30
0.0
 11
33.5
 21
55.233
 31
0.0
  0
LINE
  8
0
  6
CONTINUOUS
 62
     2
 10
35.9
 20
54.233
 30
0.0
 11
34.1
 21
54.233
 31
0.0
  0
LINE
  8
0
  6
CONTINUOUS
 62
     2
 10
36.5
 20
56.533
 30
0.0
 11
36.5
 21
55.233
 31
0.0
  0
LINE
  8
0
  6
CONTINUOUS
 62
     2
 10
35.9
 20
56.533
 30
0.0
 11
35.9
 21
54.233
 31
0.0
  0
LINE
  8
0
  6
CONTINUOUS
 62
     2
 10
34.1
 20
56.533
 30
0.0
 11
34.1
 21
54.233
 31
0.0
  0
LINE
  8
0
  6
CONTINUOUS
 62
     2
 10
33.5
 20
56.533
 30
0.0
 11
33.5
 21
55.233
 31
0.0
  0
LINE
  8
0
  6
CONTINUOUS
 62
     2
 10
77.0
 20
57.233
 30
0.0
 11
77.0
 21
56.533
 31
0.0
  0
LINE
  8
0
  6
CONTINUOUS
 62
     2
 10
73.0
 20
56.533
 30
0.0
 11
77.0
 21
56.533
 31
0.0
  0
LINE
  8
0
  6
CONTINUOUS
 62
     2
 10
73.0
 20
57.233
 30
0.0
 11
73.0
 21
56.533
 31
0.0
  0
LINE
  8
0
  6
CONTINUOUS
 62
     2
 10
73.5
 20
55.233
 30
0.0
 11
76.5
 21
55.233
 31
0.0
  0
LINE
  8
0
  6
CONTINUOUS
 62
     2
 10
74.1
 20
54.233
 30
0.0
 11
75.9
 21
54.233
 31
0.0
  0
LINE
  8
0
  6
CONTINUOUS
 62
     2
 10
73.5
 20
56.533
 30
0.0
 11
73.5
 21
55.233
 31
0.0
  0
LINE
  8
0
  6
CONTINUOUS
 62
     2
 10
74.1
 20
56.533
 30
0.0
 11
74.1
 21
54.233
 31
0.0
  0
LINE
  8
0
  6
CONTINUOUS
 62
     2
 10
75.9
 20
56.533
 30
0.0
 11
75.9
 21
54.233
 31
0.0
  0
LINE
  8
0
  6
CONTINUOUS
 62
     2
 10
76.5
 20
56.533
 30
0.0
 11
76.5
 21
55.233
 31
0.0
  0
LINE
  8
0
  6
LTYPE1
 62
     2
 10
75.0
 20
78.116
 30
0.0
 11
75.0
 21
53.5
 31
0.0
  0
LINE
  8
0
  6
CONTINUOUS
 62
     2
 10
36.5
 20
76.3
 30
0.0
 11
36.5
 21
75.0
 31
0.0
  0
LINE
  8
0
  6
CONTINUOUS
 62
     2
 10
33.5
 20
76.3
 30
0.0
 11
33.5
 21
75.0
 31
0.0
  0
LINE
  8
0
  6
CONTINUOUS
 62
     2
 10
36.5
 20
76.3
 30
0.0
 11
33.5
 21
76.3
 31
0.0
  0
LINE
  8
0
  6
CONTINUOUS
 62
     2
 10
34.1
 20
76.3
 30
0.0
 11
34.1
 21
75.0
 31
0.0
  0
LINE
  8
0
  6
CONTINUOUS
 62
     2
 10
35.9
 20
76.3
 30
0.0
 11
35.9
 21
75.0
 31
0.0
  0
LINE
  8
0
  6
LTYPE1
 62
     2
 10
35.0
 20
77.3
 30
0.0
 11
35.0
 21
53.5
 31
0.0
  0
LINE
  8
0
  6
CONTINUOUS
 62
     2
 10
76.5
 20
76.3
 30
0.0
 11
76.5
 21
75.0
 31
0.0
  0
LINE
  8
0
  6
CONTINUOUS
 62
     2
 10
73.5
 20
76.3
 30
0.0
 11
73.5
 21
75.0
 31
0.0
  0
LINE
  8
0
  6
CONTINUOUS
 62
     2
 10
76.5
 20
76.3
 30
0.0
 11
73.5
 21
76.3
 31
0.0
  0
LINE
  8
0
  6
CONTINUOUS
 62
     2
 10
74.1
 20
76.3
 30
0.0
 11
74.1
 21
75.0
 31
0.0
  0
LINE
  8
0
  6
CONTINUOUS
 62
     2
 10
75.9
 20
76.3
 30
0.0
 11
75.9
 21
75.0
 31
0.0
  0
TEXT
  8
0
  6
CONTINUOUS
 62
     2
 10
17.999666667
 20
64.6725
 30
0.3
 40
3.0
  1
１５０
 50
90.0
 41
0.9
 51
0.0
  7
KANJI7
  0
TEXT
  8
0
  6
CONTINUOUS
 62
     2
 10
50.653
 20
30.333333333
 30
0.3
 40
3.0
  1
１５４
 50
0.0
 41
0.9
 51
0.0
  7
KANJI7
  0
TEXT
  8
0
  6
CONTINUOUS
 62
     2
 10
50.653
 20
35.333333333
 30
0.3
 40
3.0
  1
１１０
 50
0.0
 41
0.9
 51
0.0
  7
KANJI7
  0
LINE
  8
0
  6
CONTINUOUS
 62
     2
 10
120.0
 20
59.0
 30
0.0
 11
160.0
 21
59.0
 31
0.0
  0
LINE
  8
0
  6
CONTINUOUS
 62
     2
 10
120.0
 20
74.0
 30
0.0
 11
160.0
 21
74.0
 31
0.0
  0
POINT
  8
2
  6
CONTINUOUS
 62
     2
 10
156.666666667
 20
35.0
 30
0.0
  0
LINE
  8
0
  6
CONTINUOUS
 62
     2
 10
156.666666667
 20
43.0
 30
0.0
 11
156.666666667
 21
34.0
 31
0.0
  0
LINE
  8
0
  6
CONTINUOUS
 62
     2
 10
156.666333333
 20
35.0
 30
0.0
 11
154.734481681
 21
35.51763809
 31
0.0
  0
LINE
  8
0
  6
CONTINUOUS
 62
     2
 10
156.666333333
 20
35.0
 30
0.0
 11
154.734481681
 21
34.48236191
 31
0.0
  0
LINE
  8
0
  6
CONTINUOUS
 62
     2
 10
123.333
 20
43.0
 30
0.0
 11
123.333
 21
34.0
 31
0.0
  0
LINE
  8
0
  6
CONTINUOUS
 62
     2
 10
123.333
 20
35.0
 30
0.0
 11
125.264851653
 21
35.51763809
 31
0.0
  0
LINE
  8
0
  6
CONTINUOUS
 62
     2
 10
123.333
 20
35.0
 30
0.0
 11
125.264851653
 21
34.48236191
 31
0.0
  0
LINE
  8
0
  6
CONTINUOUS
 62
     2
 10
123.333
 20
35.0
 30
0.0
 11
156.666666667
 21
35.0
 31
0.0
  0
LINE
  8
0
  6
CONTINUOUS
 62
     2
 10
120.0
 20
45.0
 30
0.0
 11
160.0
 21
45.0
 31
0.0
  0
LINE
  8
0
  6
CONTINUOUS
 62
     2
 10
120.0
 20
43.0
 30
0.0
 11
120.0
 21
29.0
 31
0.0
  0
LINE
  8
0
  6
CONTINUOUS
 62
     2
 10
120.0
 20
30.0
 30
0.0
 11
121.931851653
 21
30.51763809
 31
0.0
  0
LINE
  8
0
  6
CONTINUOUS
 62
     2
 10
120.0
 20
30.0
 30
0.0
 11
121.931851653
 21
29.48236191
 31
0.0
  0
POINT
  8
2
  6
CONTINUOUS
 62
     2
 10
160.0
 20
30.0
 30
0.0
  0
LINE
  8
0
  6
CONTINUOUS
 62
     2
 10
160.0
 20
43.0
 30
0.0
 11
160.0
 21
29.0
 31
0.0
  0
LINE
  8
0
  6
CONTINUOUS
 62
     2
 10
160.000333333
 20
30.0
 30
0.0
 11
158.068481681
 21
30.51763809
 31
0.0
  0
LINE
  8
0
  6
CONTINUOUS
 62
     2
 10
160.000333333
 20
30.0
 30
0.0
 11
158.068481681
 21
29.48236191
 31
0.0
  0
LINE
  8
0
  6
CONTINUOUS
 62
     2
 10
120.0
 20
30.0
 30
0.0
 11
160.0
 21
30.0
 31
0.0
  0
TEXT
  8
0
  6
CONTINUOUS
 62
     2
 10
135.653
 20
35.333333333
 30
0.3
 40
3.0
  1
１００
 50
0.0
 41
0.9
 51
0.0
  7
KANJI7
  0
TEXT
  8
0
  6
CONTINUOUS
 62
     2
 10
135.653
 20
30.333333333
 30
0.3
 40
3.0
  1
１２０
 50
0.0
 41
0.9
 51
0.0
  7
KANJI7
  0
LINE
  8
14
  6
LTYPE2
 62
     2
 10
120.0
 20
45.766666667
 30
0.0
 11
160.0
 21
45.766666667
 31
0.0
  0
LINE
  8
0
  6
LTYPE2
 62
     2
 10
128.0
 20
59.0
 30
0.0
 11
128.0
 21
51.0
 31
0.0
  0
ARC
  8
0
  6
LTYPE2
 62
     2
 10
130.0
 20
51.0
 30
0.0
 40
2.0
 50
180.0
 51
270.0
  0
LINE
  8
0
  6
LTYPE2
 62
     2
 10
152.0
 20
59.0
 30
0.0
 11
152.0
 21
51.0
 31
0.0
  0
LINE
  8
0
  6
LTYPE2
 62
     2
 10
130.0
 20
49.0
 30
0.0
 11
150.0
 21
49.0
 31
0.0
  0
ARC
  8
0
  6
LTYPE2
 62
     2
 10
150.0
 20
51.0
 30
0.0
 40
2.0
 50
270.0
 51
0.0
  0
LINE
  8
0
  6
LTYPE1
 62
     2
 10
123.333
 20
47.363
 30
0.0
 11
123.333
 21
43.638
 31
0.0
  0
LINE
  8
0
  6
LTYPE1
 62
     2
 10
156.666666667
 20
47.363
 30
0.0
 11
156.666666667
 21
43.638
 31
0.0
  0
LINE
  8
0
  6
CONTINUOUS
 62
     2
 10
120.0
 20
73.0
 30
0.0
 11
160.0
 21
73.0
 31
0.0
  0
ARC
  8
0
  6
CONTINUOUS
 62
     2
 10
125.0
 20
74.0
 30
0.0
 40
1.0
 50
0.0
 51
90.0
  0
LINE
  8
0
  6
CONTINUOUS
 62
     2
 10
124.0
 20
76.3
 30
0.0
 11
124.0
 21
75.0
 31
0.0
  0
LINE
  8
0
  6
CONTINUOUS
 62
     2
 10
121.0
 20
76.3
 30
0.0
 11
121.0
 21
75.0
 31
0.0
  0
LINE
  8
0
  6
CONTINUOUS
 62
     2
 10
124.0
 20
76.3
 30
0.0
 11
121.0
 21
76.3
 31
0.0
  0
LINE
  8
0
  6
CONTINUOUS
 62
     2
 10
121.6
 20
76.3
 30
0.0
 11
121.6
 21
75.0
 31
0.0
  0
LINE
  8
0
  6
CONTINUOUS
 62
     2
 10
123.4
 20
76.3
 30
0.0
 11
123.4
 21
75.0
 31
0.0
  0
LINE
  8
0
  6
LTYPE1
 62
     2
 10
122.5
 20
78.3
 30
0.0
 11
122.5
 21
71.0
 31
0.0
  0
ARC
  8
0
  6
CONTINUOUS
 62
     2
 10
155.0
 20
74.0
 30
0.0
 40
1.0
 50
90.0
 51
180.0
  0
LINE
  8
0
  6
CONTINUOUS
 62
     2
 10
156.0
 20
76.3
 30
0.0
 11
156.0
 21
75.0
 31
0.0
  0
LINE
  8
0
  6
CONTINUOUS
 62
     2
 10
159.0
 20
76.3
 30
0.0
 11
159.0
 21
75.0
 31
0.0
  0
LINE
  8
0
  6
CONTINUOUS
 62
     2
 10
156.0
 20
76.3
 30
0.0
 11
159.0
 21
76.3
 31
0.0
  0
LINE
  8
0
  6
CONTINUOUS
 62
     2
 10
158.4
 20
76.3
 30
0.0
 11
158.4
 21
75.0
 31
0.0
  0
LINE
  8
0
  6
CONTINUOUS
 62
     2
 10
156.6
 20
76.3
 30
0.0
 11
156.6
 21
75.0
 31
0.0
  0
LINE
  8
0
  6
LTYPE1
 62
     2
 10
157.5
 20
78.3
 30
0.0
 11
157.5
 21
71.0
 31
0.0
  0
POLYLINE
  8
0
  6
CONTINUOUS
 62
     2
 66
     1
  0
VERTEX
  8
0
  6
CONTINUOUS
 62
     2
 10
155.0
 20
75.0
 30
0.0
  0
VERTEX
  8
0
  6
CONTINUOUS
 62
     2
 10
160.0
 20
75.0
 30
0.0
  0
VERTEX
  8
0
  6
CONTINUOUS
 62
     2
 10
160.0
 20
45.0
 30
0.0
  0
SEQEND
  0
POLYLINE
  8
0
  6
CONTINUOUS
 62
     2
 66
     1
  0
VERTEX
  8
0
  6
CONTINUOUS
 62
     2
 10
125.0
 20
75.0
 30
0.0
  0
VERTEX
  8
0
  6
CONTINUOUS
 62
     2
 10
120.0
 20
75.0
 30
0.0
  0
VERTEX
  8
0
  6
CONTINUOUS
 62
     2
 10
120.0
 20
45.0
 30
0.0
  0
SEQEND
  0
LINE
  8
0
  6
CONTINUOUS
 62
     2
 10
73.333333333
 20
45.0
 30
0.0
 11
75.748147899
 21
44.352952387
 31
0.0
  0
LINE
  8
0
  6
CONTINUOUS
 62
     2
 10
73.333333333
 20
45.0
 30
0.0
 11
75.101100286
 21
43.232233047
 31
0.0
  0
LINE
  8
0
  6
CONTINUOUS
 62
     2
 10
73.333333333
 20
45.0
 30
0.0
 11
84.808883173
 21
38.374588211
 31
0.0
  0
POLYLINE
  8
0
  6
CONTINUOUS
 62
     2
 66
     1
  0
VERTEX
  8
0
  6
CONTINUOUS
 62
     2
 10
44.647447258
 20
57.375496709
 30
0.0
  0
VERTEX
  8
0
  6
CONTINUOUS
 62
     2
 10
44.826018687
 20
57.375496709
 30
0.0
  0
VERTEX
  8
0
  6
CONTINUOUS
 62
     2
 10
44.826018687
 20
56.062996709
 30
0.0
  0
VERTEX
  8
0
  6
CONTINUOUS
 62
     2
 10
45.004590115
 20
55.625496709
 30
0.0
  0
VERTEX
  8
0
  6
CONTINUOUS
 62
     2
 10
45.718875829
 20
55.625496709
 30
0.0
  0
VERTEX
  8
0
  6
CONTINUOUS
 62
     2
 10
45.897447258
 20
55.844246709
 30
0.0
  0
VERTEX
  8
0
  6
CONTINUOUS
 62
     2
 10
45.897447258
 20
57.375496709
 30
0.0
  0
SEQEND
  0
LINE
  8
0
  6
CONTINUOUS
 62
     2
 10
45.897447258
 20
55.844246709
 30
0.0
 11
46.076018687
 21
55.625496709
 31
0.0
  0
LINE
  8
0
  6
CONTINUOUS
 62
     2
 10
46.076018687
 20
55.625496709
 30
0.0
 11
46.254590115
 21
55.625496709
 31
0.0
  0
LINE
  8
0
  6
CONTINUOUS
 62
     2
 10
46.254590115
 20
55.625496709
 30
0.0
 11
46.433161544
 21
55.844246709
 31
0.0
  0
POLYLINE
  8
0
  6
CONTINUOUS
 62
     2
 66
     1
  0
VERTEX
  8
0
  6
CONTINUOUS
 62
     2
 10
63.169254204
 20
57.443459356
 30
0.0
  0
VERTEX
  8
0
  6
CONTINUOUS
 62
     2
 10
63.347825632
 20
57.443459356
 30
0.0
  0
VERTEX
  8
0
  6
CONTINUOUS
 62
     2
 10
63.347825632
 20
56.349709356
 30
0.0
  0
VERTEX
  8
0
  6
CONTINUOUS
 62
     2
 10
63.526397061
 20
55.912209356
 30
0.0
  0
VERTEX
  8
0
  6
CONTINUOUS
 62
     2
 10
63.704968489
 20
55.693459356
 30
0.0
  0
VERTEX
  8
0
  6
CONTINUOUS
 62
     2
 10
64.062111347
 20
55.693459356
 30
0.0
  0
VERTEX
  8
0
  6
CONTINUOUS
 62
     2
 10
64.240682775
 20
55.912209356
 30
0.0
  0
VERTEX
  8
0
  6
CONTINUOUS
 62
     2
 10
64.419254204
 20
56.349709356
 30
0.0
  0
VERTEX
  8
0
  6
CONTINUOUS
 62
     2
 10
64.419254204
 20
57.443459356
 30
0.0
  0
VERTEX
  8
0
  6
CONTINUOUS
 62
     2
 10
64.776397061
 20
57.443459356
 30
0.0
  0
SEQEND
  0
LINE
  8
13
  6
CONTINUOUS
 62
     2
 10
45.0
 20
71.0
 30
0.0
 11
45.0
 21
61.0
 31
0.0
  0
LINE
  8
13
  6
CONTINUOUS
 62
     2
 10
65.0
 20
61.0
 30
0.0
 11
65.0
 21
71.0
 31
0.0
  0
LINE
  8
13
  6
CONTINUOUS
 62
     2
 10
65.0
 20
71.0
 30
0.0
 11
45.0
 21
71.0
 31
0.0
  0
LINE
  8
13
  6
CONTINUOUS
 62
     2
 10
45.0
 20
61.0
 30
0.0
 11
65.0
 21
61.0
 31
0.0
  0
LINE
  8
0
  6
CONTINUOUS
 62
     2
 10
19.333
 20
95.0
 30
0.0
 11
19.333
 21
45.0
 31
0.0
  0
LINE
  8
0
  6
CONTINUOUS
 62
     2
 10
19.333
 20
95.0
 30
0.0
 11
18.81536191
 21
93.068148347
 31
0.0
  0
LINE
  8
0
  6
CONTINUOUS
 62
     2
 10
19.333
 20
95.0
 30
0.0
 11
19.85063809
 21
93.068148347
 31
0.0
  0
LINE
  8
0
  6
CONTINUOUS
 62
     2
 10
28.333
 20
95.0
 30
0.0
 11
18.333
 21
95.0
 31
0.0
  0
LINE
  8
0
  6
CONTINUOUS
 62
     2
 10
63.0
 20
84.0
 30
0.0
 11
47.0
 21
84.0
 31
0.0
  0
LINE
  8
0
  6
CONTINUOUS
 62
     2
 10
127.5
 20
84.0
 30
0.0
 11
127.5
 21
74.0
 31
0.0
  0
ARC
  8
0
  6
CONTINUOUS
 62
     2
 10
129.5
 20
84.0
 30
0.0
 40
2.0
 50
90.0
 51
180.0
  0
LINE
  8
0
  6
CONTINUOUS
 62
     2
 10
152.5
 20
84.0
 30
0.0
 11
152.5
 21
74.0
 31
0.0
  0
LINE
  8
0
  6
CONTINUOUS
 62
     2
 10
150.5
 20
86.0
 30
0.0
 11
129.5
 21
86.0
 31
0.0
  0
ARC
  8
0
  6
CONTINUOUS
 62
     2
 10
150.5
 20
84.0
 30
0.0
 40
2.0
 50
0.0
 51
90.0
  0
LINE
  8
0
  6
CONTINUOUS
 62
     2
 10
148.333333333
 20
95.0
 30
0.0
 11
143.333333333
 21
95.0
 31
0.0
  0
LINE
  8
0
  6
CONTINUOUS
 62
     2
 10
148.333333333
 20
93.777042333
 30
0.0
 11
143.333333333
 21
93.777042333
 31
0.0
  0
LINE
  8
0
  6
CONTINUOUS
 62
     2
 10
148.333333333
 20
95.0
 30
0.0
 11
148.333333333
 21
86.0
 31
0.0
  0
LINE
  8
0
  6
CONTINUOUS
 62
     2
 10
143.333333333
 20
95.0
 30
0.0
 11
143.333333333
 21
86.0
 31
0.0
  0
LINE
  8
0
  6
CONTINUOUS
 62
     2
 10
148.333333333
 20
94.7
 30
0.0
 11
143.333333333
 21
94.7
 31
0.0
  0
LINE
  8
0
  6
LTYPE1
 62
     2
 10
150.5
 20
92.0
 30
0.0
 11
129.5
 21
92.0
 31
0.0
  0
LINE
  8
0
  6
CONTINUOUS
 62
     2
 10
131.666666667
 20
95.0
 30
0.0
 11
136.666666667
 21
95.0
 31
0.0
  0
LINE
  8
0
  6
CONTINUOUS
 62
     2
 10
131.666666667
 20
93.777042333
 30
0.0
 11
136.666666667
 21
93.777042333
 31
0.0
  0
LINE
  8
0
  6
CONTINUOUS
 62
     2
 10
131.666666667
 20
95.0
 30
0.0
 11
131.666666667
 21
86.0
 31
0.0
  0
LINE
  8
0
  6
CONTINUOUS
 62
     2
 10
136.666666667
 20
95.0
 30
0.0
 11
136.666666667
 21
86.0
 31
0.0
  0
LINE
  8
0
  6
CONTINUOUS
 62
     2
 10
131.666666667
 20
94.7
 30
0.0
 11
136.666666667
 21
94.7
 31
0.0
  0
LINE
  8
0
  6
CONTINUOUS
 62
     2
 10
143.333333333
 20
94.5
 30
0.0
 11
142.933333333
 21
94.5
 31
0.0
  0
LINE
  8
0
  6
CONTINUOUS
 62
     2
 10
142.933333333
 20
94.5
 30
0.0
 11
142.933333333
 21
89.5
 31
0.0
  0
LINE
  8
0
  6
CONTINUOUS
 62
     2
 10
143.333333333
 20
89.5
 30
0.0
 11
142.933333333
 21
89.5
 31
0.0
  0
LINE
  8
0
  6
CONTINUOUS
 62
     2
 10
136.666666667
 20
94.5
 30
0.0
 11
137.066666667
 21
94.5
 31
0.0
  0
LINE
  8
0
  6
CONTINUOUS
 62
     2
 10
137.066666667
 20
94.5
 30
0.0
 11
137.066666667
 21
89.5
 31
0.0
  0
LINE
  8
0
  6
CONTINUOUS
 62
     2
 10
136.666666667
 20
89.5
 30
0.0
 11
137.066666667
 21
89.5
 31
0.0
  0
LINE
  8
0
  6
CONTINUOUS
 62
     2
 10
142.933333333
 20
94.0
 30
0.0
 11
137.066666667
 21
94.0
 31
0.0
  0
LINE
  8
0
  6
CONTINUOUS
 62
     2
 10
142.933333333
 20
90.0
 30
0.0
 11
137.066666667
 21
90.0
 31
0.0
  0
LINE
  8
0
  6
LTYPE2
 62
     2
 10
148.333333333
 20
87.0
 30
0.0
 11
143.333333333
 21
87.0
 31
0.0
  0
LINE
  8
0
  6
CONTINUOUS
 62
     2
 10
149.833333333
 20
90.3
 30
0.0
 11
149.833333333
 21
89.3
 31
0.0
  0
LINE
  8
0
  6
CONTINUOUS
 62
     2
 10
150.833333333
 20
89.3
 30
0.0
 11
149.833333333
 21
89.3
 31
0.0
  0
LINE
  8
0
  6
CONTINUOUS
 62
     2
 10
150.833333333
 20
90.3
 30
0.0
 11
149.833333333
 21
90.3
 31
0.0
  0
LINE
  8
0
  6
CONTINUOUS
 62
     2
 10
152.633333333
 20
90.8
 30
0.0
 11
153.633333333
 21
90.8
 31
0.0
  0
LINE
  8
0
  6
CONTINUOUS
 62
     2
 10
153.633333333
 20
88.8
 30
0.0
 11
152.633333333
 21
88.8
 31
0.0
  0
LINE
  8
0
  6
CONTINUOUS
 62
     2
 10
152.633333333
 20
88.3
 30
0.0
 11
152.133333333
 21
88.3
 31
0.0
  0
LINE
  8
0
  6
CONTINUOUS
 62
     2
 10
151.333333333
 20
88.3
 30
0.0
 11
150.833333333
 21
88.3
 31
0.0
  0
LINE
  8
0
  6
CONTINUOUS
 62
     2
 10
152.133333333
 20
92.0
 30
0.0
 11
151.333333333
 21
92.0
 31
0.0
  0
LINE
  8
0
  6
CONTINUOUS
 62
     2
 10
150.833333333
 20
91.3
 30
0.0
 11
151.333333333
 21
91.3
 31
0.0
  0
LINE
  8
0
  6
CONTINUOUS
 62
     2
 10
152.133333333
 20
91.3
 30
0.0
 11
152.633333333
 21
91.3
 31
0.0
  0
LINE
  8
0
  6
CONTINUOUS
 62
     2
 10
153.633333333
 20
90.8
 30
0.0
 11
153.633333333
 21
88.8
 31
0.0
  0
LINE
  8
0
  6
CONTINUOUS
 62
     2
 10
152.633333333
 20
91.3
 30
0.0
 11
152.633333333
 21
88.3
 31
0.0
  0
LINE
  8
0
  6
CONTINUOUS
 62
     2
 10
150.833333333
 20
91.3
 30
0.0
 11
150.833333333
 21
88.3
 31
0.0
  0
LINE
  8
0
  6
LTYPE1
 62
     2
 10
154.996333333
 20
89.8
 30
0.0
 11
148.333333333
 21
89.8
 31
0.0
  0
LINE
  8
0
  6
CONTINUOUS
 62
     2
 10
151.133333333
 20
86.2
 30
0.0
 11
148.333333333
 21
86.2
 31
0.0
  0
LINE
  8
0
  6
CONTINUOUS
 62
     2
 10
152.133333333
 20
92.0
 30
0.0
 11
152.133333333
 21
87.2
 31
0.0
  0
ARC
  8
0
  6
CONTINUOUS
 62
     2
 10
151.133333333
 20
87.2
 30
0.0
 40
1.0
 50
270.0
 51
0.0
  0
LINE
  8
0
  6
CONTINUOUS
 62
     2
 10
150.933333333
 20
87.0
 30
0.0
 11
148.333333333
 21
87.0
 31
0.0
  0
LINE
  8
0
  6
CONTINUOUS
 62
     2
 10
151.333333333
 20
92.0
 30
0.0
 11
151.333333333
 21
87.4
 31
0.0
  0
ARC
  8
0
  6
CONTINUOUS
 62
     2
 10
150.933333333
 20
87.4
 30
0.0
 40
0.4
 50
270.0
 51
0.0
  0
LINE
  8
0
  6
LTYPE1
 62
     2
 10
145.833333333
 20
98.246
 30
0.0
 11
145.833333333
 21
83.0
 31
0.0
  0
LINE
  8
0
  6
LTYPE1
 62
     2
 10
134.167
 20
98.246
 30
0.0
 11
134.167
 21
83.0
 31
0.0
  0
LINE
  8
0
  6
CONTINUOUS
 62
     2
 10
134.167
 20
101.0
 30
0.0
 11
134.167
 21
110.0
 31
0.0
  0
LINE
  8
0
  6
CONTINUOUS
 62
     2
 10
134.167
 20
109.0
 30
0.0
 11
136.098851653
 21
108.48236191
 31
0.0
  0
LINE
  8
0
  6
CONTINUOUS
 62
     2
 10
134.167
 20
109.0
 30
0.0
 11
136.098851653
 21
109.51763809
 31
0.0
  0
POINT
  8
2
  6
CONTINUOUS
 62
     2
 10
145.833333333
 20
109.0
 30
0.0
  0
LINE
  8
0
  6
CONTINUOUS
 62
     2
 10
145.833333333
 20
101.0
 30
0.0
 11
145.833333333
 21
110.0
 31
0.0
  0
LINE
  8
0
  6
CONTINUOUS
 62
     2
 10
145.833
 20
109.0
 30
0.0
 11
143.901148347
 21
108.48236191
 31
0.0
  0
LINE
  8
0
  6
CONTINUOUS
 62
     2
 10
145.833
 20
109.0
 30
0.0
 11
143.901148347
 21
109.51763809
 31
0.0
  0
LINE
  8
0
  6
CONTINUOUS
 62
     2
 10
134.167
 20
109.0
 30
0.0
 11
145.833333333
 21
109.0
 31
0.0
  0
TEXT
  8
0
  6
CONTINUOUS
 62
     2
 10
137.321
 20
109.519329635
 30
0.3
 40
3.0
  1
３５
 50
0.0
 41
0.9
 51
0.0
  7
KANJI7
  0
LINE
  8
0
  6
CONTINUOUS
 62
     2
 10
153.633333333
 20
89.8
 30
0.0
 11
156.048147899
 21
90.447047613
 31
0.0
  0
LINE
  8
0
  6
CONTINUOUS
 62
     2
 10
153.633333333
 20
89.8
 30
0.0
 11
155.401100286
 21
91.567766953
 31
0.0
  0
TEXT
  8
0
  6
CONTINUOUS
 62
     2
 10
160.316244346
 20
93.658380472
 30
0.3
 40
3.0
  1
２－Ｍ６一次端子
 50
0.0
 41
0.9
 51
0.0
  7
KANJI7
  0
LINE
  8
0
  6
CONTINUOUS
 62
     2
 10
159.551255059
 20
93.216713701
 30
0.0
 11
184.478244346
 21
93.216713701
 31
0.0
  0
LINE
  8
0
  6
CONTINUOUS
 62
     2
 10
153.633333333
 20
89.8
 30
0.0
 11
159.551255059
 21
93.216713701
 31
0.0
  0
LINE
  8
14
  6
CONTINUOUS
 62
     2
 10
41.879764333
 20
93.777042333
 30
0.0
 11
41.563632
 21
94.956863333
 31
0.0
  0
ARC
  8
14
  6
CONTINUOUS
 62
     2
 10
43.5
 20
91.659037
 30
0.0
 40
2.666666667
 50
127.415334
 51
232.584666
  0
LINE
  8
14
  6
CONTINUOUS
 62
     2
 10
42.070305333
 20
93.709884
 30
0.0
 11
41.724619667
 21
95.0
 31
0.0
  0
ARC
  8
14
  6
CONTINUOUS
 62
     2
 10
43.5
 20
91.659037
 30
0.0
 40
2.5
 50
124.88128
 51
235.11872
  0
LINE
  8
14
  6
CONTINUOUS
 62
     2
 10
45.120235667
 20
93.777042333
 30
0.0
 11
45.436368
 21
94.956863333
 31
0.0
  0
ARC
  8
14
  6
CONTINUOUS
 62
     2
 10
43.5
 20
91.659037
 30
0.0
 40
2.666666667
 50
307.415334
 51
52.584666
  0
LINE
  8
14
  6
CONTINUOUS
 62
     2
 10
44.929694667
 20
93.709884
 30
0.0
 11
45.275380333
 21
95.0
 31
0.0
  0
ARC
  8
14
  6
CONTINUOUS
 62
     2
 10
43.5
 20
91.659037
 30
0.0
 40
2.5
 50
307.415334
 51
55.11872
  0
LINE
  8
14
  6
CONTINUOUS
 62
     2
 10
44.929694667
 20
93.709884
 30
0.0
 11
45.275380333
 21
95.0
 31
0.0
  0
ARC
  8
14
  6
CONTINUOUS
 62
     2
 10
43.5
 20
91.659037
 30
0.0
 40
2.5
 50
304.88128
 51
55.11872
  0
LINE
  8
14
  6
CONTINUOUS
 62
     2
 10
41.724619667
 20
95.0
 30
0.0
 11
41.563632
 21
94.956863333
 31
0.0
  0
LINE
  8
14
  6
CONTINUOUS
 62
     2
 10
45.275380333
 20
95.0
 30
0.0
 11
45.436368
 21
94.956863333
 31
0.0
  0
CIRCLE
  8
14
  6
CONTINUOUS
 62
     2
 10
43.5
 20
91.659037
 30
0.0
 40
2.5
  0
LINE
  8
15
  6
LTYPE1
 62
     2
 10
43.5
 20
96.325703667
 30
0.0
 11
43.5
 21
84.825703667
 31
0.0
  0
LINE
  8
14
  6
CONTINUOUS
 62
     2
 10
44.928327667
 20
86.17
 30
0.0
 11
44.792317667
 21
86.602690333
 31
0.0
  0
LINE
  8
14
  6
CONTINUOUS
 62
     2
 10
42.071672333
 20
86.17
 30
0.0
 11
42.207682333
 21
86.602690333
 31
0.0
  0
ARC
  8
14
  6
CONTINUOUS
 62
     2
 10
43.5
 20
87.17
 30
0.0
 40
0.333333333
 50
188.132064
 51
351.867936
  0
ARC
  8
14
  6
CONTINUOUS
 62
     2
 10
42.843669
 20
86.402777
 30
0.0
 40
0.666666667
 50
98.132064
 51
162.550209
  0
ARC
  8
14
  6
CONTINUOUS
 62
     2
 10
44.156331
 20
86.402777
 30
0.0
 40
0.666666667
 50
17.449791
 51
81.867936
  0
LINE
  8
14
  6
CONTINUOUS
 62
     2
 10
43.5
 20
87.17
 30
0.0
 11
42.749365667
 21
87.062740333
 31
0.0
  0
LINE
  8
14
  6
CONTINUOUS
 62
     2
 10
43.5
 20
87.17
 30
0.0
 11
44.250634667
 21
87.062740333
 31
0.0
  0
LINE
  8
14
  6
CONTINUOUS
 62
     2
 10
41.317694834
 20
86.799409529
 30
0.0
 11
42.070305333
 21
89.60819
 31
0.0
  0
ARC
  8
0
  6
CONTINUOUS
 62
     2
 10
41.800657746
 20
86.67
 30
0.0
 40
0.5
 50
164.99999924
 51
270.0
  0
LINE
  8
14
  6
CONTINUOUS
 62
     2
 10
45.682305166
 20
86.799409529
 30
0.0
 11
44.929694667
 21
89.60819
 31
0.0
  0
LINE
  8
0
  6
CONTINUOUS
 62
     2
 10
41.800657746
 20
86.17
 30
0.0
 11
45.199342254
 21
86.17
 31
0.0
  0
ARC
  8
0
  6
CONTINUOUS
 62
     2
 10
45.199342254
 20
86.67
 30
0.0
 40
0.5
 50
270.0
 51
15.00000076
  0
LINE
  8
14
  6
CONTINUOUS
 62
     2
 10
41.156938357
 20
86.843408805
 30
0.0
 11
41.879764333
 21
89.541031333
 31
0.0
  0
ARC
  8
0
  6
CONTINUOUS
 62
     2
 10
41.804108649
 20
86.67
 30
0.0
 40
0.67
 50
164.999996074
 51
270.0
  0
LINE
  8
14
  6
CONTINUOUS
 62
     2
 10
45.166666667
 20
89.367749
 30
0.0
 11
45.843061595
 21
86.84340876
 31
0.0
  0
LINE
  8
0
  6
CONTINUOUS
 62
     2
 10
41.804108649
 20
86.0
 30
0.0
 11
45.195891291
 21
86.0
 31
0.0
  0
ARC
  8
0
  6
CONTINUOUS
 62
     2
 10
45.195891291
 20
86.67
 30
0.0
 40
0.67
 50
270.0
 51
14.999999984
  0
LINE
  8
0
  6
CONTINUOUS
 62
     2
 10
42.7
 20
95.0
 30
0.0
 11
42.5
 21
93.950324847
 31
0.0
  0
LINE
  8
0
  6
CONTINUOUS
 62
     2
 10
44.3
 20
95.0
 30
0.0
 11
42.7
 21
95.0
 31
0.0
  0
LINE
  8
0
  6
CONTINUOUS
 62
     2
 10
44.3
 20
95.0
 30
0.0
 11
44.5
 21
93.950324847
 31
0.0
  0
ARC
  8
0
  6
CONTINUOUS
 62
     2
 10
40.5
 20
84.0
 30
0.0
 40
2.0
 50
90.0
 51
180.0
  0
LINE
  8
0
  6
CONTINUOUS
 62
     2
 10
47.0
 20
85.0
 30
0.0
 11
47.0
 21
84.0
 31
0.0
  0
LINE
  8
0
  6
CONTINUOUS
 62
     2
 10
46.0
 20
86.0
 30
0.0
 11
40.5
 21
86.0
 31
0.0
  0
ARC
  8
0
  6
CONTINUOUS
 62
     2
 10
46.0
 20
85.0
 30
0.0
 40
1.0
 50
0.0
 51
90.0
  0
LINE
  8
0
  6
CONTINUOUS
 62
     2
 10
38.5
 20
84.0
 30
0.0
 11
38.5
 21
75.0
 31
0.0
  0
LINE
  8
14
  6
CONTINUOUS
 62
     2
 10
68.120235667
 20
93.777042333
 30
0.0
 11
68.436368
 21
94.956863333
 31
0.0
  0
ARC
  8
14
  6
CONTINUOUS
 62
     2
 10
66.5
 20
91.659037
 30
0.0
 40
2.666666667
 50
307.415334
 51
52.584666
  0
LINE
  8
14
  6
CONTINUOUS
 62
     2
 10
67.929694667
 20
93.709884
 30
0.0
 11
68.275380333
 21
95.0
 31
0.0
  0
ARC
  8
14
  6
CONTINUOUS
 62
     2
 10
66.5
 20
91.659037
 30
0.0
 40
2.5
 50
304.88128
 51
55.11872
  0
LINE
  8
14
  6
CONTINUOUS
 62
     2
 10
64.879764333
 20
93.777042333
 30
0.0
 11
64.563632
 21
94.956863333
 31
0.0
  0
ARC
  8
14
  6
CONTINUOUS
 62
     2
 10
66.5
 20
91.659037
 30
0.0
 40
2.666666667
 50
127.415334
 51
232.584666
  0
LINE
  8
14
  6
CONTINUOUS
 62
     2
 10
65.070305333
 20
93.709884
 30
0.0
 11
64.724619667
 21
95.0
 31
0.0
  0
ARC
  8
14
  6
CONTINUOUS
 62
     2
 10
66.5
 20
91.659037
 30
0.0
 40
2.5
 50
124.88128
 51
232.584666
  0
LINE
  8
14
  6
CONTINUOUS
 62
     2
 10
65.070305333
 20
93.709884
 30
0.0
 11
64.724619667
 21
95.0
 31
0.0
  0
ARC
  8
14
  6
CONTINUOUS
 62
     2
 10
66.5
 20
91.659037
 30
0.0
 40
2.5
 50
124.88128
 51
235.11872
  0
LINE
  8
14
  6
CONTINUOUS
 62
     2
 10
68.275380333
 20
95.0
 30
0.0
 11
68.436368
 21
94.956863333
 31
0.0
  0
LINE
  8
14
  6
CONTINUOUS
 62
     2
 10
64.724619667
 20
95.0
 30
0.0
 11
64.563632
 21
94.956863333
 31
0.0
  0
CIRCLE
  8
14
  6
CONTINUOUS
 62
     2
 10
66.5
 20
91.659037
 30
0.0
 40
2.5
  0
LINE
  8
15
  6
LTYPE1
 62
     2
 10
66.5
 20
96.325703667
 30
0.0
 11
66.5
 21
84.825703667
 31
0.0
  0
LINE
  8
14
  6
CONTINUOUS
 62
     2
 10
65.071672333
 20
86.17
 30
0.0
 11
65.207682333
 21
86.602690333
 31
0.0
  0
LINE
  8
14
  6
CONTINUOUS
 62
     2
 10
67.928327667
 20
86.17
 30
0.0
 11
67.792317667
 21
86.602690333
 31
0.0
  0
ARC
  8
14
  6
CONTINUOUS
 62
     2
 10
66.5
 20
87.17
 30
0.0
 40
0.333333333
 50
188.132064
 51
351.867936
  0
ARC
  8
14
  6
CONTINUOUS
 62
     2
 10
67.156331
 20
86.402777
 30
0.0
 40
0.666666667
 50
17.449791
 51
81.867936
  0
ARC
  8
14
  6
CONTINUOUS
 62
     2
 10
65.843669
 20
86.402777
 30
0.0
 40
0.666666667
 50
98.132064
 51
162.550209
  0
LINE
  8
14
  6
CONTINUOUS
 62
     2
 10
66.5
 20
87.17
 30
0.0
 11
67.250634333
 21
87.062740333
 31
0.0
  0
LINE
  8
14
  6
CONTINUOUS
 62
     2
 10
66.5
 20
87.17
 30
0.0
 11
65.749365333
 21
87.062740333
 31
0.0
  0
LINE
  8
14
  6
CONTINUOUS
 62
     2
 10
68.682305166
 20
86.799409529
 30
0.0
 11
67.929694667
 21
89.60819
 31
0.0
  0
ARC
  8
0
  6
CONTINUOUS
 62
     2
 10
68.199342254
 20
86.67
 30
0.0
 40
0.5
 50
270.0
 51
15.00000076
  0
LINE
  8
14
  6
CONTINUOUS
 62
     2
 10
64.317694834
 20
86.799409529
 30
0.0
 11
65.070305333
 21
89.60819
 31
0.0
  0
LINE
  8
0
  6
CONTINUOUS
 62
     2
 10
68.199342254
 20
86.17
 30
0.0
 11
64.800657746
 21
86.17
 31
0.0
  0
ARC
  8
0
  6
CONTINUOUS
 62
     2
 10
64.800657746
 20
86.67
 30
0.0
 40
0.5
 50
164.99999924
 51
270.0
  0
LINE
  8
14
  6
CONTINUOUS
 62
     2
 10
68.843061643
 20
86.843408805
 30
0.0
 11
68.120235667
 21
89.541031333
 31
0.0
  0
ARC
  8
0
  6
CONTINUOUS
 62
     2
 10
68.195891351
 20
86.67
 30
0.0
 40
0.67
 50
270.0
 51
15.000003926
  0
LINE
  8
14
  6
CONTINUOUS
 62
     2
 10
64.833333333
 20
89.367749
 30
0.0
 11
64.156938405
 21
86.84340876
 31
0.0
  0
LINE
  8
0
  6
CONTINUOUS
 62
     2
 10
68.195891351
 20
86.0
 30
0.0
 11
64.804108709
 21
86.0
 31
0.0
  0
ARC
  8
0
  6
CONTINUOUS
 62
     2
 10
64.804108709
 20
86.67
 30
0.0
 40
0.67
 50
165.000000016
 51
270.0
  0
LINE
  8
0
  6
CONTINUOUS
 62
     2
 10
67.3
 20
95.0
 30
0.0
 11
67.5
 21
93.950324847
 31
0.0
  0
LINE
  8
0
  6
CONTINUOUS
 62
     2
 10
65.7
 20
95.0
 30
0.0
 11
67.3
 21
95.0
 31
0.0
  0
LINE
  8
0
  6
CONTINUOUS
 62
     2
 10
65.7
 20
95.0
 30
0.0
 11
65.5
 21
93.950324847
 31
0.0
  0
ARC
  8
0
  6
CONTINUOUS
 62
     2
 10
69.5
 20
84.0
 30
0.0
 40
2.0
 50
0.0
 51
90.0
  0
LINE
  8
0
  6
CONTINUOUS
 62
     2
 10
63.0
 20
85.0
 30
0.0
 11
63.0
 21
84.0
 31
0.0
  0
LINE
  8
0
  6
CONTINUOUS
 62
     2
 10
64.0
 20
86.0
 30
0.0
 11
69.5
 21
86.0
 31
0.0
  0
ARC
  8
0
  6
CONTINUOUS
 62
     2
 10
64.0
 20
85.0
 30
0.0
 40
1.0
 50
90.0
 51
180.0
  0
LINE
  8
0
  6
CONTINUOUS
 62
     2
 10
71.5
 20
84.0
 30
0.0
 11
71.5
 21
75.0
 31
0.0
  0
LINE
  8
0
  6
LTYPE1
 62
     2
 10
47.5
 20
91.659037
 30
0.0
 11
39.5
 21
91.659037
 31
0.0
  0
LINE
  8
0
  6
LTYPE1
 62
     2
 10
70.5
 20
91.659037
 30
0.0
 11
62.5
 21
91.659037
 31
0.0
  0
LINE
  8
0
  6
LTYPE1
 62
     2
 10
74.833333333
 20
45.766666667
 30
0.0
 11
74.833333333
 21
45.0
 31
0.0
  0
LINE
  8
0
  6
LTYPE1
 62
     2
 10
71.833333333
 20
45.0
 30
0.0
 11
71.833333333
 21
45.766666667
 31
0.0
  0
LINE
  8
0
  6
LTYPE1
 62
     2
 10
38.167
 20
45.766666667
 30
0.0
 11
38.167
 21
45.0
 31
0.0
  0
LINE
  8
0
  6
LTYPE1
 62
     2
 10
35.167
 20
45.0
 30
0.0
 11
35.167
 21
45.766666667
 31
0.0
  0
LINE
  8
0
  6
LTYPE1
 62
     2
 10
124.833
 20
45.766666667
 30
0.0
 11
124.833
 21
45.0
 31
0.0
  0
LINE
  8
0
  6
LTYPE1
 62
     2
 10
121.833
 20
45.0
 30
0.0
 11
121.833
 21
45.766666667
 31
0.0
  0
LINE
  8
0
  6
LTYPE1
 62
     2
 10
158.166666667
 20
45.766666667
 30
0.0
 11
158.166666667
 21
45.0
 31
0.0
  0
LINE
  8
0
  6
LTYPE1
 62
     2
 10
155.166666667
 20
45.0
 30
0.0
 11
155.166666667
 21
45.766666667
 31
0.0
  0
LINE
  8
0
  6
LTYPE1
 62
     2
 10
55.0
 20
167.0
 30
0.0
 11
55.0
 21
123.0
 31
0.0
  0
LINE
  8
0
  6
LTYPE1
 62
     2
 10
66.7
 20
167.0
 30
0.0
 11
66.7
 21
129.5
 31
0.0
  0
LINE
  8
0
  6
LTYPE1
 62
     2
 10
43.3
 20
167.0
 30
0.0
 11
43.3
 21
129.5
 31
0.0
  0
LINE
  8
0
  6
LTYPE1
 62
     2
 10
75.3
 20
131.1
 30
0.0
 11
75.3
 21
125.0
 31
0.0
  0
LINE
  8
0
  6
LTYPE1
 62
     2
 10
78.3
 20
128.1
 30
0.0
 11
72.3
 21
128.1
 31
0.0
  0
LINE
  8
0
  6
LTYPE1
 62
     2
 10
75.3
 20
164.9
 30
0.0
 11
75.3
 21
158.8
 31
0.0
  0
LINE
  8
0
  6
LTYPE1
 62
     2
 10
78.3
 20
161.9
 30
0.0
 11
72.3
 21
161.9
 31
0.0
  0
LINE
  8
0
  6
LTYPE1
 62
     2
 10
34.7
 20
164.9
 30
0.0
 11
34.7
 21
158.8
 31
0.0
  0
LINE
  8
0
  6
LTYPE1
 62
     2
 10
37.7
 20
161.9
 30
0.0
 11
31.7
 21
161.9
 31
0.0
  0
LINE
  8
0
  6
LTYPE1
 62
     2
 10
34.7
 20
131.1
 30
0.0
 11
34.7
 21
125.0
 31
0.0
  0
LINE
  8
0
  6
LTYPE1
 62
     2
 10
37.7
 20
128.1
 30
0.0
 11
31.7
 21
128.1
 31
0.0
  0
LINE
  8
0
  6
LTYPE1
 62
     2
 10
30.0
 20
145.0
 30
0.0
 11
80.0
 21
145.0
 31
0.0
  0
LINE
  8
15
  6
LTYPE1
 62
     2
 10
140.0
 20
98.246
 30
0.0
 11
140.0
 21
41.0
 31
0.0
  0
LINE
  8
15
  6
LTYPE1
 62
     2
 10
55.0
 20
98.246
 30
0.0
 11
55.0
 21
41.0
 31
0.0
  0
LINE
  8
15
  6
LTYPE1
 62
     2
 10
73.333333333
 20
47.158333333
 30
0.0
 11
73.333333333
 21
43.591666667
 31
0.0
  0
LINE
  8
15
  6
LTYPE1
 62
     2
 10
36.667
 20
47.158333333
 30
0.0
 11
36.667
 21
43.591666667
 31
0.0
  0
LINE
  8
15
  6
LTYPE1
 62
     2
 10
56.666666667
 20
53.5
 30
0.0
 11
63.333333333
 21
53.5
 31
0.0
  0
LINE
  8
15
  6
LTYPE1
 62
     2
 10
60.0
 20
56.833333333
 30
0.0
 11
60.0
 21
50.166666667
 31
0.0
  0
TEXT
  8
0
  6
CONTINUOUS
 62
     2
 10
172.0
 20
180.0
 30
0.4
 40
4.0
  1
エホ゜キシモールト゛計器用変圧器
 50
0.0
 41
0.9
 51
0.0
  7
KANJI3
  0
LINE
  8
0
  6
CONTINUOUS
 62
     2
 10
84.808883173
 20
38.374588211
 30
0.0
 11
105.878883173
 21
38.374588211
 31
0.0
  0
TEXT
  8
0
  6
CONTINUOUS
 62
     2
 10
166.5
 20
129.0
 30
0.3
 40
3.0
  1
質　量
 50
0.0
 41
0.9
 51
0.0
  7
KANJI1
  0
TEXT
  8
0
  6
CONTINUOUS
 62
     2
 10
84.808883173
 20
38.816254982
 30
0.3
 40
3.0
  1
４－φ９取付穴
 50
0.0
 41
0.9
 51
0.0
  7
KANJI7
  0
LINE
  8
0
  6
CONTINUOUS
 62
     2
 10
123.0
 20
55.5
 30
0.0
 11
123.0
 21
51.5
 31
0.0
  0
LINE
  8
0
  6
CONTINUOUS
 62
     2
 10
128.0
 20
50.5
 30
0.0
 11
123.0
 21
51.5
 31
0.0
  0
LINE
  8
0
  6
CONTINUOUS
 62
     2
 10
128.0
 20
56.5
 30
0.0
 11
123.0
 21
55.5
 31
0.0
  0
LINE
  8
0
  6
CONTINUOUS
 62
     2
 10
123.0
 20
54.5
 30
0.0
 11
122.3
 21
54.5
 31
0.0
  0
ARC
  8
0
  6
CONTINUOUS
 62
     2
 10
122.3
 20
53.7
 30
0.0
 40
0.8
 50
90.0
 51
180.0
  0
LINE
  8
0
  6
CONTINUOUS
 62
     2
 10
123.0
 20
52.5
 30
0.0
 11
122.3
 21
52.5
 31
0.0
  0
LINE
  8
0
  6
CONTINUOUS
 62
     2
 10
121.5
 20
53.7
 30
0.0
 11
121.5
 21
53.3
 31
0.0
  0
ARC
  8
0
  6
CONTINUOUS
 62
     2
 10
122.3
 20
53.3
 30
0.0
 40
0.8
 50
180.0
 51
270.0
  0
LINE
  8
0
  6
CONTINUOUS
 62
     2
 10
122.5
 20
54.5
 30
0.0
 11
122.5
 21
52.5
 31
0.0
  0
LINE
  8
0
  6
LTYPE1
 62
     2
 10
120.534820115
 20
53.5
 30
0.0
 11
129.562605467
 21
53.5
 31
0.0
  0
LINE
  8
0
  6
CONTINUOUS
 62
     2
 10
121.702
 20
54.235
 30
0.0
 11
119.934233047
 21
56.002766953
 31
0.0
  0
LINE
  8
0
  6
CONTINUOUS
 62
     2
 10
121.702
 20
54.235
 30
0.0
 11
119.287185434
 21
54.882047613
 31
0.0
  0
LINE
  8
0
  6
CONTINUOUS
 62
     2
 10
121.702
 20
54.235
 30
0.0
 11
115.227076783
 21
57.973298662
 31
0.0
  0
TEXT
  8
0
  6
CONTINUOUS
 62
     2
 10
91.065076783
 20
58.414965433
 30
0.3
 40
3.0
  1
２－Ｍ５二次端子
 50
0.0
 41
0.9
 51
0.0
  7
KANJI7
  0
LINE
  8
0
  6
CONTINUOUS
 62
     2
 10
91.065076783
 20
57.973298662
 30
0.0
 11
115.227076783
 21
57.973298662
 31
0.0
  0
TEXT
  8
0
  6
CONTINUOUS
 62
     1
 10
183.0
 20
69.0
 30
0.4
 40
4.0
  1
ＰＭｅ－１Ｃａ
 50
0.0
 41
0.9
 51
0.0
  7
KANJI8
  0
TEXT
  8
0
  6
CONTINUOUS
 62
     1
 10
183.0
 20
59.0
 30
0.0
 40
4.0
  1
エポキシモールド計器用変圧器外形図
 50
0.0
 41
0.75
 51
0.0
  7
KANJI9
  0
TEXT
  8
0
  6
CONTINUOUS
 62
     3
 10
183.0
 20
36.0
 30
0.2
 40
5.8
  1
ＭＳ－９４４３　　Ｂ
 50
0.0
 41
0.827586207
 51
0.0
  7
KANJI10
  0
ENDSEC
  0
EOF
