  0
SECTION
  2
HEADER
  9
$ACADVER
  1
AC1009
  9
$DWGCODEPAGE
  3
dos932
  9
$EXTMIN
 10
0.0
 20
0.0
 30
0.0
  9
$EXTMAX
 10
297.0
 20
210.0
 30
0.0
  9
$LIMMIN
 10
0.0
 20
0.0
  9
$LIMMAX
 10
297.0
 20
210.0
  9
$LTSCALE
 40
1.0
  9
$PDMODE
 70
     0
  0
ENDSEC
  0
SECTION
  2
TABLES
  0
TABLE
  2
VPORT
 70
     1
  0
VPORT
  2
*ACTIVE
 70
     0
 10
0.0
 20
0.0
 11
1.0
 21
1.0
 12
148.5
 22
105.0
 13
0.0
 23
0.0
 14
10.0
 24
10.0
 15
10.0
 25
10.0
 16
0.0
 26
0.0
 36
1.0
 17
0.0
 27
0.0
 37
0.0
 40
297.0
 41
1.414285714
 42
50.0
 43
0.0
 44
0.0
 50
0.0
 51
0.0
 71
     0
 72
  1000
 73
     1
 74
     3
 75
     0
 76
     0
 77
     0
 78
     0
  0
ENDTAB
  0
TABLE
  2
LTYPE
 70
     3
  0
LTYPE
  2
CONTINUOUS
 70
    64
  3
Solid line
 72
    65
 73
     0
 40
0.0
  0
LTYPE
  2
LTYPE1
 70
    64
  3
CENTER
 72
    65
 73
     4
 40
5.0
 49
3.5
 49
-0.5
 49
0.5
 49
-0.5
  0
LTYPE
  2
LTYPE2
 70
    64
  3
HIDDEN
 72
    65
 73
     2
 40
2.0
 49
1.2
 49
-0.8
  0
ENDTAB
  0
TABLE
  2
LAYER
 70
   128
  0
LAYER
  2
0
 70
     0
 62
     7
  6
CONTINUOUS
  0
LAYER
  2
2
 70
     0
 62
     7
  6
CONTINUOUS
  0
LAYER
  2
3
 70
     0
 62
     7
  6
CONTINUOUS
  0
LAYER
  2
4
 70
     0
 62
     7
  6
CONTINUOUS
  0
LAYER
  2
5
 70
     0
 62
     7
  6
CONTINUOUS
  0
LAYER
  2
6
 70
     0
 62
     7
  6
CONTINUOUS
  0
LAYER
  2
7
 70
     0
 62
     7
  6
CONTINUOUS
  0
LAYER
  2
8
 70
     0
 62
     7
  6
CONTINUOUS
  0
LAYER
  2
9
 70
     0
 62
     7
  6
CONTINUOUS
  0
LAYER
  2
10
 70
     0
 62
     7
  6
CONTINUOUS
  0
LAYER
  2
11
 70
     0
 62
     7
  6
CONTINUOUS
  0
LAYER
  2
12
 70
     0
 62
     7
  6
CONTINUOUS
  0
LAYER
  2
13
 70
     0
 62
     7
  6
CONTINUOUS
  0
LAYER
  2
14
 70
     0
 62
     7
  6
CONTINUOUS
  0
LAYER
  2
15
 70
     0
 62
     7
  6
CONTINUOUS
  0
LAYER
  2
16
 70
     0
 62
     7
  6
CONTINUOUS
  0
LAYER
  2
17
 70
     0
 62
     7
  6
CONTINUOUS
  0
LAYER
  2
18
 70
     0
 62
     7
  6
CONTINUOUS
  0
LAYER
  2
19
 70
     0
 62
     7
  6
CONTINUOUS
  0
LAYER
  2
20
 70
     0
 62
     7
  6
CONTINUOUS
  0
LAYER
  2
21
 70
     0
 62
     7
  6
CONTINUOUS
  0
LAYER
  2
22
 70
     0
 62
     7
  6
CONTINUOUS
  0
LAYER
  2
23
 70
     0
 62
     7
  6
CONTINUOUS
  0
LAYER
  2
24
 70
     0
 62
     7
  6
CONTINUOUS
  0
LAYER
  2
25
 70
     0
 62
     7
  6
CONTINUOUS
  0
LAYER
  2
26
 70
     0
 62
     7
  6
CONTINUOUS
  0
LAYER
  2
27
 70
     0
 62
     7
  6
CONTINUOUS
  0
LAYER
  2
28
 70
     0
 62
     7
  6
CONTINUOUS
  0
LAYER
  2
29
 70
     0
 62
     7
  6
CONTINUOUS
  0
LAYER
  2
30
 70
     0
 62
     7
  6
CONTINUOUS
  0
LAYER
  2
31
 70
     0
 62
     7
  6
CONTINUOUS
  0
LAYER
  2
32
 70
     0
 62
     7
  6
CONTINUOUS
  0
LAYER
  2
33
 70
     0
 62
     7
  6
CONTINUOUS
  0
LAYER
  2
34
 70
     0
 62
     7
  6
CONTINUOUS
  0
LAYER
  2
35
 70
     0
 62
     7
  6
CONTINUOUS
  0
LAYER
  2
36
 70
     0
 62
     7
  6
CONTINUOUS
  0
LAYER
  2
37
 70
     0
 62
     7
  6
CONTINUOUS
  0
LAYER
  2
38
 70
     0
 62
     7
  6
CONTINUOUS
  0
LAYER
  2
39
 70
     0
 62
     7
  6
CONTINUOUS
  0
LAYER
  2
40
 70
     0
 62
     7
  6
CONTINUOUS
  0
LAYER
  2
41
 70
     0
 62
     7
  6
CONTINUOUS
  0
LAYER
  2
42
 70
     0
 62
     7
  6
CONTINUOUS
  0
LAYER
  2
43
 70
     0
 62
     7
  6
CONTINUOUS
  0
LAYER
  2
44
 70
     0
 62
     7
  6
CONTINUOUS
  0
LAYER
  2
45
 70
     0
 62
     7
  6
CONTINUOUS
  0
LAYER
  2
46
 70
     0
 62
     7
  6
CONTINUOUS
  0
LAYER
  2
47
 70
     0
 62
     7
  6
CONTINUOUS
  0
LAYER
  2
48
 70
     0
 62
     7
  6
CONTINUOUS
  0
LAYER
  2
49
 70
     0
 62
     7
  6
CONTINUOUS
  0
LAYER
  2
50
 70
     0
 62
     7
  6
CONTINUOUS
  0
LAYER
  2
51
 70
     0
 62
     7
  6
CONTINUOUS
  0
LAYER
  2
52
 70
     0
 62
     7
  6
CONTINUOUS
  0
LAYER
  2
53
 70
     0
 62
     7
  6
CONTINUOUS
  0
LAYER
  2
54
 70
     0
 62
     7
  6
CONTINUOUS
  0
LAYER
  2
55
 70
     0
 62
     7
  6
CONTINUOUS
  0
LAYER
  2
56
 70
     0
 62
     7
  6
CONTINUOUS
  0
LAYER
  2
57
 70
     0
 62
     7
  6
CONTINUOUS
  0
LAYER
  2
58
 70
     0
 62
     7
  6
CONTINUOUS
  0
LAYER
  2
59
 70
     0
 62
     7
  6
CONTINUOUS
  0
LAYER
  2
60
 70
     0
 62
     7
  6
CONTINUOUS
  0
LAYER
  2
61
 70
     0
 62
     7
  6
CONTINUOUS
  0
LAYER
  2
62
 70
     0
 62
     7
  6
CONTINUOUS
  0
LAYER
  2
63
 70
     0
 62
     7
  6
CONTINUOUS
  0
LAYER
  2
64
 70
     0
 62
     7
  6
CONTINUOUS
  0
LAYER
  2
65
 70
     0
 62
     7
  6
CONTINUOUS
  0
LAYER
  2
66
 70
     0
 62
     7
  6
CONTINUOUS
  0
LAYER
  2
67
 70
     0
 62
     7
  6
CONTINUOUS
  0
LAYER
  2
68
 70
     0
 62
     7
  6
CONTINUOUS
  0
LAYER
  2
69
 70
     0
 62
     7
  6
CONTINUOUS
  0
LAYER
  2
70
 70
     0
 62
     7
  6
CONTINUOUS
  0
LAYER
  2
71
 70
     0
 62
     7
  6
CONTINUOUS
  0
LAYER
  2
72
 70
     0
 62
     7
  6
CONTINUOUS
  0
LAYER
  2
73
 70
     0
 62
     7
  6
CONTINUOUS
  0
LAYER
  2
74
 70
     0
 62
     7
  6
CONTINUOUS
  0
LAYER
  2
75
 70
     0
 62
     7
  6
CONTINUOUS
  0
LAYER
  2
76
 70
     0
 62
     7
  6
CONTINUOUS
  0
LAYER
  2
77
 70
     0
 62
     7
  6
CONTINUOUS
  0
LAYER
  2
78
 70
     0
 62
     7
  6
CONTINUOUS
  0
LAYER
  2
79
 70
     0
 62
     7
  6
CONTINUOUS
  0
LAYER
  2
80
 70
     0
 62
     7
  6
CONTINUOUS
  0
LAYER
  2
81
 70
     0
 62
     7
  6
CONTINUOUS
  0
LAYER
  2
82
 70
     0
 62
     7
  6
CONTINUOUS
  0
LAYER
  2
83
 70
     0
 62
     7
  6
CONTINUOUS
  0
LAYER
  2
84
 70
     0
 62
     7
  6
CONTINUOUS
  0
LAYER
  2
85
 70
     0
 62
     7
  6
CONTINUOUS
  0
LAYER
  2
86
 70
     0
 62
     7
  6
CONTINUOUS
  0
LAYER
  2
87
 70
     0
 62
     7
  6
CONTINUOUS
  0
LAYER
  2
88
 70
     0
 62
     7
  6
CONTINUOUS
  0
LAYER
  2
89
 70
     0
 62
     7
  6
CONTINUOUS
  0
LAYER
  2
90
 70
     0
 62
     7
  6
CONTINUOUS
  0
LAYER
  2
91
 70
     0
 62
     7
  6
CONTINUOUS
  0
LAYER
  2
92
 70
     0
 62
     7
  6
CONTINUOUS
  0
LAYER
  2
93
 70
     0
 62
     7
  6
CONTINUOUS
  0
LAYER
  2
94
 70
     0
 62
     7
  6
CONTINUOUS
  0
LAYER
  2
95
 70
     0
 62
     7
  6
CONTINUOUS
  0
LAYER
  2
96
 70
     0
 62
     7
  6
CONTINUOUS
  0
LAYER
  2
97
 70
     0
 62
     7
  6
CONTINUOUS
  0
LAYER
  2
98
 70
     0
 62
     7
  6
CONTINUOUS
  0
LAYER
  2
99
 70
     0
 62
     7
  6
CONTINUOUS
  0
LAYER
  2
100
 70
     0
 62
     7
  6
CONTINUOUS
  0
LAYER
  2
101
 70
     0
 62
     7
  6
CONTINUOUS
  0
LAYER
  2
102
 70
     0
 62
     7
  6
CONTINUOUS
  0
LAYER
  2
103
 70
     0
 62
     7
  6
CONTINUOUS
  0
LAYER
  2
104
 70
     0
 62
     7
  6
CONTINUOUS
  0
LAYER
  2
105
 70
     0
 62
     7
  6
CONTINUOUS
  0
LAYER
  2
106
 70
     0
 62
     7
  6
CONTINUOUS
  0
LAYER
  2
107
 70
     0
 62
     7
  6
CONTINUOUS
  0
LAYER
  2
108
 70
     0
 62
     7
  6
CONTINUOUS
  0
LAYER
  2
109
 70
     0
 62
     7
  6
CONTINUOUS
  0
LAYER
  2
110
 70
     0
 62
     7
  6
CONTINUOUS
  0
LAYER
  2
111
 70
     0
 62
     7
  6
CONTINUOUS
  0
LAYER
  2
112
 70
     0
 62
     7
  6
CONTINUOUS
  0
LAYER
  2
113
 70
     0
 62
     7
  6
CONTINUOUS
  0
LAYER
  2
114
 70
     0
 62
     7
  6
CONTINUOUS
  0
LAYER
  2
115
 70
     0
 62
     7
  6
CONTINUOUS
  0
LAYER
  2
116
 70
     0
 62
     7
  6
CONTINUOUS
  0
LAYER
  2
117
 70
     0
 62
     7
  6
CONTINUOUS
  0
LAYER
  2
118
 70
     0
 62
     7
  6
CONTINUOUS
  0
LAYER
  2
119
 70
     0
 62
     7
  6
CONTINUOUS
  0
LAYER
  2
120
 70
     0
 62
     7
  6
CONTINUOUS
  0
LAYER
  2
121
 70
     0
 62
     7
  6
CONTINUOUS
  0
LAYER
  2
122
 70
     0
 62
     7
  6
CONTINUOUS
  0
LAYER
  2
123
 70
     0
 62
     7
  6
CONTINUOUS
  0
LAYER
  2
124
 70
     0
 62
     7
  6
CONTINUOUS
  0
LAYER
  2
125
 70
     0
 62
     7
  6
CONTINUOUS
  0
LAYER
  2
126
 70
     0
 62
     7
  6
CONTINUOUS
  0
LAYER
  2
127
 70
     0
 62
     7
  6
CONTINUOUS
  0
LAYER
  2
128
 70
     0
 62
     7
  6
CONTINUOUS
  0
ENDTAB
  0
TABLE
  2
STYLE
 70
    19
  0
STYLE
  2
STANDARD
 70
     0
 40
0.0
 41
1.0
 50
0.0
 71
     0
 42
0.2
  3
txt.shx
  4
extfont.shx
  0
STYLE
  2
KANJI0
 70
     0
 40
3.5
 41
0.9
 50
0.0
 71
     0
 42
3.5
  3
txt.shx
  4
extfont.shx
  0
STYLE
  2
KANJI1
 70
     0
 40
4.0
 41
0.9
 50
0.0
 71
     0
 42
4.0
  3
txt.shx
  4
extfont.shx
  0
STYLE
  2
KANJI2
 70
     0
 40
3.5
 41
0.45
 50
0.0
 71
     0
 42
3.5
  3
txt.shx
  4
extfont.shx
  0
STYLE
  2
KANJI3
 70
     0
 40
3.5
 41
0.285714286
 50
0.0
 71
     0
 42
3.5
  3
txt.shx
  4
extfont.shx
  0
STYLE
  2
KANJI4
 70
     4
 40
4.0
 41
0.9
 50
0.0
 71
     0
 42
4.0
  3
txt.shx
  4
extfont.shx
  0
STYLE
  2
KANJI5
 70
     0
 40
3.5
 41
0.571428571
 50
0.0
 71
     0
 42
3.5
  3
txt.shx
  4
extfont.shx
  0
STYLE
  2
KANJI6
 70
     0
 40
3.5
 41
0.285714286
 50
0.0
 71
     0
 42
3.5
  3
txt.shx
  4
extfont.shx
  0
STYLE
  2
KANJI7
 70
     0
 40
5.0
 41
0.9
 50
0.0
 71
     0
 42
5.0
  3
txt.shx
  4
extfont.shx
  0
STYLE
  2
KANJI8
 70
     0
 40
2.5
 41
0.8
 50
0.0
 71
     0
 42
2.5
  3
txt.shx
  4
extfont.shx
  0
STYLE
  2
KANJI9
 70
     0
 40
3.0
 41
0.9
 50
0.0
 71
     0
 42
3.0
  3
txt.shx
  4
extfont.shx
  0
STYLE
  2
KANJI10
 70
     0
 40
3.0
 41
0.6
 50
0.0
 71
     0
 42
3.0
  3
txt.shx
  4
extfont.shx
  0
STYLE
  2
KANJI11
 70
     0
 40
2.2
 41
0.909090909
 50
0.0
 71
     0
 42
2.2
  3
txt.shx
  4
extfont.shx
  0
STYLE
  2
KANJI12
 70
     0
 40
2.2
 41
0.909090909
 50
0.0
 71
     0
 42
2.2
  3
txt.shx
  4
extfont.shx
  0
STYLE
  2
KANJI13
 70
     0
 40
1.8
 41
1.0
 50
0.0
 71
     0
 42
1.8
  3
txt.shx
  4
extfont.shx
  0
STYLE
  2
KANJI14
 70
     0
 40
3.0
 41
0.733333333
 50
0.0
 71
     0
 42
3.0
  3
txt.shx
  4
extfont.shx
  0
STYLE
  2
KANJI15
 70
     0
 40
4.2
 41
0.9
 50
0.0
 71
     0
 42
4.2
  3
txt.shx
  4
extfont.shx
  0
STYLE
  2
KANJI16
 70
     0
 40
4.8
 41
0.9
 50
0.0
 71
     0
 42
4.8
  3
txt.shx
  4
extfont.shx
  0
STYLE
  2
KANJI17
 70
     0
 40
5.8
 41
0.827586207
 50
0.0
 71
     0
 42
5.8
  3
txt.shx
  4
extfont.shx
  0
ENDTAB
  0
TABLE
  2
VIEW
 70
     0
  0
ENDTAB
  0
ENDSEC
  0
SECTION
  2
BLOCKS
  0
ENDSEC
  0
SECTION
  2
ENTITIES
  0
LINE
  8
0
  6
CONTINUOUS
 62
     2
 10
220.0
 20
170.0
 30
0.0
 11
130.0
 21
170.0
 31
0.0
  0
LINE
  8
0
  6
CONTINUOUS
 62
     2
 10
130.0
 20
158.0
 30
0.0
 11
220.0
 21
158.0
 31
0.0
  0
LINE
  8
0
  6
CONTINUOUS
 62
     2
 10
140.0
 20
153.0
 30
0.0
 11
220.0
 21
153.0
 31
0.0
  0
LINE
  8
0
  6
CONTINUOUS
 62
     2
 10
220.0
 20
147.0
 30
0.0
 11
140.0
 21
147.0
 31
0.0
  0
LINE
  8
0
  6
CONTINUOUS
 62
     2
 10
140.0
 20
141.0
 30
0.0
 11
220.0
 21
141.0
 31
0.0
  0
LINE
  8
0
  6
CONTINUOUS
 62
     2
 10
220.0
 20
135.0
 30
0.0
 11
140.0
 21
135.0
 31
0.0
  0
LINE
  8
0
  6
CONTINUOUS
 62
     2
 10
140.0
 20
129.0
 30
0.0
 11
220.0
 21
129.0
 31
0.0
  0
LINE
  8
0
  6
CONTINUOUS
 62
     2
 10
220.0
 20
123.0
 30
0.0
 11
140.0
 21
123.0
 31
0.0
  0
LINE
  8
0
  6
CONTINUOUS
 62
     2
 10
140.0
 20
117.0
 30
0.0
 11
220.0
 21
117.0
 31
0.0
  0
LINE
  8
0
  6
CONTINUOUS
 62
     2
 10
160.0
 20
164.0
 30
0.0
 11
130.0
 21
164.0
 31
0.0
  0
TEXT
  8
0
  6
CONTINUOUS
 62
     2
 10
131.675
 20
165.25
 30
0.35
 40
3.5
  1
形名
 50
0.0
 41
0.9
 51
0.0
  7
KANJI0
  0
TEXT
  8
0
  6
CONTINUOUS
 62
     2
 10
131.675
 20
159.25
 30
0.35
 40
3.5
  1
相数
 50
0.0
 41
0.9
 51
0.0
  7
KANJI0
  0
TEXT
  8
0
  6
CONTINUOUS
 62
     2
 10
146.675
 20
159.25
 30
0.35
 40
3.5
  1
３φ
 50
0.0
 41
0.9
 51
0.0
  7
KANJI0
  0
TEXT
  8
0
  6
CONTINUOUS
 62
     2
 10
168.2
 20
162.0
 30
0.4
 40
4.0
  1
屋内用乾式、ヒューズ付
 50
0.0
 41
0.9
 51
0.0
  7
KANJI1
  0
TEXT
  8
0
  6
CONTINUOUS
 62
     2
 10
145.3625
 20
153.75
 30
0.35
 40
3.5
  1
Ｐ－Ｎｏ．
 50
0.0
 41
0.45
 51
0.0
  7
KANJI2
  0
TEXT
  8
0
  6
CONTINUOUS
 62
     2
 10
163.425
 20
153.75
 30
0.35
 40
3.5
  1
１
 50
0.0
 41
0.9
 51
0.0
  7
KANJI0
  0
TEXT
  8
0
  6
CONTINUOUS
 62
     2
 10
173.425
 20
153.75
 30
0.35
 40
3.5
  1
２
 50
0.0
 41
0.9
 51
0.0
  7
KANJI0
  0
TEXT
  8
0
  6
CONTINUOUS
 62
     2
 10
183.425
 20
153.75
 30
0.35
 40
3.5
  1
３
 50
0.0
 41
0.9
 51
0.0
  7
KANJI0
  0
TEXT
  8
0
  6
CONTINUOUS
 62
     2
 10
193.425
 20
153.75
 30
0.35
 40
3.5
  1
４
 50
0.0
 41
0.9
 51
0.0
  7
KANJI0
  0
TEXT
  8
0
  6
CONTINUOUS
 62
     2
 10
203.425
 20
153.75
 30
0.35
 40
3.5
  1
５
 50
0.0
 41
0.9
 51
0.0
  7
KANJI0
  0
TEXT
  8
0
  6
CONTINUOUS
 62
     2
 10
213.425
 20
153.75
 30
0.35
 40
3.5
  1
６
 50
0.0
 41
0.9
 51
0.0
  7
KANJI0
  0
TEXT
  8
0
  6
CONTINUOUS
 62
     2
 10
211.325
 20
148.25
 30
0.35
 40
3.5
  1
４４０Ｖ
 50
0.0
 41
0.45
 51
0.0
  7
KANJI2
  0
TEXT
  8
0
  6
CONTINUOUS
 62
     2
 10
191.325
 20
148.25
 30
0.35
 40
3.5
  1
２２０Ｖ
 50
0.0
 41
0.45
 51
0.0
  7
KANJI2
  0
TEXT
  8
0
  6
CONTINUOUS
 62
     2
 10
181.325
 20
148.25
 30
0.35
 40
3.5
  1
２２０Ｖ
 50
0.0
 41
0.45
 51
0.0
  7
KANJI2
  0
TEXT
  8
0
  6
CONTINUOUS
 62
     2
 10
171.325
 20
148.25
 30
0.35
 40
3.5
  1
１１０Ｖ
 50
0.0
 41
0.45
 51
0.0
  7
KANJI2
  0
TEXT
  8
0
  6
CONTINUOUS
 62
     2
 10
161.325
 20
148.25
 30
0.35
 40
3.5
  1
１１０Ｖ
 50
0.0
 41
0.45
 51
0.0
  7
KANJI2
  0
TEXT
  8
0
  6
CONTINUOUS
 62
     2
 10
143.175
 20
148.25
 30
0.35
 40
3.5
  1
一次電圧
 50
0.0
 41
0.9
 51
0.0
  7
KANJI0
  0
TEXT
  8
0
  6
CONTINUOUS
 62
     2
 10
143.175
 20
142.25
 30
0.35
 40
3.5
  1
二次電圧
 50
0.0
 41
0.9
 51
0.0
  7
KANJI0
  0
TEXT
  8
0
  6
CONTINUOUS
 62
     2
 10
143.175
 20
136.25
 30
0.35
 40
3.5
  1
三次電圧
 50
0.0
 41
0.9
 51
0.0
  7
KANJI0
  0
TEXT
  8
0
  6
CONTINUOUS
 62
     2
 10
143.175
 20
124.25
 30
0.35
 40
3.5
  1
階　　級
 50
0.0
 41
0.9
 51
0.0
  7
KANJI0
  0
TEXT
  8
0
  6
CONTINUOUS
 62
     2
 10
161.325
 20
130.25
 30
0.35
 40
3.5
  1
１１０Ｖ
 50
0.0
 41
0.45
 51
0.0
  7
KANJI2
  0
TEXT
  8
0
  6
CONTINUOUS
 62
     2
 10
171.325
 20
130.25
 30
0.35
 40
3.5
  1
１９０Ｖ
 50
0.0
 41
0.45
 51
0.0
  7
KANJI2
  0
TEXT
  8
0
  6
CONTINUOUS
 62
     2
 10
181.325
 20
130.25
 30
0.35
 40
3.5
  1
１１０Ｖ
 50
0.0
 41
0.45
 51
0.0
  7
KANJI2
  0
TEXT
  8
0
  6
CONTINUOUS
 62
     2
 10
191.325
 20
130.25
 30
0.35
 40
3.5
  1
１９０Ｖ
 50
0.0
 41
0.45
 51
0.0
  7
KANJI2
  0
TEXT
  8
0
  6
CONTINUOUS
 62
     2
 10
201.325
 20
130.25
 30
0.35
 40
3.5
  1
１１０Ｖ
 50
0.0
 41
0.45
 51
0.0
  7
KANJI2
  0
TEXT
  8
0
  6
CONTINUOUS
 62
     2
 10
211.325
 20
130.25
 30
0.35
 40
3.5
  1
１９０Ｖ
 50
0.0
 41
0.45
 51
0.0
  7
KANJI2
  0
TEXT
  8
0
  6
CONTINUOUS
 62
     2
 10
161.325
 20
142.25
 30
0.35
 40
3.5
  1
１１０Ｖ
 50
0.0
 41
0.45
 51
0.0
  7
KANJI2
  0
TEXT
  8
0
  6
CONTINUOUS
 62
     2
 10
171.325
 20
142.25
 30
0.35
 40
3.5
  1
１１０Ｖ
 50
0.0
 41
0.45
 51
0.0
  7
KANJI2
  0
TEXT
  8
0
  6
CONTINUOUS
 62
     2
 10
181.325
 20
142.25
 30
0.35
 40
3.5
  1
１１０Ｖ
 50
0.0
 41
0.45
 51
0.0
  7
KANJI2
  0
TEXT
  8
0
  6
CONTINUOUS
 62
     2
 10
191.325
 20
142.25
 30
0.35
 40
3.5
  1
１１０Ｖ
 50
0.0
 41
0.45
 51
0.0
  7
KANJI2
  0
TEXT
  8
0
  6
CONTINUOUS
 62
     2
 10
201.325
 20
142.25
 30
0.35
 40
3.5
  1
１１０Ｖ
 50
0.0
 41
0.45
 51
0.0
  7
KANJI2
  0
TEXT
  8
0
  6
CONTINUOUS
 62
     2
 10
211.325
 20
142.25
 30
0.35
 40
3.5
  1
１１０Ｖ
 50
0.0
 41
0.45
 51
0.0
  7
KANJI2
  0
TEXT
  8
0
  6
CONTINUOUS
 62
     2
 10
171.25
 20
136.25
 30
0.3
 40
3.5
  1
１９０／３Ｖ
 50
0.0
 41
0.285714286
 51
0.0
  7
KANJI3
  0
TEXT
  8
0
  6
CONTINUOUS
 62
     2
 10
181.25
 20
136.25
 30
0.3
 40
3.5
  1
１１０／３Ｖ
 50
0.0
 41
0.285714286
 51
0.0
  7
KANJI3
  0
TEXT
  8
0
  6
CONTINUOUS
 62
     2
 10
191.25
 20
136.25
 30
0.3
 40
3.5
  1
１９０／３Ｖ
 50
0.0
 41
0.285714286
 51
0.0
  7
KANJI3
  0
TEXT
  8
0
  6
CONTINUOUS
 62
     2
 10
201.25
 20
136.25
 30
0.3
 40
3.5
  1
１１０／３Ｖ
 50
0.0
 41
0.285714286
 51
0.0
  7
KANJI3
  0
TEXT
  8
0
  6
CONTINUOUS
 62
     2
 10
211.25
 20
136.25
 30
0.3
 40
3.5
  1
１９０／３Ｖ
 50
0.0
 41
0.285714286
 51
0.0
  7
KANJI3
  0
LINE
  8
0
  6
CONTINUOUS
 62
     2
 10
130.0
 20
105.0
 30
0.0
 11
220.0
 21
105.0
 31
0.0
  0
LINE
  8
0
  6
CONTINUOUS
 62
     2
 10
140.0
 20
105.0
 30
0.0
 11
140.0
 21
170.0
 31
0.0
  0
TEXT
  8
0
  6
CONTINUOUS
 62
     2
 10
143.0
 20
106.25
 30
0.35
 40
3.5
  1
周　波　数
 50
0.0
 41
0.9
 51
0.0
  7
KANJI0
  0
TEXT
  8
0
  6
CONTINUOUS
 62
     2
 10
177.925
 20
106.25
 30
0.35
 40
3.5
  1
５０／６０Ｈｚ
 50
0.0
 41
0.9
 51
0.0
  7
KANJI0
  0
LINE
  8
0
  6
CONTINUOUS
 62
     2
 10
140.0
 20
111.0
 30
0.0
 11
220.0
 21
111.0
 31
0.0
  0
LINE
  8
0
  6
CONTINUOUS
 62
     2
 10
220.0
 20
117.0
 30
0.0
 11
140.0
 21
117.0
 31
0.0
  0
LINE
  8
0
  6
CONTINUOUS
 62
     2
 10
140.0
 20
111.0
 30
0.0
 11
220.0
 21
111.0
 31
0.0
  0
LINE
  8
0
  6
CONTINUOUS
 62
     2
 10
170.0
 20
111.0
 30
0.0
 11
170.0
 21
158.0
 31
0.0
  0
LINE
  8
0
  6
CONTINUOUS
 62
     2
 10
180.0
 20
158.0
 30
0.0
 11
180.0
 21
111.0
 31
0.0
  0
LINE
  8
0
  6
CONTINUOUS
 62
     2
 10
190.0
 20
111.0
 30
0.0
 11
190.0
 21
158.0
 31
0.0
  0
LINE
  8
0
  6
CONTINUOUS
 62
     2
 10
200.0
 20
158.0
 30
0.0
 11
200.0
 21
111.0
 31
0.0
  0
LINE
  8
0
  6
CONTINUOUS
 62
     2
 10
210.0
 20
111.0
 30
0.0
 11
210.0
 21
158.0
 31
0.0
  0
TEXT
  8
0
  6
CONTINUOUS
 62
     2
 10
135.0
 20
146.7
 30
0.4
 40
4.0
  1
定　　　　　格
 50
0.0
 41
0.9
 51
0.0
  7
KANJI4
  0
TEXT
  8
0
  6
CONTINUOUS
 62
     2
 10
143.25
 20
130.25
 30
0.3
 40
3.5
  1
零相三次電圧
 50
0.0
 41
0.571428571
 51
0.0
  7
KANJI5
  0
TEXT
  8
0
  6
CONTINUOUS
 62
     2
 10
143.25
 20
118.25
 30
0.3
 40
3.5
  1
定格二次負担
 50
0.0
 41
0.571428571
 51
0.0
  7
KANJI5
  0
TEXT
  8
0
  6
CONTINUOUS
 62
     2
 10
143.25
 20
112.25
 30
0.3
 40
3.5
  1
定格三次負担
 50
0.0
 41
0.571428571
 51
0.0
  7
KANJI5
  0
TEXT
  8
0
  6
CONTINUOUS
 62
     2
 10
161.25
 20
136.25
 30
0.3
 40
3.5
  1
１１０／３Ｖ
 50
0.0
 41
0.285714286
 51
0.0
  7
KANJI3
  0
TEXT
  8
0
  6
CONTINUOUS
 62
     2
 10
161.25
 20
124.25
 30
0.3
 40
3.5
  1
１．０／３Ｇ
 50
0.0
 41
0.285714286
 51
0.0
  7
KANJI3
  0
TEXT
  8
0
  6
CONTINUOUS
 62
     2
 10
161.5625
 20
118.25
 30
0.175
 40
3.5
  1
３Ｘ７５ＶＡ
 50
0.0
 41
0.285714286
 51
0.0
  7
KANJI6
  0
TEXT
  8
0
  6
CONTINUOUS
 62
     2
 10
161.5625
 20
112.25
 30
0.175
 40
3.5
  1
３Ｘ５０ＶＡ
 50
0.0
 41
0.285714286
 51
0.0
  7
KANJI6
  0
TEXT
  8
0
  6
CONTINUOUS
 62
     2
 10
200.975
 20
112.25
 30
0.175
 40
3.5
  1
３Ｘ１００ＶＡ
 50
0.0
 41
0.285714286
 51
0.0
  7
KANJI6
  0
TEXT
  8
0
  6
CONTINUOUS
 62
     2
 10
200.975
 20
118.25
 30
0.175
 40
3.5
  1
３Ｘ１００ＶＡ
 50
0.0
 41
0.285714286
 51
0.0
  7
KANJI6
  0
TEXT
  8
0
  6
CONTINUOUS
 62
     2
 10
138.175
 20
100.25
 30
0.35
 40
3.5
  1
規　　格
 50
0.0
 41
0.9
 51
0.0
  7
KANJI0
  0
LINE
  8
0
  6
CONTINUOUS
 62
     2
 10
220.0
 20
99.0
 30
0.0
 11
130.0
 21
99.0
 31
0.0
  0
TEXT
  8
0
  6
CONTINUOUS
 62
     2
 10
138.175
 20
94.25
 30
0.35
 40
3.5
  1
質　　量
 50
0.0
 41
0.9
 51
0.0
  7
KANJI0
  0
LINE
  8
0
  6
CONTINUOUS
 62
     2
 10
130.0
 20
93.0
 30
0.0
 11
220.0
 21
93.0
 31
0.0
  0
LINE
  8
0
  6
CONTINUOUS
 62
     2
 10
130.0
 20
75.0
 30
0.0
 11
220.0
 21
75.0
 31
0.0
  0
LINE
  8
0
  6
CONTINUOUS
 62
     2
 10
160.0
 20
170.0
 30
0.0
 11
160.0
 21
75.0
 31
0.0
  0
TEXT
  8
0
  6
CONTINUOUS
 62
     2
 10
167.75
 20
174.0
 30
0.5
 40
5.0
  1
接地形計器用変圧器
 50
0.0
 41
0.9
 51
0.0
  7
KANJI7
  0
TEXT
  8
0
  6
CONTINUOUS
 62
     2
 10
135.25
 20
171.25
 30
0.5
 40
5.0
  1
モールド
 50
0.0
 41
0.9
 51
0.0
  7
KANJI7
  0
TEXT
  8
0
  6
CONTINUOUS
 62
     2
 10
135.25
 20
176.75
 30
0.5
 40
5.0
  1
エポキシ
 50
0.0
 41
0.9
 51
0.0
  7
KANJI7
  0
LINE
  8
0
  6
CONTINUOUS
 62
     2
 10
130.0
 20
183.0
 30
0.0
 11
220.0
 21
183.0
 31
0.0
  0
LINE
  8
0
  6
CONTINUOUS
 62
     2
 10
130.0
 20
183.0
 30
0.0
 11
130.0
 21
75.0
 31
0.0
  0
LINE
  8
0
  6
CONTINUOUS
 62
     2
 10
220.0
 20
183.0
 30
0.0
 11
220.0
 21
75.0
 31
0.0
  0
TEXT
  8
0
  6
CONTINUOUS
 62
     2
 10
201.325
 20
148.25
 30
0.35
 40
3.5
  1
４４０Ｖ
 50
0.0
 41
0.45
 51
0.0
  7
KANJI2
  0
TEXT
  8
0
  6
CONTINUOUS
 62
     2
 10
142.475
 20
165.25
 30
0.35
 40
3.5
  1
ＰＭｅ－１ＤＧａ
 50
0.0
 41
0.45
 51
0.0
  7
KANJI2
  0
TEXT
  8
0
  6
CONTINUOUS
 62
     2
 10
171.25
 20
124.25
 30
0.3
 40
3.5
  1
１．０／３Ｇ
 50
0.0
 41
0.285714286
 51
0.0
  7
KANJI3
  0
TEXT
  8
0
  6
CONTINUOUS
 62
     2
 10
181.25
 20
124.25
 30
0.3
 40
3.5
  1
１．０／３Ｇ
 50
0.0
 41
0.285714286
 51
0.0
  7
KANJI3
  0
TEXT
  8
0
  6
CONTINUOUS
 62
     2
 10
191.25
 20
124.25
 30
0.3
 40
3.5
  1
１．０／３Ｇ
 50
0.0
 41
0.285714286
 51
0.0
  7
KANJI3
  0
TEXT
  8
0
  6
CONTINUOUS
 62
     2
 10
201.25
 20
124.25
 30
0.3
 40
3.5
  1
１．０／３Ｇ
 50
0.0
 41
0.285714286
 51
0.0
  7
KANJI3
  0
TEXT
  8
0
  6
CONTINUOUS
 62
     2
 10
211.25
 20
124.25
 30
0.3
 40
3.5
  1
１．０／３Ｇ
 50
0.0
 41
0.285714286
 51
0.0
  7
KANJI3
  0
TEXT
  8
0
  6
CONTINUOUS
 62
     2
 10
171.5625
 20
118.25
 30
0.175
 40
3.5
  1
３Ｘ７５ＶＡ
 50
0.0
 41
0.285714286
 51
0.0
  7
KANJI6
  0
TEXT
  8
0
  6
CONTINUOUS
 62
     2
 10
181.5625
 20
118.25
 30
0.175
 40
3.5
  1
３Ｘ７５ＶＡ
 50
0.0
 41
0.285714286
 51
0.0
  7
KANJI6
  0
TEXT
  8
0
  6
CONTINUOUS
 62
     2
 10
191.5625
 20
118.25
 30
0.175
 40
3.5
  1
３Ｘ７５ＶＡ
 50
0.0
 41
0.285714286
 51
0.0
  7
KANJI6
  0
TEXT
  8
0
  6
CONTINUOUS
 62
     2
 10
171.5625
 20
112.25
 30
0.175
 40
3.5
  1
３Ｘ５０ＶＡ
 50
0.0
 41
0.285714286
 51
0.0
  7
KANJI6
  0
TEXT
  8
0
  6
CONTINUOUS
 62
     2
 10
181.5625
 20
112.25
 30
0.175
 40
3.5
  1
３Ｘ５０ＶＡ
 50
0.0
 41
0.285714286
 51
0.0
  7
KANJI6
  0
TEXT
  8
0
  6
CONTINUOUS
 62
     2
 10
191.5625
 20
112.25
 30
0.175
 40
3.5
  1
３Ｘ５０ＶＡ
 50
0.0
 41
0.285714286
 51
0.0
  7
KANJI6
  0
TEXT
  8
0
  6
CONTINUOUS
 62
     2
 10
210.975
 20
118.25
 30
0.175
 40
3.5
  1
３Ｘ１００ＶＡ
 50
0.0
 41
0.285714286
 51
0.0
  7
KANJI6
  0
TEXT
  8
0
  6
CONTINUOUS
 62
     2
 10
210.975
 20
112.25
 30
0.175
 40
3.5
  1
３Ｘ１００ＶＡ
 50
0.0
 41
0.285714286
 51
0.0
  7
KANJI6
  0
LINE
  8
0
  6
CONTINUOUS
 62
     2
 10
145.0
 20
93.0
 30
0.0
 11
145.0
 21
81.0
 31
0.0
  0
TEXT
  8
0
  6
CONTINUOUS
 62
     2
 10
177.925
 20
88.25
 30
0.35
 40
3.5
  1
４ｋＶ／１分間
 50
0.0
 41
0.9
 51
0.0
  7
KANJI0
  0
TEXT
  8
0
  6
CONTINUOUS
 62
     2
 10
177.925
 20
82.25
 30
0.35
 40
3.5
  1
２ｋＶ／１分間
 50
0.0
 41
0.9
 51
0.0
  7
KANJI0
  0
TEXT
  8
0
  6
CONTINUOUS
 62
     2
 10
146.95
 20
88.25
 30
0.3
 40
3.5
  1
Ｐ－Ｓ，Ｔ，Ｅ間
 50
0.0
 41
0.571428571
 51
0.0
  7
KANJI5
  0
TEXT
  8
0
  6
CONTINUOUS
 62
     2
 10
145.4
 20
84.15
 30
0.15
 40
2.5
  1
Ｓ－Ｔ，Ｅ間および
 50
0.0
 41
0.8
 51
0.0
  7
KANJI8
  0
TEXT
  8
0
  6
CONTINUOUS
 62
     2
 10
148.625
 20
81.25
 30
0.15
 40
2.5
  1
Ｔ－Ｓ，Ｅ間
 50
0.0
 41
0.8
 51
0.0
  7
KANJI8
  0
TEXT
  8
0
  6
CONTINUOUS
 62
     2
 10
132.425
 20
85.25
 30
0.35
 40
3.5
  1
耐電圧
 50
0.0
 41
0.9
 51
0.0
  7
KANJI0
  0
LINE
  8
0
  6
CONTINUOUS
 62
     2
 10
220.0
 20
81.0
 30
0.0
 11
130.0
 21
81.0
 31
0.0
  0
LINE
  8
0
  6
CONTINUOUS
 62
     2
 10
220.0
 20
87.0
 30
0.0
 11
145.0
 21
87.0
 31
0.0
  0
TEXT
  8
0
  6
CONTINUOUS
 62
     2
 10
179.675
 20
76.25
 30
0.35
 40
3.5
  1
７ｋＶ×５回
 50
0.0
 41
0.9
 51
0.0
  7
KANJI0
  0
TEXT
  8
0
  6
CONTINUOUS
 62
     2
 10
134.25
 20
76.25
 30
0.3
 40
3.5
  1
インハ゜ルス（Ｐ－Ｓ，Ｔ，Ｅ間）
 50
0.0
 41
0.571428571
 51
0.0
  7
KANJI5
  0
ARC
  8
0
  6
CONTINUOUS
 62
     2
 10
18.5
 20
31.5
 30
0.0
 40
0.5
 50
180.0
 51
270.0
  0
LINE
  8
0
  6
CONTINUOUS
 62
     2
 10
101.5
 20
31.0
 30
0.0
 11
18.5
 21
31.0
 31
0.0
  0
ARC
  8
0
  6
CONTINUOUS
 62
     2
 10
101.5
 20
31.5
 30
0.0
 40
0.5
 50
270.0
 51
0.0
  0
ARC
  8
0
  6
CONTINUOUS
 62
     2
 10
102.0
 20
31.0
 30
0.0
 40
1.0
 50
270.0
 51
0.0
  0
LINE
  8
0
  6
CONTINUOUS
 62
     2
 10
102.0
 20
30.0
 30
0.0
 11
18.0
 21
30.0
 31
0.0
  0
ARC
  8
0
  6
CONTINUOUS
 62
     2
 10
18.0
 20
31.0
 30
0.0
 40
1.0
 50
180.0
 51
270.0
  0
LINE
  8
0
  6
CONTINUOUS
 62
     2
 10
61.05
 20
30.0
 30
0.0
 11
61.05
 21
31.0
 31
0.0
  0
LINE
  8
0
  6
CONTINUOUS
 62
     2
 10
58.95
 20
30.0
 30
0.0
 11
58.95
 21
31.0
 31
0.0
  0
LINE
  8
0
  6
CONTINUOUS
 62
     2
 10
91.05
 20
30.0
 30
0.0
 11
91.05
 21
31.0
 31
0.0
  0
LINE
  8
0
  6
CONTINUOUS
 62
     2
 10
88.95
 20
30.0
 30
0.0
 11
88.95
 21
31.0
 31
0.0
  0
LINE
  8
0
  6
CONTINUOUS
 62
     2
 10
31.05
 20
30.0
 30
0.0
 11
31.05
 21
31.0
 31
0.0
  0
LINE
  8
0
  6
CONTINUOUS
 62
     2
 10
28.95
 20
30.0
 30
0.0
 11
28.95
 21
31.0
 31
0.0
  0
LINE
  8
0
  6
LTYPE1
 62
     2
 10
90.0
 20
30.0
 30
0.0
 11
90.0
 21
33.0
 31
0.0
  0
LINE
  8
0
  6
LTYPE1
 62
     2
 10
30.0
 20
30.0
 30
0.0
 11
30.0
 21
33.0
 31
0.0
  0
ARC
  8
0
  6
CONTINUOUS
 62
     2
 10
52.0
 20
57.0
 30
0.0
 40
3.0
 50
90.0
 51
180.0
  0
LINE
  8
0
  6
CONTINUOUS
 62
     2
 10
68.0
 20
60.0
 30
0.0
 11
52.0
 21
60.0
 31
0.0
  0
ARC
  8
0
  6
CONTINUOUS
 62
     2
 10
68.0
 20
57.0
 30
0.0
 40
3.0
 50
0.0
 51
90.0
  0
ARC
  8
0
  6
CONTINUOUS
 62
     2
 10
51.7
 20
55.7
 30
0.0
 40
1.0
 50
90.0
 51
270.0
  0
LINE
  8
0
  6
CONTINUOUS
 62
     2
 10
56.3
 20
56.7
 30
0.0
 11
51.7
 21
56.7
 31
0.0
  0
LINE
  8
0
  6
CONTINUOUS
 62
     2
 10
56.3
 20
57.4
 30
0.0
 11
51.7
 21
57.4
 31
0.0
  0
CIRCLE
  8
0
  6
CONTINUOUS
 62
     2
 10
51.7
 20
55.7
 30
0.0
 40
0.75
  0
CIRCLE
  8
0
  6
CONTINUOUS
 62
     2
 10
56.3
 20
55.7
 30
0.0
 40
0.75
  0
LINE
  8
0
  6
LTYPE1
 62
     2
 10
49.5
 20
55.7
 30
0.0
 11
58.5
 21
55.7
 31
0.0
  0
LINE
  8
0
  6
LTYPE1
 62
     2
 10
51.7
 20
57.9
 30
0.0
 11
51.7
 21
53.5
 31
0.0
  0
LINE
  8
0
  6
LTYPE1
 62
     2
 10
56.3
 20
57.9
 30
0.0
 11
56.3
 21
53.5
 31
0.0
  0
ARC
  8
0
  6
CONTINUOUS
 62
     2
 10
68.3
 20
55.7
 30
0.0
 40
1.0
 50
270.0
 51
90.0
  0
LINE
  8
0
  6
CONTINUOUS
 62
     2
 10
63.7
 20
56.7
 30
0.0
 11
68.3
 21
56.7
 31
0.0
  0
LINE
  8
0
  6
CONTINUOUS
 62
     2
 10
63.7
 20
57.4
 30
0.0
 11
68.3
 21
57.4
 31
0.0
  0
CIRCLE
  8
0
  6
CONTINUOUS
 62
     2
 10
68.3
 20
55.7
 30
0.0
 40
0.75
  0
CIRCLE
  8
0
  6
CONTINUOUS
 62
     2
 10
63.7
 20
55.7
 30
0.0
 40
0.75
  0
LINE
  8
0
  6
LTYPE1
 62
     2
 10
70.5
 20
55.7
 30
0.0
 11
61.5
 21
55.7
 31
0.0
  0
LINE
  8
0
  6
LTYPE1
 62
     2
 10
68.3
 20
57.9
 30
0.0
 11
68.3
 21
53.5
 31
0.0
  0
LINE
  8
0
  6
LTYPE1
 62
     2
 10
63.7
 20
57.9
 30
0.0
 11
63.7
 21
53.5
 31
0.0
  0
LINE
  8
0
  6
CONTINUOUS
 62
     2
 10
26.5
 20
53.0
 30
0.0
 11
26.5
 21
57.0
 31
0.0
  0
ARC
  8
0
  6
CONTINUOUS
 62
     2
 10
29.5
 20
57.0
 30
0.0
 40
3.0
 50
90.0
 51
180.0
  0
LINE
  8
0
  6
CONTINUOUS
 62
     2
 10
45.5
 20
60.0
 30
0.0
 11
29.5
 21
60.0
 31
0.0
  0
ARC
  8
0
  6
CONTINUOUS
 62
     2
 10
45.5
 20
57.0
 30
0.0
 40
3.0
 50
0.0
 51
90.0
  0
ARC
  8
0
  6
CONTINUOUS
 62
     2
 10
29.2
 20
55.7
 30
0.0
 40
1.0
 50
90.0
 51
270.0
  0
ARC
  8
0
  6
CONTINUOUS
 62
     2
 10
29.2
 20
55.7
 30
0.0
 40
1.7
 50
90.0
 51
270.0
  0
LINE
  8
0
  6
CONTINUOUS
 62
     2
 10
33.8
 20
54.0
 30
0.0
 11
29.2
 21
54.0
 31
0.0
  0
LINE
  8
0
  6
CONTINUOUS
 62
     2
 10
33.8
 20
54.7
 30
0.0
 11
29.2
 21
54.7
 31
0.0
  0
LINE
  8
0
  6
CONTINUOUS
 62
     2
 10
33.8
 20
56.7
 30
0.0
 11
29.2
 21
56.7
 31
0.0
  0
LINE
  8
0
  6
CONTINUOUS
 62
     2
 10
33.8
 20
57.4
 30
0.0
 11
29.2
 21
57.4
 31
0.0
  0
CIRCLE
  8
0
  6
CONTINUOUS
 62
     2
 10
29.2
 20
55.7
 30
0.0
 40
0.75
  0
CIRCLE
  8
0
  6
CONTINUOUS
 62
     2
 10
33.8
 20
55.7
 30
0.0
 40
0.75
  0
LINE
  8
0
  6
LTYPE1
 62
     2
 10
27.0
 20
55.7
 30
0.0
 11
36.0
 21
55.7
 31
0.0
  0
LINE
  8
0
  6
LTYPE1
 62
     2
 10
29.2
 20
57.9
 30
0.0
 11
29.2
 21
53.5
 31
0.0
  0
LINE
  8
0
  6
LTYPE1
 62
     2
 10
33.8
 20
57.9
 30
0.0
 11
33.8
 21
53.5
 31
0.0
  0
ARC
  8
0
  6
CONTINUOUS
 62
     2
 10
41.2
 20
55.7
 30
0.0
 40
1.0
 50
90.0
 51
270.0
  0
LINE
  8
0
  6
CONTINUOUS
 62
     2
 10
41.2
 20
54.7
 30
0.0
 11
45.8
 21
54.7
 31
0.0
  0
LINE
  8
0
  6
CONTINUOUS
 62
     2
 10
41.2
 20
56.7
 30
0.0
 11
45.8
 21
56.7
 31
0.0
  0
LINE
  8
0
  6
CONTINUOUS
 62
     2
 10
41.2
 20
57.4
 30
0.0
 11
45.8
 21
57.4
 31
0.0
  0
CIRCLE
  8
0
  6
CONTINUOUS
 62
     2
 10
45.8
 20
55.7
 30
0.0
 40
0.75
  0
CIRCLE
  8
0
  6
CONTINUOUS
 62
     2
 10
41.2
 20
55.7
 30
0.0
 40
0.75
  0
LINE
  8
0
  6
LTYPE1
 62
     2
 10
48.0
 20
55.7
 30
0.0
 11
39.0
 21
55.7
 31
0.0
  0
LINE
  8
0
  6
LTYPE1
 62
     2
 10
45.8
 20
57.9
 30
0.0
 11
45.8
 21
53.5
 31
0.0
  0
LINE
  8
0
  6
LTYPE1
 62
     2
 10
41.2
 20
57.9
 30
0.0
 11
41.2
 21
53.5
 31
0.0
  0
ARC
  8
0
  6
CONTINUOUS
 62
     2
 10
74.5
 20
57.0
 30
0.0
 40
3.0
 50
90.0
 51
180.0
  0
LINE
  8
0
  6
CONTINUOUS
 62
     2
 10
93.5
 20
53.0
 30
0.0
 11
93.5
 21
57.0
 31
0.0
  0
LINE
  8
0
  6
CONTINUOUS
 62
     2
 10
90.5
 20
60.0
 30
0.0
 11
74.5
 21
60.0
 31
0.0
  0
ARC
  8
0
  6
CONTINUOUS
 62
     2
 10
90.5
 20
57.0
 30
0.0
 40
3.0
 50
0.0
 51
90.0
  0
ARC
  8
0
  6
CONTINUOUS
 62
     2
 10
78.8
 20
55.7
 30
0.0
 40
1.0
 50
270.0
 51
90.0
  0
LINE
  8
0
  6
CONTINUOUS
 62
     2
 10
78.8
 20
54.7
 30
0.0
 11
74.2
 21
54.7
 31
0.0
  0
LINE
  8
0
  6
CONTINUOUS
 62
     2
 10
78.8
 20
56.7
 30
0.0
 11
74.2
 21
56.7
 31
0.0
  0
LINE
  8
0
  6
CONTINUOUS
 62
     2
 10
78.8
 20
57.4
 30
0.0
 11
74.2
 21
57.4
 31
0.0
  0
CIRCLE
  8
0
  6
CONTINUOUS
 62
     2
 10
74.2
 20
55.7
 30
0.0
 40
0.75
  0
CIRCLE
  8
0
  6
CONTINUOUS
 62
     2
 10
78.8
 20
55.7
 30
0.0
 40
0.75
  0
LINE
  8
0
  6
LTYPE1
 62
     2
 10
72.0
 20
55.7
 30
0.0
 11
81.0
 21
55.7
 31
0.0
  0
LINE
  8
0
  6
LTYPE1
 62
     2
 10
74.2
 20
57.9
 30
0.0
 11
74.2
 21
53.5
 31
0.0
  0
LINE
  8
0
  6
LTYPE1
 62
     2
 10
78.8
 20
57.9
 30
0.0
 11
78.8
 21
53.5
 31
0.0
  0
ARC
  8
0
  6
CONTINUOUS
 62
     2
 10
90.8
 20
55.7
 30
0.0
 40
1.0
 50
270.0
 51
90.0
  0
ARC
  8
0
  6
CONTINUOUS
 62
     2
 10
90.8
 20
55.7
 30
0.0
 40
1.7
 50
270.0
 51
90.0
  0
LINE
  8
0
  6
CONTINUOUS
 62
     2
 10
86.2
 20
54.0
 30
0.0
 11
90.8
 21
54.0
 31
0.0
  0
LINE
  8
0
  6
CONTINUOUS
 62
     2
 10
86.2
 20
54.7
 30
0.0
 11
90.8
 21
54.7
 31
0.0
  0
LINE
  8
0
  6
CONTINUOUS
 62
     2
 10
86.2
 20
56.7
 30
0.0
 11
90.8
 21
56.7
 31
0.0
  0
LINE
  8
0
  6
CONTINUOUS
 62
     2
 10
86.2
 20
57.4
 30
0.0
 11
90.8
 21
57.4
 31
0.0
  0
CIRCLE
  8
0
  6
CONTINUOUS
 62
     2
 10
90.8
 20
55.7
 30
0.0
 40
0.75
  0
CIRCLE
  8
0
  6
CONTINUOUS
 62
     2
 10
86.2
 20
55.7
 30
0.0
 40
0.75
  0
LINE
  8
0
  6
LTYPE1
 62
     2
 10
93.0
 20
55.7
 30
0.0
 11
84.0
 21
55.7
 31
0.0
  0
LINE
  8
0
  6
LTYPE1
 62
     2
 10
90.8
 20
57.9
 30
0.0
 11
90.8
 21
53.5
 31
0.0
  0
LINE
  8
0
  6
LTYPE1
 62
     2
 10
86.2
 20
57.9
 30
0.0
 11
86.2
 21
53.5
 31
0.0
  0
LINE
  8
15
  6
LTYPE1
 62
     2
 10
54.0
 20
68.437746109
 30
0.0
 11
54.0
 21
58.734014626
 31
0.0
  0
LINE
  8
0
  6
LTYPE1
 62
     2
 10
57.375210951
 20
64.5
 30
0.0
 11
50.624789049
 21
64.5
 31
0.0
  0
CIRCLE
  8
0
  6
CONTINUOUS
 62
     2
 10
54.0
 20
64.5
 30
0.0
 40
1.75
  0
ARC
  8
14
  6
CONTINUOUS
 62
     2
 10
54.0
 20
64.5
 30
0.0
 40
2.250140634
 50
137.753517756
 51
232.584666
  0
ARC
  8
14
  6
CONTINUOUS
 62
     2
 10
54.0
 20
64.5
 30
0.0
 40
2.250140634
 50
307.415332701
 51
42.246482244
  0
LINE
  8
14
  6
CONTINUOUS
 62
     2
 10
55.412564489
 20
67.0
 30
0.0
 11
55.895527289
 21
66.870590054
 31
0.0
  0
LINE
  8
0
  6
CONTINUOUS
 62
     2
 10
55.665687771
 20
66.01281761
 30
0.0
 11
55.895527289
 21
66.870590054
 31
0.0
  0
LINE
  8
14
  6
CONTINUOUS
 62
     2
 10
55.10606784
 20
65.856139349
 30
0.0
 11
55.412564489
 21
67.0
 31
0.0
  0
LINE
  8
14
  6
CONTINUOUS
 62
     2
 10
52.587435511
 20
67.0
 30
0.0
 11
52.104472711
 21
66.870590054
 31
0.0
  0
LINE
  8
0
  6
CONTINUOUS
 62
     2
 10
52.334312229
 20
66.01281761
 30
0.0
 11
52.104472711
 21
66.870590054
 31
0.0
  0
LINE
  8
14
  6
CONTINUOUS
 62
     2
 10
52.89393216
 20
65.856139349
 30
0.0
 11
52.587435511
 21
67.0
 31
0.0
  0
LINE
  8
15
  6
LTYPE1
 62
     2
 10
31.5
 20
68.437746109
 30
0.0
 11
31.5
 21
58.734014626
 31
0.0
  0
LINE
  8
0
  6
LTYPE1
 62
     2
 10
34.875210951
 20
64.5
 30
0.0
 11
28.124789049
 21
64.5
 31
0.0
  0
CIRCLE
  8
0
  6
CONTINUOUS
 62
     2
 10
31.5
 20
64.5
 30
0.0
 40
1.75
  0
ARC
  8
14
  6
CONTINUOUS
 62
     2
 10
31.5
 20
64.5
 30
0.0
 40
2.250140634
 50
137.753517756
 51
232.584666
  0
ARC
  8
14
  6
CONTINUOUS
 62
     2
 10
31.5
 20
64.5
 30
0.0
 40
2.250140634
 50
307.415332701
 51
42.246482244
  0
LINE
  8
14
  6
CONTINUOUS
 62
     2
 10
32.912564489
 20
67.0
 30
0.0
 11
33.395527289
 21
66.870590054
 31
0.0
  0
LINE
  8
0
  6
CONTINUOUS
 62
     2
 10
33.165687771
 20
66.01281761
 30
0.0
 11
33.395527289
 21
66.870590054
 31
0.0
  0
LINE
  8
14
  6
CONTINUOUS
 62
     2
 10
32.60606784
 20
65.856139349
 30
0.0
 11
32.912564489
 21
67.0
 31
0.0
  0
LINE
  8
14
  6
CONTINUOUS
 62
     2
 10
30.087435511
 20
67.0
 30
0.0
 11
29.604472711
 21
66.870590054
 31
0.0
  0
LINE
  8
0
  6
CONTINUOUS
 62
     2
 10
29.834312229
 20
66.01281761
 30
0.0
 11
29.604472711
 21
66.870590054
 31
0.0
  0
LINE
  8
14
  6
CONTINUOUS
 62
     2
 10
30.39393216
 20
65.856139349
 30
0.0
 11
30.087435511
 21
67.0
 31
0.0
  0
LINE
  8
14
  6
CONTINUOUS
 62
     2
 10
32.867159366
 20
62.712821178
 30
0.0
 11
33.594057609
 21
60.0
 31
0.0
  0
LINE
  8
14
  6
CONTINUOUS
 62
     2
 10
29.405942308
 20
60.0
 30
0.0
 11
30.132840709
 21
62.71282102
 31
0.0
  0
LINE
  8
15
  6
LTYPE1
 62
     2
 10
76.5
 20
68.437746109
 30
0.0
 11
76.5
 21
58.734014626
 31
0.0
  0
LINE
  8
0
  6
LTYPE1
 62
     2
 10
79.875210951
 20
64.5
 30
0.0
 11
73.124789049
 21
64.5
 31
0.0
  0
CIRCLE
  8
0
  6
CONTINUOUS
 62
     2
 10
76.5
 20
64.5
 30
0.0
 40
1.75
  0
ARC
  8
14
  6
CONTINUOUS
 62
     2
 10
76.5
 20
64.5
 30
0.0
 40
2.250140634
 50
137.753517756
 51
232.584666
  0
ARC
  8
14
  6
CONTINUOUS
 62
     2
 10
76.5
 20
64.5
 30
0.0
 40
2.250140634
 50
307.415332701
 51
42.246482244
  0
LINE
  8
14
  6
CONTINUOUS
 62
     2
 10
77.912564489
 20
67.0
 30
0.0
 11
78.395527289
 21
66.870590054
 31
0.0
  0
LINE
  8
0
  6
CONTINUOUS
 62
     2
 10
78.165687771
 20
66.01281761
 30
0.0
 11
78.395527289
 21
66.870590054
 31
0.0
  0
LINE
  8
14
  6
CONTINUOUS
 62
     2
 10
77.60606784
 20
65.856139349
 30
0.0
 11
77.912564489
 21
67.0
 31
0.0
  0
LINE
  8
14
  6
CONTINUOUS
 62
     2
 10
75.087435511
 20
67.0
 30
0.0
 11
74.604472711
 21
66.870590054
 31
0.0
  0
LINE
  8
0
  6
CONTINUOUS
 62
     2
 10
74.834312229
 20
66.01281761
 30
0.0
 11
74.604472711
 21
66.870590054
 31
0.0
  0
LINE
  8
14
  6
CONTINUOUS
 62
     2
 10
75.39393216
 20
65.856139349
 30
0.0
 11
75.087435511
 21
67.0
 31
0.0
  0
LINE
  8
0
  6
CONTINUOUS
 62
     2
 10
33.138543982
 20
61.7
 30
0.0
 11
29.86145606
 21
61.7
 31
0.0
  0
LINE
  8
15
  6
LTYPE1
 62
     2
 10
43.5
 20
64.5
 30
0.0
 11
43.5
 21
58.734014626
 31
0.0
  0
LINE
  8
15
  6
LTYPE1
 62
     2
 10
66.0
 20
64.5
 30
0.0
 11
66.0
 21
58.734014626
 31
0.0
  0
LINE
  8
15
  6
LTYPE1
 62
     2
 10
88.5
 20
64.5
 30
0.0
 11
88.5
 21
58.734014626
 31
0.0
  0
LINE
  8
14
  6
CONTINUOUS
 62
     2
 10
45.594057692
 20
60.0
 30
0.0
 11
45.13854394
 21
61.7
 31
0.0
  0
LINE
  8
14
  6
CONTINUOUS
 62
     2
 10
41.861456018
 20
61.7
 30
0.0
 11
41.405942391
 21
60.0
 31
0.0
  0
LINE
  8
14
  6
CONTINUOUS
 62
     2
 10
64.361456018
 20
61.7
 30
0.0
 11
63.905942391
 21
60.0
 31
0.0
  0
LINE
  8
14
  6
CONTINUOUS
 62
     2
 10
68.094057692
 20
60.0
 30
0.0
 11
67.63854394
 21
61.7
 31
0.0
  0
ARC
  8
0
  6
CONTINUOUS
 62
     2
 10
66.0
 20
61.7
 30
0.0
 40
1.0
 50
0.0
 51
180.0
  0
ARC
  8
0
  6
CONTINUOUS
 62
     2
 10
43.5
 20
61.7
 30
0.0
 40
1.0
 50
0.0
 51
180.0
  0
LINE
  8
0
  6
CONTINUOUS
 62
     2
 10
65.4
 20
62.5
 30
0.0
 11
44.1
 21
62.5
 31
0.0
  0
LINE
  8
0
  6
CONTINUOUS
 62
     2
 10
90.13854394
 20
61.7
 30
0.0
 11
41.861456018
 21
61.7
 31
0.0
  0
LINE
  8
14
  6
CONTINUOUS
 62
     2
 10
90.594057692
 20
60.0
 30
0.0
 11
90.05815916
 21
62.0
 31
0.0
  0
LINE
  8
14
  6
CONTINUOUS
 62
     2
 10
86.941840775
 20
62.0
 30
0.0
 11
86.405942391
 21
60.0
 31
0.0
  0
LINE
  8
0
  6
CONTINUOUS
 62
     2
 10
86.941840775
 20
62.0
 30
0.0
 11
86.941840775
 21
62.5
 31
0.0
  0
LINE
  8
0
  6
CONTINUOUS
 62
     2
 10
91.5
 20
65.0
 30
0.0
 11
91.0
 21
65.0
 31
0.0
  0
LINE
  8
14
  6
CONTINUOUS
 62
     2
 10
78.138543982
 20
61.7
 30
0.0
 11
78.594057609
 21
60.0
 31
0.0
  0
LINE
  8
14
  6
CONTINUOUS
 62
     2
 10
77.867159366
 20
62.712821178
 30
0.0
 11
77.924184629
 21
62.5
 31
0.0
  0
LINE
  8
14
  6
CONTINUOUS
 62
     2
 10
75.075815473
 20
62.5
 30
0.0
 11
75.132840709
 21
62.71282102
 31
0.0
  0
LINE
  8
14
  6
CONTINUOUS
 62
     2
 10
74.405942308
 20
60.0
 30
0.0
 11
74.86145606
 21
61.7
 31
0.0
  0
LINE
  8
14
  6
CONTINUOUS
 62
     2
 10
55.638543982
 20
61.7
 30
0.0
 11
56.094057609
 21
60.0
 31
0.0
  0
LINE
  8
14
  6
CONTINUOUS
 62
     2
 10
55.367159366
 20
62.712821178
 30
0.0
 11
55.424184629
 21
62.5
 31
0.0
  0
LINE
  8
14
  6
CONTINUOUS
 62
     2
 10
52.575815473
 20
62.5
 30
0.0
 11
52.632840709
 21
62.71282102
 31
0.0
  0
LINE
  8
14
  6
CONTINUOUS
 62
     2
 10
51.905942308
 20
60.0
 30
0.0
 11
52.36145606
 21
61.7
 31
0.0
  0
LINE
  8
0
  6
CONTINUOUS
 62
     2
 10
87.5
 20
63.5
 30
0.0
 11
87.5
 21
62.5
 31
0.0
  0
LINE
  8
0
  6
CONTINUOUS
 62
     2
 10
89.5
 20
63.5
 30
0.0
 11
87.5
 21
63.5
 31
0.0
  0
LINE
  8
0
  6
CONTINUOUS
 62
     2
 10
89.5
 20
63.5
 30
0.0
 11
89.5
 21
62.5
 31
0.0
  0
LINE
  8
0
  6
LTYPE1
 62
     2
 10
90.0
 20
64.0
 30
0.0
 11
92.757
 21
64.0
 31
0.0
  0
LINE
  8
0
  6
CONTINUOUS
 62
     2
 10
91.5
 20
64.5
 30
0.0
 11
92.0
 21
64.5
 31
0.0
  0
LINE
  8
0
  6
CONTINUOUS
 62
     2
 10
92.0
 20
63.5
 30
0.0
 11
92.0
 21
64.5
 31
0.0
  0
LINE
  8
0
  6
CONTINUOUS
 62
     2
 10
91.5
 20
63.5
 30
0.0
 11
92.0
 21
63.5
 31
0.0
  0
LINE
  8
0
  6
CONTINUOUS
 62
     2
 10
90.8
 20
62.5
 30
0.0
 11
66.6
 21
62.5
 31
0.0
  0
LINE
  8
0
  6
CONTINUOUS
 62
     2
 10
91.0
 20
62.7
 30
0.0
 11
91.0
 21
65.0
 31
0.0
  0
ARC
  8
0
  6
CONTINUOUS
 62
     2
 10
90.8
 20
62.7
 30
0.0
 40
0.2
 50
270.0
 51
0.0
  0
LINE
  8
0
  6
CONTINUOUS
 62
     2
 10
91.5
 20
62.6
 30
0.0
 11
91.5
 21
65.0
 31
0.0
  0
LINE
  8
0
  6
CONTINUOUS
 62
     2
 10
90.9
 20
62.0
 30
0.0
 11
86.941840775
 21
62.0
 31
0.0
  0
ARC
  8
0
  6
CONTINUOUS
 62
     2
 10
90.9
 20
62.6
 30
0.0
 40
0.6
 50
270.0
 51
0.0
  0
LINE
  8
0
  6
LTYPE1
 62
     2
 10
37.5
 20
33.0
 30
0.0
 11
37.5
 21
64.5
 31
0.0
  0
LINE
  8
0
  6
LTYPE1
 62
     2
 10
82.5
 20
33.0
 30
0.0
 11
82.5
 21
64.5
 31
0.0
  0
LINE
  8
0
  6
LTYPE1
 62
     2
 10
99.0
 20
55.7
 30
0.0
 11
99.0
 21
33.0
 31
0.0
  0
LINE
  8
0
  6
LTYPE1
 62
     2
 10
21.0
 20
55.7
 30
0.0
 11
21.0
 21
33.0
 31
0.0
  0
LINE
  8
0
  6
CONTINUOUS
 62
     2
 10
103.0
 20
100.0
 30
0.0
 11
17.0
 21
100.0
 31
0.0
  0
LINE
  8
0
  6
CONTINUOUS
 62
     2
 10
103.0
 20
138.4
 30
0.0
 11
17.0
 21
138.4
 31
0.0
  0
LINE
  8
0
  6
CONTINUOUS
 62
     2
 10
103.0
 20
138.4
 30
0.0
 11
103.0
 21
100.0
 31
0.0
  0
LINE
  8
0
  6
CONTINUOUS
 62
     2
 10
17.0
 20
138.4
 30
0.0
 11
17.0
 21
100.0
 31
0.0
  0
LINE
  8
0
  6
LTYPE1
 62
     2
 10
60.0
 20
29.0
 30
0.0
 11
60.0
 21
68.437746109
 31
0.0
  0
LINE
  8
0
  6
CONTINUOUS
 62
     2
 10
33.25
 20
130.9
 30
0.0
 11
33.25
 21
115.9
 31
0.0
  0
LINE
  8
0
  6
CONTINUOUS
 62
     2
 10
29.75
 20
130.9
 30
0.0
 11
29.75
 21
115.9
 31
0.0
  0
LINE
  8
0
  6
CONTINUOUS
 62
     2
 10
29.25
 20
130.9
 30
0.0
 11
29.25
 21
115.9
 31
0.0
  0
LINE
  8
0
  6
CONTINUOUS
 62
     2
 10
33.75
 20
115.9
 30
0.0
 11
29.25
 21
115.9
 31
0.0
  0
LINE
  8
0
  6
CONTINUOUS
 62
     2
 10
33.75
 20
130.9
 30
0.0
 11
33.75
 21
115.9
 31
0.0
  0
LINE
  8
0
  6
CONTINUOUS
 62
     2
 10
33.75
 20
118.9
 30
0.0
 11
29.25
 21
118.9
 31
0.0
  0
LINE
  8
0
  6
CONTINUOUS
 62
     2
 10
33.75
 20
127.9
 30
0.0
 11
29.25
 21
127.9
 31
0.0
  0
LINE
  8
0
  6
CONTINUOUS
 62
     2
 10
30.25
 20
118.9
 30
0.0
 11
30.25
 21
115.9
 31
0.0
  0
LINE
  8
0
  6
CONTINUOUS
 62
     2
 10
30.25
 20
130.9
 30
0.0
 11
30.25
 21
127.9
 31
0.0
  0
LINE
  8
0
  6
CONTINUOUS
 62
     2
 10
32.75
 20
118.9
 30
0.0
 11
32.75
 21
115.9
 31
0.0
  0
LINE
  8
0
  6
CONTINUOUS
 62
     2
 10
32.75
 20
130.9
 30
0.0
 11
32.75
 21
127.9
 31
0.0
  0
LINE
  8
0
  6
CONTINUOUS
 62
     2
 10
30.5
 20
132.4
 30
0.0
 11
30.5
 21
130.9
 31
0.0
  0
LINE
  8
0
  6
CONTINUOUS
 62
     2
 10
32.5
 20
132.4
 30
0.0
 11
32.5
 21
130.9
 31
0.0
  0
LINE
  8
0
  6
CONTINUOUS
 62
     2
 10
32.5
 20
132.4
 30
0.0
 11
30.5
 21
132.4
 31
0.0
  0
LINE
  8
0
  6
CONTINUOUS
 62
     2
 10
32.5
 20
131.9
 30
0.0
 11
30.5
 21
131.9
 31
0.0
  0
LINE
  8
0
  6
CONTINUOUS
 62
     2
 10
30.5
 20
131.4
 30
0.0
 11
17.0
 21
131.4
 31
0.0
  0
LINE
  8
0
  6
CONTINUOUS
 62
     2
 10
103.0
 20
131.4
 30
0.0
 11
32.5
 21
131.4
 31
0.0
  0
ARC
  8
0
  6
CONTINUOUS
 62
     2
 10
31.5
 20
132.4
 30
0.0
 40
0.5
 50
0.0
 51
180.0
  0
LINE
  8
0
  6
CONTINUOUS
 62
     2
 10
28.2
 20
104.5
 30
0.0
 11
27.5
 21
107.5
 31
0.0
  0
LINE
  8
0
  6
CONTINUOUS
 62
     2
 10
34.8
 20
104.5
 30
0.0
 11
28.2
 21
104.5
 31
0.0
  0
LINE
  8
0
  6
CONTINUOUS
 62
     2
 10
35.5
 20
107.5
 30
0.0
 11
34.8
 21
104.5
 31
0.0
  0
LINE
  8
0
  6
CONTINUOUS
 62
     2
 10
28.45
 20
104.5
 30
0.0
 11
28.45
 21
104.0
 31
0.0
  0
LINE
  8
0
  6
CONTINUOUS
 62
     2
 10
28.45
 20
104.0
 30
0.0
 11
29.95
 21
104.0
 31
0.0
  0
LINE
  8
0
  6
CONTINUOUS
 62
     2
 10
29.95
 20
104.0
 30
0.0
 11
29.95
 21
104.5
 31
0.0
  0
LINE
  8
0
  6
CONTINUOUS
 62
     2
 10
33.05
 20
104.5
 30
0.0
 11
33.05
 21
104.0
 31
0.0
  0
LINE
  8
0
  6
CONTINUOUS
 62
     2
 10
33.05
 20
104.0
 30
0.0
 11
34.55
 21
104.0
 31
0.0
  0
LINE
  8
0
  6
CONTINUOUS
 62
     2
 10
34.55
 20
104.0
 30
0.0
 11
34.55
 21
104.5
 31
0.0
  0
LINE
  8
0
  6
LTYPE1
 62
     2
 10
29.2
 20
107.5
 30
0.0
 11
29.2
 21
103.438
 31
0.0
  0
LINE
  8
0
  6
LTYPE1
 62
     2
 10
33.8
 20
107.5
 30
0.0
 11
33.8
 21
103.438
 31
0.0
  0
LINE
  8
0
  6
CONTINUOUS
 62
     2
 10
27.616666667
 20
107.0
 30
0.0
 11
17.0
 21
107.0
 31
0.0
  0
LINE
  8
0
  6
CONTINUOUS
 62
     2
 10
40.2
 20
104.5
 30
0.0
 11
39.5
 21
107.5
 31
0.0
  0
LINE
  8
0
  6
CONTINUOUS
 62
     2
 10
46.8
 20
104.5
 30
0.0
 11
40.2
 21
104.5
 31
0.0
  0
LINE
  8
0
  6
CONTINUOUS
 62
     2
 10
47.5
 20
107.5
 30
0.0
 11
46.8
 21
104.5
 31
0.0
  0
LINE
  8
0
  6
CONTINUOUS
 62
     2
 10
40.45
 20
104.5
 30
0.0
 11
40.45
 21
104.0
 31
0.0
  0
LINE
  8
0
  6
CONTINUOUS
 62
     2
 10
40.45
 20
104.0
 30
0.0
 11
41.95
 21
104.0
 31
0.0
  0
LINE
  8
0
  6
CONTINUOUS
 62
     2
 10
41.95
 20
104.0
 30
0.0
 11
41.95
 21
104.5
 31
0.0
  0
LINE
  8
0
  6
CONTINUOUS
 62
     2
 10
45.05
 20
104.5
 30
0.0
 11
45.05
 21
104.0
 31
0.0
  0
LINE
  8
0
  6
CONTINUOUS
 62
     2
 10
45.05
 20
104.0
 30
0.0
 11
46.55
 21
104.0
 31
0.0
  0
LINE
  8
0
  6
CONTINUOUS
 62
     2
 10
46.55
 20
104.0
 30
0.0
 11
46.55
 21
104.5
 31
0.0
  0
LINE
  8
0
  6
LTYPE1
 62
     2
 10
41.2
 20
107.5
 30
0.0
 11
41.2
 21
103.438
 31
0.0
  0
LINE
  8
0
  6
LTYPE1
 62
     2
 10
45.8
 20
107.5
 30
0.0
 11
45.8
 21
103.438
 31
0.0
  0
ARC
  8
0
  6
CONTINUOUS
 62
     2
 10
27.5
 20
129.9
 30
0.0
 40
1.0
 50
90.0
 51
180.0
  0
LINE
  8
0
  6
CONTINUOUS
 62
     2
 10
26.5
 20
129.9
 30
0.0
 11
26.5
 21
108.5
 31
0.0
  0
ARC
  8
0
  6
CONTINUOUS
 62
     2
 10
27.5
 20
108.5
 30
0.0
 40
1.0
 50
180.0
 51
270.0
  0
LINE
  8
0
  6
CONTINUOUS
 62
     2
 10
47.5
 20
107.5
 30
0.0
 11
27.5
 21
107.5
 31
0.0
  0
ARC
  8
0
  6
CONTINUOUS
 62
     2
 10
47.5
 20
108.5
 30
0.0
 40
1.0
 50
270.0
 51
0.0
  0
LINE
  8
0
  6
CONTINUOUS
 62
     2
 10
47.5
 20
130.9
 30
0.0
 11
27.5
 21
130.9
 31
0.0
  0
ARC
  8
0
  6
CONTINUOUS
 62
     2
 10
47.5
 20
129.9
 30
0.0
 40
1.0
 50
0.0
 51
90.0
  0
LINE
  8
0
  6
CONTINUOUS
 62
     2
 10
41.861456018
 20
130.9
 30
0.0
 11
41.861456018
 21
107.5
 31
0.0
  0
LINE
  8
0
  6
CONTINUOUS
 62
     2
 10
41.405942391
 20
107.5
 30
0.0
 11
41.405942391
 21
130.9
 31
0.0
  0
CIRCLE
  8
0
  6
CONTINUOUS
 62
     2
 10
43.5
 20
110.5
 30
0.0
 40
1.0
  0
LINE
  8
0
  6
LTYPE1
 62
     2
 10
31.5
 20
133.708
 30
0.0
 11
31.5
 21
114.318
 31
0.0
  0
LINE
  8
0
  6
CONTINUOUS
 62
     2
 10
55.75
 20
130.9
 30
0.0
 11
55.75
 21
115.9
 31
0.0
  0
LINE
  8
0
  6
CONTINUOUS
 62
     2
 10
52.25
 20
130.9
 30
0.0
 11
52.25
 21
115.9
 31
0.0
  0
LINE
  8
0
  6
CONTINUOUS
 62
     2
 10
51.75
 20
130.9
 30
0.0
 11
51.75
 21
115.9
 31
0.0
  0
LINE
  8
0
  6
CONTINUOUS
 62
     2
 10
56.25
 20
115.9
 30
0.0
 11
51.75
 21
115.9
 31
0.0
  0
LINE
  8
0
  6
CONTINUOUS
 62
     2
 10
56.25
 20
130.9
 30
0.0
 11
56.25
 21
115.9
 31
0.0
  0
LINE
  8
0
  6
CONTINUOUS
 62
     2
 10
56.25
 20
118.9
 30
0.0
 11
51.75
 21
118.9
 31
0.0
  0
LINE
  8
0
  6
CONTINUOUS
 62
     2
 10
56.25
 20
127.9
 30
0.0
 11
51.75
 21
127.9
 31
0.0
  0
LINE
  8
0
  6
CONTINUOUS
 62
     2
 10
52.75
 20
118.9
 30
0.0
 11
52.75
 21
115.9
 31
0.0
  0
LINE
  8
0
  6
CONTINUOUS
 62
     2
 10
52.75
 20
130.9
 30
0.0
 11
52.75
 21
127.9
 31
0.0
  0
LINE
  8
0
  6
CONTINUOUS
 62
     2
 10
55.25
 20
118.9
 30
0.0
 11
55.25
 21
115.9
 31
0.0
  0
LINE
  8
0
  6
CONTINUOUS
 62
     2
 10
55.25
 20
130.9
 30
0.0
 11
55.25
 21
127.9
 31
0.0
  0
LINE
  8
0
  6
CONTINUOUS
 62
     2
 10
53.0
 20
132.4
 30
0.0
 11
53.0
 21
130.9
 31
0.0
  0
LINE
  8
0
  6
CONTINUOUS
 62
     2
 10
55.0
 20
132.4
 30
0.0
 11
55.0
 21
130.9
 31
0.0
  0
LINE
  8
0
  6
CONTINUOUS
 62
     2
 10
55.0
 20
132.4
 30
0.0
 11
53.0
 21
132.4
 31
0.0
  0
LINE
  8
0
  6
CONTINUOUS
 62
     2
 10
55.0
 20
131.9
 30
0.0
 11
53.0
 21
131.9
 31
0.0
  0
ARC
  8
0
  6
CONTINUOUS
 62
     2
 10
54.0
 20
132.4
 30
0.0
 40
0.5
 50
0.0
 51
180.0
  0
LINE
  8
0
  6
CONTINUOUS
 62
     2
 10
50.7
 20
104.5
 30
0.0
 11
50.0
 21
107.5
 31
0.0
  0
LINE
  8
0
  6
CONTINUOUS
 62
     2
 10
57.3
 20
104.5
 30
0.0
 11
50.7
 21
104.5
 31
0.0
  0
LINE
  8
0
  6
CONTINUOUS
 62
     2
 10
58.0
 20
107.5
 30
0.0
 11
57.3
 21
104.5
 31
0.0
  0
LINE
  8
0
  6
CONTINUOUS
 62
     2
 10
50.95
 20
104.5
 30
0.0
 11
50.95
 21
104.0
 31
0.0
  0
LINE
  8
0
  6
CONTINUOUS
 62
     2
 10
50.95
 20
104.0
 30
0.0
 11
52.45
 21
104.0
 31
0.0
  0
LINE
  8
0
  6
CONTINUOUS
 62
     2
 10
52.45
 20
104.0
 30
0.0
 11
52.45
 21
104.5
 31
0.0
  0
LINE
  8
0
  6
CONTINUOUS
 62
     2
 10
55.55
 20
104.5
 30
0.0
 11
55.55
 21
104.0
 31
0.0
  0
LINE
  8
0
  6
CONTINUOUS
 62
     2
 10
55.55
 20
104.0
 30
0.0
 11
57.05
 21
104.0
 31
0.0
  0
LINE
  8
0
  6
CONTINUOUS
 62
     2
 10
57.05
 20
104.0
 30
0.0
 11
57.05
 21
104.5
 31
0.0
  0
LINE
  8
0
  6
LTYPE1
 62
     2
 10
51.7
 20
107.5
 30
0.0
 11
51.7
 21
103.438
 31
0.0
  0
LINE
  8
0
  6
LTYPE1
 62
     2
 10
56.3
 20
107.5
 30
0.0
 11
56.3
 21
103.438
 31
0.0
  0
LINE
  8
0
  6
CONTINUOUS
 62
     2
 10
62.7
 20
104.5
 30
0.0
 11
62.0
 21
107.5
 31
0.0
  0
LINE
  8
0
  6
CONTINUOUS
 62
     2
 10
69.3
 20
104.5
 30
0.0
 11
62.7
 21
104.5
 31
0.0
  0
LINE
  8
0
  6
CONTINUOUS
 62
     2
 10
70.0
 20
107.5
 30
0.0
 11
69.3
 21
104.5
 31
0.0
  0
LINE
  8
0
  6
CONTINUOUS
 62
     2
 10
62.95
 20
104.5
 30
0.0
 11
62.95
 21
104.0
 31
0.0
  0
LINE
  8
0
  6
CONTINUOUS
 62
     2
 10
62.95
 20
104.0
 30
0.0
 11
64.45
 21
104.0
 31
0.0
  0
LINE
  8
0
  6
CONTINUOUS
 62
     2
 10
64.45
 20
104.0
 30
0.0
 11
64.45
 21
104.5
 31
0.0
  0
LINE
  8
0
  6
CONTINUOUS
 62
     2
 10
67.55
 20
104.5
 30
0.0
 11
67.55
 21
104.0
 31
0.0
  0
LINE
  8
0
  6
CONTINUOUS
 62
     2
 10
67.55
 20
104.0
 30
0.0
 11
69.05
 21
104.0
 31
0.0
  0
LINE
  8
0
  6
CONTINUOUS
 62
     2
 10
69.05
 20
104.0
 30
0.0
 11
69.05
 21
104.5
 31
0.0
  0
LINE
  8
0
  6
LTYPE1
 62
     2
 10
63.7
 20
107.5
 30
0.0
 11
63.7
 21
103.438
 31
0.0
  0
LINE
  8
0
  6
LTYPE1
 62
     2
 10
68.3
 20
107.5
 30
0.0
 11
68.3
 21
103.438
 31
0.0
  0
ARC
  8
0
  6
CONTINUOUS
 62
     2
 10
50.0
 20
129.9
 30
0.0
 40
1.0
 50
90.0
 51
180.0
  0
ARC
  8
0
  6
CONTINUOUS
 62
     2
 10
50.0
 20
108.5
 30
0.0
 40
1.0
 50
180.0
 51
270.0
  0
LINE
  8
0
  6
CONTINUOUS
 62
     2
 10
70.0
 20
107.5
 30
0.0
 11
50.0
 21
107.5
 31
0.0
  0
ARC
  8
0
  6
CONTINUOUS
 62
     2
 10
70.0
 20
108.5
 30
0.0
 40
1.0
 50
270.0
 51
0.0
  0
LINE
  8
0
  6
CONTINUOUS
 62
     2
 10
70.0
 20
130.9
 30
0.0
 11
50.0
 21
130.9
 31
0.0
  0
ARC
  8
0
  6
CONTINUOUS
 62
     2
 10
70.0
 20
129.9
 30
0.0
 40
1.0
 50
0.0
 51
90.0
  0
CIRCLE
  8
0
  6
CONTINUOUS
 62
     2
 10
66.0
 20
110.5
 30
0.0
 40
1.0
  0
LINE
  8
0
  6
LTYPE1
 62
     2
 10
54.0
 20
133.708
 30
0.0
 11
54.0
 21
114.318
 31
0.0
  0
LINE
  8
0
  6
CONTINUOUS
 62
     2
 10
78.25
 20
130.9
 30
0.0
 11
78.25
 21
115.9
 31
0.0
  0
LINE
  8
0
  6
CONTINUOUS
 62
     2
 10
74.75
 20
130.9
 30
0.0
 11
74.75
 21
115.9
 31
0.0
  0
LINE
  8
0
  6
CONTINUOUS
 62
     2
 10
74.25
 20
130.9
 30
0.0
 11
74.25
 21
115.9
 31
0.0
  0
LINE
  8
0
  6
CONTINUOUS
 62
     2
 10
78.75
 20
115.9
 30
0.0
 11
74.25
 21
115.9
 31
0.0
  0
LINE
  8
0
  6
CONTINUOUS
 62
     2
 10
78.75
 20
130.9
 30
0.0
 11
78.75
 21
115.9
 31
0.0
  0
LINE
  8
0
  6
CONTINUOUS
 62
     2
 10
78.75
 20
118.9
 30
0.0
 11
74.25
 21
118.9
 31
0.0
  0
LINE
  8
0
  6
CONTINUOUS
 62
     2
 10
78.75
 20
127.9
 30
0.0
 11
74.25
 21
127.9
 31
0.0
  0
LINE
  8
0
  6
CONTINUOUS
 62
     2
 10
75.25
 20
118.9
 30
0.0
 11
75.25
 21
115.9
 31
0.0
  0
LINE
  8
0
  6
CONTINUOUS
 62
     2
 10
75.25
 20
130.9
 30
0.0
 11
75.25
 21
127.9
 31
0.0
  0
LINE
  8
0
  6
CONTINUOUS
 62
     2
 10
77.75
 20
118.9
 30
0.0
 11
77.75
 21
115.9
 31
0.0
  0
LINE
  8
0
  6
CONTINUOUS
 62
     2
 10
77.75
 20
130.9
 30
0.0
 11
77.75
 21
127.9
 31
0.0
  0
LINE
  8
0
  6
CONTINUOUS
 62
     2
 10
75.5
 20
132.4
 30
0.0
 11
75.5
 21
130.9
 31
0.0
  0
LINE
  8
0
  6
CONTINUOUS
 62
     2
 10
77.5
 20
132.4
 30
0.0
 11
77.5
 21
130.9
 31
0.0
  0
LINE
  8
0
  6
CONTINUOUS
 62
     2
 10
77.5
 20
132.4
 30
0.0
 11
75.5
 21
132.4
 31
0.0
  0
LINE
  8
0
  6
CONTINUOUS
 62
     2
 10
77.5
 20
131.9
 30
0.0
 11
75.5
 21
131.9
 31
0.0
  0
ARC
  8
0
  6
CONTINUOUS
 62
     2
 10
76.5
 20
132.4
 30
0.0
 40
0.5
 50
0.0
 51
180.0
  0
LINE
  8
0
  6
CONTINUOUS
 62
     2
 10
73.2
 20
104.5
 30
0.0
 11
72.5
 21
107.5
 31
0.0
  0
LINE
  8
0
  6
CONTINUOUS
 62
     2
 10
79.8
 20
104.5
 30
0.0
 11
73.2
 21
104.5
 31
0.0
  0
LINE
  8
0
  6
CONTINUOUS
 62
     2
 10
80.5
 20
107.5
 30
0.0
 11
79.8
 21
104.5
 31
0.0
  0
LINE
  8
0
  6
CONTINUOUS
 62
     2
 10
73.45
 20
104.5
 30
0.0
 11
73.45
 21
104.0
 31
0.0
  0
LINE
  8
0
  6
CONTINUOUS
 62
     2
 10
73.45
 20
104.0
 30
0.0
 11
74.95
 21
104.0
 31
0.0
  0
LINE
  8
0
  6
CONTINUOUS
 62
     2
 10
74.95
 20
104.0
 30
0.0
 11
74.95
 21
104.5
 31
0.0
  0
LINE
  8
0
  6
CONTINUOUS
 62
     2
 10
78.05
 20
104.5
 30
0.0
 11
78.05
 21
104.0
 31
0.0
  0
LINE
  8
0
  6
CONTINUOUS
 62
     2
 10
78.05
 20
104.0
 30
0.0
 11
79.55
 21
104.0
 31
0.0
  0
LINE
  8
0
  6
CONTINUOUS
 62
     2
 10
79.55
 20
104.0
 30
0.0
 11
79.55
 21
104.5
 31
0.0
  0
LINE
  8
0
  6
LTYPE1
 62
     2
 10
74.2
 20
107.5
 30
0.0
 11
74.2
 21
103.438
 31
0.0
  0
LINE
  8
0
  6
LTYPE1
 62
     2
 10
78.8
 20
107.5
 30
0.0
 11
78.8
 21
103.438
 31
0.0
  0
LINE
  8
0
  6
CONTINUOUS
 62
     2
 10
85.2
 20
104.5
 30
0.0
 11
84.5
 21
107.5
 31
0.0
  0
LINE
  8
0
  6
CONTINUOUS
 62
     2
 10
91.8
 20
104.5
 30
0.0
 11
85.2
 21
104.5
 31
0.0
  0
LINE
  8
0
  6
CONTINUOUS
 62
     2
 10
92.5
 20
107.5
 30
0.0
 11
91.8
 21
104.5
 31
0.0
  0
LINE
  8
0
  6
CONTINUOUS
 62
     2
 10
85.45
 20
104.5
 30
0.0
 11
85.45
 21
104.0
 31
0.0
  0
LINE
  8
0
  6
CONTINUOUS
 62
     2
 10
85.45
 20
104.0
 30
0.0
 11
86.95
 21
104.0
 31
0.0
  0
LINE
  8
0
  6
CONTINUOUS
 62
     2
 10
86.95
 20
104.0
 30
0.0
 11
86.95
 21
104.5
 31
0.0
  0
LINE
  8
0
  6
CONTINUOUS
 62
     2
 10
90.05
 20
104.5
 30
0.0
 11
90.05
 21
104.0
 31
0.0
  0
LINE
  8
0
  6
CONTINUOUS
 62
     2
 10
90.05
 20
104.0
 30
0.0
 11
91.55
 21
104.0
 31
0.0
  0
LINE
  8
0
  6
CONTINUOUS
 62
     2
 10
91.55
 20
104.0
 30
0.0
 11
91.55
 21
104.5
 31
0.0
  0
LINE
  8
0
  6
LTYPE1
 62
     2
 10
86.2
 20
107.5
 30
0.0
 11
86.2
 21
103.438
 31
0.0
  0
LINE
  8
0
  6
LTYPE1
 62
     2
 10
90.8
 20
107.5
 30
0.0
 11
90.8
 21
103.438
 31
0.0
  0
ARC
  8
0
  6
CONTINUOUS
 62
     2
 10
72.5
 20
129.9
 30
0.0
 40
1.0
 50
90.0
 51
180.0
  0
ARC
  8
0
  6
CONTINUOUS
 62
     2
 10
72.5
 20
108.5
 30
0.0
 40
1.0
 50
180.0
 51
270.0
  0
LINE
  8
0
  6
CONTINUOUS
 62
     2
 10
92.5
 20
107.5
 30
0.0
 11
72.5
 21
107.5
 31
0.0
  0
ARC
  8
0
  6
CONTINUOUS
 62
     2
 10
92.5
 20
108.5
 30
0.0
 40
1.0
 50
270.0
 51
0.0
  0
LINE
  8
0
  6
CONTINUOUS
 62
     2
 10
92.5
 20
130.9
 30
0.0
 11
72.5
 21
130.9
 31
0.0
  0
LINE
  8
0
  6
CONTINUOUS
 62
     2
 10
93.5
 20
108.5
 30
0.0
 11
93.5
 21
129.9
 31
0.0
  0
ARC
  8
0
  6
CONTINUOUS
 62
     2
 10
92.5
 20
129.9
 30
0.0
 40
1.0
 50
0.0
 51
90.0
  0
CIRCLE
  8
0
  6
CONTINUOUS
 62
     2
 10
88.5
 20
110.5
 30
0.0
 40
1.0
  0
LINE
  8
0
  6
LTYPE1
 62
     2
 10
76.5
 20
133.708
 30
0.0
 11
76.5
 21
114.318
 31
0.0
  0
LINE
  8
0
  6
CONTINUOUS
 62
     2
 10
39.616666667
 20
107.0
 30
0.0
 11
35.383333333
 21
107.0
 31
0.0
  0
LINE
  8
0
  6
CONTINUOUS
 62
     2
 10
50.116666667
 20
107.0
 30
0.0
 11
47.383333333
 21
107.0
 31
0.0
  0
LINE
  8
0
  6
CONTINUOUS
 62
     2
 10
62.116666667
 20
107.0
 30
0.0
 11
57.883333333
 21
107.0
 31
0.0
  0
LINE
  8
0
  6
CONTINUOUS
 62
     2
 10
72.616666667
 20
107.0
 30
0.0
 11
69.883333333
 21
107.0
 31
0.0
  0
LINE
  8
0
  6
CONTINUOUS
 62
     2
 10
84.616666667
 20
107.0
 30
0.0
 11
80.383333333
 21
107.0
 31
0.0
  0
LINE
  8
0
  6
CONTINUOUS
 62
     2
 10
103.0
 20
107.0
 30
0.0
 11
92.383333333
 21
107.0
 31
0.0
  0
LINE
  8
0
  6
CONTINUOUS
 62
     2
 10
65.133974596
 20
110.0
 30
0.0
 11
44.366025404
 21
110.0
 31
0.0
  0
LINE
  8
0
  6
CONTINUOUS
 62
     2
 10
65.133974596
 20
111.0
 30
0.0
 11
44.366025404
 21
111.0
 31
0.0
  0
LINE
  8
0
  6
CONTINUOUS
 62
     2
 10
67.638543982
 20
110.0
 30
0.0
 11
67.638543982
 21
107.5
 31
0.0
  0
LINE
  8
0
  6
CONTINUOUS
 62
     2
 10
67.638543982
 20
130.9
 30
0.0
 11
67.638543982
 21
111.0
 31
0.0
  0
LINE
  8
0
  6
CONTINUOUS
 62
     2
 10
68.094057609
 20
111.0
 30
0.0
 11
68.094057609
 21
130.9
 31
0.0
  0
LINE
  8
0
  6
CONTINUOUS
 62
     2
 10
68.094057609
 20
107.5
 30
0.0
 11
68.094057609
 21
110.0
 31
0.0
  0
LINE
  8
0
  6
CONTINUOUS
 62
     2
 10
64.361456018
 20
110.0
 30
0.0
 11
64.361456018
 21
107.5
 31
0.0
  0
LINE
  8
0
  6
CONTINUOUS
 62
     2
 10
64.361456018
 20
130.9
 30
0.0
 11
64.361456018
 21
111.0
 31
0.0
  0
LINE
  8
0
  6
CONTINUOUS
 62
     2
 10
63.905942391
 20
111.0
 30
0.0
 11
63.905942391
 21
130.9
 31
0.0
  0
LINE
  8
0
  6
CONTINUOUS
 62
     2
 10
63.905942391
 20
107.5
 30
0.0
 11
63.905942391
 21
110.0
 31
0.0
  0
LINE
  8
0
  6
CONTINUOUS
 62
     2
 10
49.0
 20
110.0
 30
0.0
 11
49.0
 21
108.5
 31
0.0
  0
LINE
  8
0
  6
CONTINUOUS
 62
     2
 10
49.0
 20
129.9
 30
0.0
 11
49.0
 21
111.0
 31
0.0
  0
LINE
  8
0
  6
CONTINUOUS
 62
     2
 10
48.5
 20
111.0
 30
0.0
 11
48.5
 21
129.9
 31
0.0
  0
LINE
  8
0
  6
CONTINUOUS
 62
     2
 10
48.5
 20
108.5
 30
0.0
 11
48.5
 21
110.0
 31
0.0
  0
LINE
  8
0
  6
CONTINUOUS
 62
     2
 10
45.594057609
 20
111.0
 30
0.0
 11
45.594057609
 21
130.9
 31
0.0
  0
LINE
  8
0
  6
CONTINUOUS
 62
     2
 10
45.594057609
 20
107.5
 30
0.0
 11
45.594057609
 21
110.0
 31
0.0
  0
LINE
  8
0
  6
CONTINUOUS
 62
     2
 10
45.138543982
 20
110.0
 30
0.0
 11
45.138543982
 21
107.5
 31
0.0
  0
LINE
  8
0
  6
CONTINUOUS
 62
     2
 10
45.138543982
 20
130.9
 30
0.0
 11
45.138543982
 21
111.0
 31
0.0
  0
LINE
  8
0
  6
CONTINUOUS
 62
     2
 10
71.5
 20
110.0
 30
0.0
 11
71.5
 21
108.5
 31
0.0
  0
LINE
  8
0
  6
CONTINUOUS
 62
     2
 10
71.5
 20
129.9
 30
0.0
 11
71.5
 21
111.0
 31
0.0
  0
LINE
  8
0
  6
CONTINUOUS
 62
     2
 10
71.0
 20
111.0
 30
0.0
 11
71.0
 21
129.9
 31
0.0
  0
LINE
  8
0
  6
CONTINUOUS
 62
     2
 10
71.0
 20
108.5
 30
0.0
 11
71.0
 21
110.0
 31
0.0
  0
LINE
  8
0
  6
CONTINUOUS
 62
     2
 10
86.405942391
 20
111.0
 30
0.0
 11
86.405942391
 21
130.9
 31
0.0
  0
LINE
  8
0
  6
CONTINUOUS
 62
     2
 10
86.405942391
 20
107.5
 30
0.0
 11
86.405942391
 21
110.0
 31
0.0
  0
LINE
  8
0
  6
CONTINUOUS
 62
     2
 10
86.861456018
 20
110.0
 30
0.0
 11
86.861456018
 21
107.5
 31
0.0
  0
LINE
  8
0
  6
CONTINUOUS
 62
     2
 10
86.861456018
 20
130.9
 30
0.0
 11
86.861456018
 21
111.0
 31
0.0
  0
LINE
  8
0
  6
CONTINUOUS
 62
     2
 10
87.633974596
 20
110.0
 30
0.0
 11
66.866025404
 21
110.0
 31
0.0
  0
LINE
  8
0
  6
CONTINUOUS
 62
     2
 10
87.633974596
 20
111.0
 30
0.0
 11
66.866025404
 21
111.0
 31
0.0
  0
LINE
  8
0
  6
LTYPE1
 62
     2
 10
45.5
 20
110.5
 30
0.0
 11
41.5
 21
110.5
 31
0.0
  0
LINE
  8
0
  6
LTYPE1
 62
     2
 10
43.5
 20
112.5
 30
0.0
 11
43.5
 21
108.5
 31
0.0
  0
LINE
  8
0
  6
LTYPE1
 62
     2
 10
68.0
 20
110.5
 30
0.0
 11
64.0
 21
110.5
 31
0.0
  0
LINE
  8
0
  6
LTYPE1
 62
     2
 10
66.0
 20
112.5
 30
0.0
 11
66.0
 21
108.5
 31
0.0
  0
LINE
  8
0
  6
LTYPE1
 62
     2
 10
88.5
 20
112.5
 30
0.0
 11
88.5
 21
108.5
 31
0.0
  0
LINE
  8
0
  6
LTYPE1
 62
     2
 10
91.928
 20
110.5
 30
0.0
 11
86.5
 21
110.5
 31
0.0
  0
LINE
  8
0
  6
CONTINUOUS
 62
     2
 10
91.5
 20
109.7
 30
0.0
 11
91.5
 21
111.3
 31
0.0
  0
LINE
  8
0
  6
CONTINUOUS
 62
     2
 10
91.5
 20
111.3
 30
0.0
 11
89.1
 21
111.3
 31
0.0
  0
LINE
  8
0
  6
CONTINUOUS
 62
     2
 10
91.5
 20
109.7
 30
0.0
 11
89.1
 21
109.7
 31
0.0
  0
LINE
  8
0
  6
CONTINUOUS
 62
     2
 10
90.138543982
 20
130.9
 30
0.0
 11
90.138543982
 21
111.3
 31
0.0
  0
LINE
  8
0
  6
CONTINUOUS
 62
     2
 10
90.594057609
 20
111.3
 30
0.0
 11
90.594057609
 21
130.9
 31
0.0
  0
LINE
  8
0
  6
CONTINUOUS
 62
     2
 10
90.594057609
 20
107.5
 30
0.0
 11
90.594057609
 21
109.7
 31
0.0
  0
LINE
  8
0
  6
CONTINUOUS
 62
     2
 10
90.138543982
 20
109.7
 30
0.0
 11
90.138543982
 21
107.5
 31
0.0
  0
LINE
  8
0
  6
CONTINUOUS
 62
     2
 10
91.0
 20
111.3
 30
0.0
 11
91.0
 21
109.7
 31
0.0
  0
LINE
  8
0
  6
LTYPE1
 62
     2
 10
60.0
 20
143.4
 30
0.0
 11
60.0
 21
95.0
 31
0.0
  0
CIRCLE
  8
0
  6
CONTINUOUS
 62
     2
 10
21.0
 20
134.9
 30
0.0
 40
1.5
  0
LINE
  8
0
  6
LTYPE1
 62
     2
 10
21.0
 20
137.4
 30
0.0
 11
21.0
 21
132.4
 31
0.0
  0
LINE
  8
0
  6
LTYPE1
 62
     2
 10
23.5
 20
134.9
 30
0.0
 11
18.5
 21
134.9
 31
0.0
  0
CIRCLE
  8
0
  6
CONTINUOUS
 62
     2
 10
21.0
 20
103.5
 30
0.0
 40
1.5
  0
LINE
  8
0
  6
LTYPE1
 62
     2
 10
21.0
 20
106.0
 30
0.0
 11
21.0
 21
101.0
 31
0.0
  0
LINE
  8
0
  6
LTYPE1
 62
     2
 10
23.5
 20
103.5
 30
0.0
 11
18.5
 21
103.5
 31
0.0
  0
CIRCLE
  8
0
  6
CONTINUOUS
 62
     2
 10
99.0
 20
103.5
 30
0.0
 40
1.5
  0
LINE
  8
0
  6
LTYPE1
 62
     2
 10
99.0
 20
106.0
 30
0.0
 11
99.0
 21
101.0
 31
0.0
  0
LINE
  8
0
  6
LTYPE1
 62
     2
 10
101.5
 20
103.5
 30
0.0
 11
96.5
 21
103.5
 31
0.0
  0
CIRCLE
  8
0
  6
CONTINUOUS
 62
     2
 10
99.0
 20
134.9
 30
0.0
 40
1.5
  0
LINE
  8
0
  6
LTYPE1
 62
     2
 10
99.0
 20
137.4
 30
0.0
 11
99.0
 21
132.4
 31
0.0
  0
LINE
  8
0
  6
LTYPE1
 62
     2
 10
101.5
 20
134.9
 30
0.0
 11
96.5
 21
134.9
 31
0.0
  0
CIRCLE
  8
0
  6
CONTINUOUS
 62
     2
 10
60.0
 20
134.9
 30
0.0
 40
1.5
  0
LINE
  8
0
  6
LTYPE1
 62
     2
 10
62.5
 20
134.9
 30
0.0
 11
57.5
 21
134.9
 31
0.0
  0
CIRCLE
  8
0
  6
CONTINUOUS
 62
     2
 10
60.0
 20
103.5
 30
0.0
 40
1.5
  0
LINE
  8
0
  6
LTYPE1
 62
     2
 10
62.5
 20
103.5
 30
0.0
 11
57.5
 21
103.5
 31
0.0
  0
LINE
  8
0
  6
CONTINUOUS
 62
     2
 10
67.0
 20
100.0
 30
0.0
 11
67.0
 21
99.5
 31
0.0
  0
LINE
  8
0
  6
CONTINUOUS
 62
     2
 10
53.0
 20
100.0
 30
0.0
 11
53.0
 21
99.5
 31
0.0
  0
LINE
  8
0
  6
CONTINUOUS
 62
     2
 10
67.0
 20
99.5
 30
0.0
 11
53.0
 21
99.5
 31
0.0
  0
LINE
  8
0
  6
CONTINUOUS
 62
     2
 10
175.0
 20
41.0
 30
0.0
 11
176.25
 21
43.5
 31
0.0
  0
LINE
  8
0
  6
CONTINUOUS
 62
     2
 10
176.25
 20
43.5
 30
0.0
 11
177.5
 21
41.0
 31
0.0
  0
LINE
  8
0
  6
CONTINUOUS
 62
     2
 10
177.5
 20
41.0
 30
0.0
 11
178.75
 21
43.5
 31
0.0
  0
LINE
  8
0
  6
CONTINUOUS
 62
     2
 10
178.75
 20
43.5
 30
0.0
 11
180.0
 21
41.0
 31
0.0
  0
LINE
  8
0
  6
CONTINUOUS
 62
     2
 10
180.0
 20
41.0
 30
0.0
 11
181.25
 21
43.5
 31
0.0
  0
LINE
  8
0
  6
CONTINUOUS
 62
     2
 10
181.25
 20
43.5
 30
0.0
 11
182.5
 21
41.0
 31
0.0
  0
LINE
  8
0
  6
CONTINUOUS
 62
     2
 10
182.5
 20
41.0
 30
0.0
 11
183.75
 21
43.5
 31
0.0
  0
LINE
  8
0
  6
CONTINUOUS
 62
     2
 10
183.75
 20
43.5
 30
0.0
 11
185.0
 21
41.0
 31
0.0
  0
LINE
  8
0
  6
CONTINUOUS
 62
     2
 10
200.0
 20
41.0
 30
0.0
 11
200.0
 21
37.0
 31
0.0
  0
LINE
  8
0
  6
CONTINUOUS
 62
     2
 10
190.0
 20
41.0
 30
0.0
 11
191.25
 21
43.5
 31
0.0
  0
LINE
  8
0
  6
CONTINUOUS
 62
     2
 10
191.25
 20
43.5
 30
0.0
 11
192.5
 21
41.0
 31
0.0
  0
LINE
  8
0
  6
CONTINUOUS
 62
     2
 10
192.5
 20
41.0
 30
0.0
 11
193.75
 21
43.5
 31
0.0
  0
LINE
  8
0
  6
CONTINUOUS
 62
     2
 10
193.75
 20
43.5
 30
0.0
 11
195.0
 21
41.0
 31
0.0
  0
LINE
  8
0
  6
CONTINUOUS
 62
     2
 10
195.0
 20
41.0
 30
0.0
 11
196.25
 21
43.5
 31
0.0
  0
LINE
  8
0
  6
CONTINUOUS
 62
     2
 10
196.25
 20
43.5
 30
0.0
 11
197.5
 21
41.0
 31
0.0
  0
LINE
  8
0
  6
CONTINUOUS
 62
     2
 10
197.5
 20
41.0
 30
0.0
 11
198.75
 21
43.5
 31
0.0
  0
LINE
  8
0
  6
CONTINUOUS
 62
     2
 10
198.75
 20
43.5
 30
0.0
 11
200.0
 21
41.0
 31
0.0
  0
LINE
  8
0
  6
CONTINUOUS
 62
     2
 10
215.0
 20
41.0
 30
0.0
 11
215.0
 21
37.0
 31
0.0
  0
LINE
  8
0
  6
CONTINUOUS
 62
     2
 10
205.0
 20
41.0
 30
0.0
 11
206.25
 21
43.5
 31
0.0
  0
LINE
  8
0
  6
CONTINUOUS
 62
     2
 10
206.25
 20
43.5
 30
0.0
 11
207.5
 21
41.0
 31
0.0
  0
LINE
  8
0
  6
CONTINUOUS
 62
     2
 10
207.5
 20
41.0
 30
0.0
 11
208.75
 21
43.5
 31
0.0
  0
LINE
  8
0
  6
CONTINUOUS
 62
     2
 10
208.75
 20
43.5
 30
0.0
 11
210.0
 21
41.0
 31
0.0
  0
LINE
  8
0
  6
CONTINUOUS
 62
     2
 10
210.0
 20
41.0
 30
0.0
 11
211.25
 21
43.5
 31
0.0
  0
LINE
  8
0
  6
CONTINUOUS
 62
     2
 10
211.25
 20
43.5
 30
0.0
 11
212.5
 21
41.0
 31
0.0
  0
LINE
  8
0
  6
CONTINUOUS
 62
     2
 10
212.5
 20
41.0
 30
0.0
 11
213.75
 21
43.5
 31
0.0
  0
LINE
  8
0
  6
CONTINUOUS
 62
     2
 10
213.75
 20
43.5
 30
0.0
 11
215.0
 21
41.0
 31
0.0
  0
CIRCLE
  8
0
  6
CONTINUOUS
 62
     2
 10
178.0
 20
27.0
 30
0.0
 40
0.75
  0
LINE
  8
0
  6
CONTINUOUS
 62
     2
 10
178.0
 20
31.5
 30
0.0
 11
179.25
 21
34.0
 31
0.0
  0
LINE
  8
0
  6
CONTINUOUS
 62
     2
 10
179.25
 20
34.0
 30
0.0
 11
180.5
 21
31.5
 31
0.0
  0
LINE
  8
0
  6
CONTINUOUS
 62
     2
 10
180.5
 20
31.5
 30
0.0
 11
181.75
 21
34.0
 31
0.0
  0
LINE
  8
0
  6
CONTINUOUS
 62
     2
 10
181.75
 20
34.0
 30
0.0
 11
183.0
 21
31.5
 31
0.0
  0
LINE
  8
0
  6
CONTINUOUS
 62
     2
 10
183.0
 20
31.5
 30
0.0
 11
184.25
 21
34.0
 31
0.0
  0
LINE
  8
0
  6
CONTINUOUS
 62
     2
 10
184.25
 20
34.0
 30
0.0
 11
185.5
 21
31.5
 31
0.0
  0
LINE
  8
0
  6
CONTINUOUS
 62
     2
 10
178.0
 20
31.5
 30
0.0
 11
178.0
 21
27.75
 31
0.0
  0
LINE
  8
0
  6
CONTINUOUS
 62
     2
 10
185.5
 20
31.5
 30
0.0
 11
185.5
 21
29.5
 31
0.0
  0
CIRCLE
  8
0
  6
CONTINUOUS
 62
     2
 10
193.0
 20
27.0
 30
0.0
 40
0.75
  0
LINE
  8
0
  6
CONTINUOUS
 62
     2
 10
193.0
 20
31.5
 30
0.0
 11
194.25
 21
34.0
 31
0.0
  0
LINE
  8
0
  6
CONTINUOUS
 62
     2
 10
194.25
 20
34.0
 30
0.0
 11
195.5
 21
31.5
 31
0.0
  0
LINE
  8
0
  6
CONTINUOUS
 62
     2
 10
195.5
 20
31.5
 30
0.0
 11
196.75
 21
34.0
 31
0.0
  0
LINE
  8
0
  6
CONTINUOUS
 62
     2
 10
196.75
 20
34.0
 30
0.0
 11
198.0
 21
31.5
 31
0.0
  0
LINE
  8
0
  6
CONTINUOUS
 62
     2
 10
198.0
 20
31.5
 30
0.0
 11
199.25
 21
34.0
 31
0.0
  0
LINE
  8
0
  6
CONTINUOUS
 62
     2
 10
199.25
 20
34.0
 30
0.0
 11
200.5
 21
31.5
 31
0.0
  0
LINE
  8
0
  6
CONTINUOUS
 62
     2
 10
193.0
 20
31.5
 30
0.0
 11
193.0
 21
27.75
 31
0.0
  0
LINE
  8
0
  6
CONTINUOUS
 62
     2
 10
200.5
 20
31.5
 30
0.0
 11
200.5
 21
29.5
 31
0.0
  0
CIRCLE
  8
0
  6
CONTINUOUS
 62
     2
 10
208.0
 20
27.0
 30
0.0
 40
0.75
  0
LINE
  8
0
  6
CONTINUOUS
 62
     2
 10
208.0
 20
31.5
 30
0.0
 11
209.25
 21
34.0
 31
0.0
  0
LINE
  8
0
  6
CONTINUOUS
 62
     2
 10
209.25
 20
34.0
 30
0.0
 11
210.5
 21
31.5
 31
0.0
  0
LINE
  8
0
  6
CONTINUOUS
 62
     2
 10
210.5
 20
31.5
 30
0.0
 11
211.75
 21
34.0
 31
0.0
  0
LINE
  8
0
  6
CONTINUOUS
 62
     2
 10
211.75
 20
34.0
 30
0.0
 11
213.0
 21
31.5
 31
0.0
  0
LINE
  8
0
  6
CONTINUOUS
 62
     2
 10
213.0
 20
31.5
 30
0.0
 11
214.25
 21
34.0
 31
0.0
  0
LINE
  8
0
  6
CONTINUOUS
 62
     2
 10
214.25
 20
34.0
 30
0.0
 11
215.5
 21
31.5
 31
0.0
  0
LINE
  8
0
  6
CONTINUOUS
 62
     2
 10
208.0
 20
31.5
 30
0.0
 11
208.0
 21
27.75
 31
0.0
  0
LINE
  8
0
  6
CONTINUOUS
 62
     2
 10
185.5
 20
29.5
 30
0.0
 11
193.0
 21
29.5
 31
0.0
  0
LINE
  8
0
  6
CONTINUOUS
 62
     2
 10
200.5
 20
29.5
 30
0.0
 11
208.0
 21
29.5
 31
0.0
  0
CIRCLE
  8
0
  6
CONTINUOUS
 62
     2
 10
215.5
 20
27.0
 30
0.0
 40
0.75
  0
LINE
  8
0
  6
CONTINUOUS
 62
     2
 10
215.5
 20
31.5
 30
0.0
 11
215.5
 21
27.75
 31
0.0
  0
POLYLINE
  8
0
  6
CONTINUOUS
 62
     2
 66
     1
  0
VERTEX
  8
0
  6
CONTINUOUS
 62
     2
 10
185.0
 20
41.0
 30
0.0
  0
VERTEX
  8
0
  6
CONTINUOUS
 62
     2
 10
185.0
 20
37.0
 30
0.0
  0
VERTEX
  8
0
  6
CONTINUOUS
 62
     2
 10
220.0
 20
37.0
 30
0.0
  0
SEQEND
  0
CIRCLE
  8
0
  6
CONTINUOUS
 62
     2
 10
200.0
 20
37.0
 30
0.0
 40
0.15
  0
CIRCLE
  8
0
  6
CONTINUOUS
 62
     2
 10
200.0
 20
37.0
 30
0.0
 40
0.3
  0
CIRCLE
  8
0
  6
CONTINUOUS
 62
     2
 10
215.0
 20
37.0
 30
0.0
 40
0.15
  0
CIRCLE
  8
0
  6
CONTINUOUS
 62
     2
 10
215.0
 20
37.0
 30
0.0
 40
0.3
  0
CIRCLE
  8
0
  6
CONTINUOUS
 62
     2
 10
208.0
 20
29.5
 30
0.0
 40
0.15
  0
CIRCLE
  8
0
  6
CONTINUOUS
 62
     2
 10
208.0
 20
29.5
 30
0.0
 40
0.3
  0
CIRCLE
  8
0
  6
CONTINUOUS
 62
     2
 10
193.0
 20
29.5
 30
0.0
 40
0.15
  0
CIRCLE
  8
0
  6
CONTINUOUS
 62
     2
 10
193.0
 20
29.5
 30
0.0
 40
0.3
  0
LINE
  8
0
  6
CONTINUOUS
 62
     2
 10
175.0
 20
49.0
 30
0.0
 11
176.25
 21
46.5
 31
0.0
  0
LINE
  8
0
  6
CONTINUOUS
 62
     2
 10
176.25
 20
46.5
 30
0.0
 11
177.5
 21
49.0
 31
0.0
  0
LINE
  8
0
  6
CONTINUOUS
 62
     2
 10
177.5
 20
49.0
 30
0.0
 11
178.75
 21
46.5
 31
0.0
  0
LINE
  8
0
  6
CONTINUOUS
 62
     2
 10
178.75
 20
46.5
 30
0.0
 11
180.0
 21
49.0
 31
0.0
  0
LINE
  8
0
  6
CONTINUOUS
 62
     2
 10
180.0
 20
49.0
 30
0.0
 11
181.25
 21
46.5
 31
0.0
  0
LINE
  8
0
  6
CONTINUOUS
 62
     2
 10
181.25
 20
46.5
 30
0.0
 11
182.5
 21
49.0
 31
0.0
  0
LINE
  8
0
  6
CONTINUOUS
 62
     2
 10
182.5
 20
49.0
 30
0.0
 11
183.75
 21
46.5
 31
0.0
  0
LINE
  8
0
  6
CONTINUOUS
 62
     2
 10
183.75
 20
46.5
 30
0.0
 11
185.0
 21
49.0
 31
0.0
  0
LINE
  8
0
  6
CONTINUOUS
 62
     2
 10
200.0
 20
49.0
 30
0.0
 11
200.0
 21
53.0
 31
0.0
  0
LINE
  8
0
  6
CONTINUOUS
 62
     2
 10
190.0
 20
49.0
 30
0.0
 11
191.25
 21
46.5
 31
0.0
  0
LINE
  8
0
  6
CONTINUOUS
 62
     2
 10
191.25
 20
46.5
 30
0.0
 11
192.5
 21
49.0
 31
0.0
  0
LINE
  8
0
  6
CONTINUOUS
 62
     2
 10
192.5
 20
49.0
 30
0.0
 11
193.75
 21
46.5
 31
0.0
  0
LINE
  8
0
  6
CONTINUOUS
 62
     2
 10
193.75
 20
46.5
 30
0.0
 11
195.0
 21
49.0
 31
0.0
  0
LINE
  8
0
  6
CONTINUOUS
 62
     2
 10
195.0
 20
49.0
 30
0.0
 11
196.25
 21
46.5
 31
0.0
  0
LINE
  8
0
  6
CONTINUOUS
 62
     2
 10
196.25
 20
46.5
 30
0.0
 11
197.5
 21
49.0
 31
0.0
  0
LINE
  8
0
  6
CONTINUOUS
 62
     2
 10
197.5
 20
49.0
 30
0.0
 11
198.75
 21
46.5
 31
0.0
  0
LINE
  8
0
  6
CONTINUOUS
 62
     2
 10
198.75
 20
46.5
 30
0.0
 11
200.0
 21
49.0
 31
0.0
  0
LINE
  8
0
  6
CONTINUOUS
 62
     2
 10
215.0
 20
49.0
 30
0.0
 11
215.0
 21
53.0
 31
0.0
  0
LINE
  8
0
  6
CONTINUOUS
 62
     2
 10
205.0
 20
49.0
 30
0.0
 11
206.25
 21
46.5
 31
0.0
  0
LINE
  8
0
  6
CONTINUOUS
 62
     2
 10
206.25
 20
46.5
 30
0.0
 11
207.5
 21
49.0
 31
0.0
  0
LINE
  8
0
  6
CONTINUOUS
 62
     2
 10
207.5
 20
49.0
 30
0.0
 11
208.75
 21
46.5
 31
0.0
  0
LINE
  8
0
  6
CONTINUOUS
 62
     2
 10
208.75
 20
46.5
 30
0.0
 11
210.0
 21
49.0
 31
0.0
  0
LINE
  8
0
  6
CONTINUOUS
 62
     2
 10
210.0
 20
49.0
 30
0.0
 11
211.25
 21
46.5
 31
0.0
  0
LINE
  8
0
  6
CONTINUOUS
 62
     2
 10
211.25
 20
46.5
 30
0.0
 11
212.5
 21
49.0
 31
0.0
  0
LINE
  8
0
  6
CONTINUOUS
 62
     2
 10
212.5
 20
49.0
 30
0.0
 11
213.75
 21
46.5
 31
0.0
  0
LINE
  8
0
  6
CONTINUOUS
 62
     2
 10
213.75
 20
46.5
 30
0.0
 11
215.0
 21
49.0
 31
0.0
  0
POLYLINE
  8
0
  6
CONTINUOUS
 62
     2
 66
     1
  0
VERTEX
  8
0
  6
CONTINUOUS
 62
     2
 10
185.0
 20
49.0
 30
0.0
  0
VERTEX
  8
0
  6
CONTINUOUS
 62
     2
 10
185.0
 20
53.0
 30
0.0
  0
VERTEX
  8
0
  6
CONTINUOUS
 62
     2
 10
220.0
 20
53.0
 30
0.0
  0
SEQEND
  0
CIRCLE
  8
0
  6
CONTINUOUS
 62
     2
 10
200.0
 20
53.0
 30
0.0
 40
0.15
  0
CIRCLE
  8
0
  6
CONTINUOUS
 62
     2
 10
200.0
 20
53.0
 30
0.0
 40
0.3
  0
CIRCLE
  8
0
  6
CONTINUOUS
 62
     2
 10
215.0
 20
53.0
 30
0.0
 40
0.15
  0
CIRCLE
  8
0
  6
CONTINUOUS
 62
     2
 10
215.0
 20
53.0
 30
0.0
 40
0.3
  0
LINE
  8
0
  6
CONTINUOUS
 62
     2
 10
189.0
 20
58.5
 30
0.0
 11
191.0
 21
58.5
 31
0.0
  0
LINE
  8
0
  6
CONTINUOUS
 62
     2
 10
191.0
 20
55.0
 30
0.0
 11
191.0
 21
58.5
 31
0.0
  0
LINE
  8
0
  6
CONTINUOUS
 62
     2
 10
189.0
 20
55.0
 30
0.0
 11
191.0
 21
55.0
 31
0.0
  0
LINE
  8
0
  6
CONTINUOUS
 62
     2
 10
189.0
 20
55.0
 30
0.0
 11
189.0
 21
58.5
 31
0.0
  0
LINE
  8
0
  6
CONTINUOUS
 62
     2
 10
191.0
 20
58.5
 30
0.0
 11
189.0
 21
55.0
 31
0.0
  0
LINE
  8
0
  6
CONTINUOUS
 62
     2
 10
190.0
 20
49.0
 30
0.0
 11
190.0
 21
55.0
 31
0.0
  0
CIRCLE
  8
0
  6
CONTINUOUS
 62
     2
 10
190.0
 20
62.5
 30
0.0
 40
0.75
  0
LINE
  8
0
  6
CONTINUOUS
 62
     2
 10
190.0
 20
61.75
 30
0.0
 11
190.0
 21
58.5
 31
0.0
  0
LINE
  8
0
  6
CONTINUOUS
 62
     2
 10
204.0
 20
58.5
 30
0.0
 11
206.0
 21
58.5
 31
0.0
  0
LINE
  8
0
  6
CONTINUOUS
 62
     2
 10
206.0
 20
55.0
 30
0.0
 11
206.0
 21
58.5
 31
0.0
  0
LINE
  8
0
  6
CONTINUOUS
 62
     2
 10
204.0
 20
55.0
 30
0.0
 11
206.0
 21
55.0
 31
0.0
  0
LINE
  8
0
  6
CONTINUOUS
 62
     2
 10
204.0
 20
55.0
 30
0.0
 11
204.0
 21
58.5
 31
0.0
  0
LINE
  8
0
  6
CONTINUOUS
 62
     2
 10
206.0
 20
58.5
 30
0.0
 11
204.0
 21
55.0
 31
0.0
  0
LINE
  8
0
  6
CONTINUOUS
 62
     2
 10
205.0
 20
49.0
 30
0.0
 11
205.0
 21
55.0
 31
0.0
  0
CIRCLE
  8
0
  6
CONTINUOUS
 62
     2
 10
205.0
 20
62.5
 30
0.0
 40
0.75
  0
LINE
  8
0
  6
CONTINUOUS
 62
     2
 10
205.0
 20
61.75
 30
0.0
 11
205.0
 21
58.5
 31
0.0
  0
LINE
  8
0
  6
CONTINUOUS
 62
     2
 10
174.0
 20
58.5
 30
0.0
 11
176.0
 21
58.5
 31
0.0
  0
LINE
  8
0
  6
CONTINUOUS
 62
     2
 10
176.0
 20
55.0
 30
0.0
 11
176.0
 21
58.5
 31
0.0
  0
LINE
  8
0
  6
CONTINUOUS
 62
     2
 10
174.0
 20
55.0
 30
0.0
 11
176.0
 21
55.0
 31
0.0
  0
LINE
  8
0
  6
CONTINUOUS
 62
     2
 10
174.0
 20
55.0
 30
0.0
 11
174.0
 21
58.5
 31
0.0
  0
LINE
  8
0
  6
CONTINUOUS
 62
     2
 10
176.0
 20
58.5
 30
0.0
 11
174.0
 21
55.0
 31
0.0
  0
LINE
  8
0
  6
CONTINUOUS
 62
     2
 10
175.0
 20
49.0
 30
0.0
 11
175.0
 21
55.0
 31
0.0
  0
CIRCLE
  8
0
  6
CONTINUOUS
 62
     2
 10
175.0
 20
62.5
 30
0.0
 40
0.75
  0
LINE
  8
0
  6
CONTINUOUS
 62
     2
 10
175.0
 20
61.75
 30
0.0
 11
175.0
 21
58.5
 31
0.0
  0
CIRCLE
  8
0
  6
CONTINUOUS
 62
     2
 10
220.0
 20
62.5
 30
0.0
 40
0.75
  0
LINE
  8
0
  6
CONTINUOUS
 62
     2
 10
220.0
 20
61.75
 30
0.0
 11
220.0
 21
53.0
 31
0.0
  0
TEXT
  8
0
  6
CONTINUOUS
 62
     2
 10
218.418
 20
64.005
 30
0.3
 40
3.0
  1
０
 50
0.0
 41
0.9
 51
0.0
  7
KANJI9
  0
TEXT
  8
0
  6
CONTINUOUS
 62
     2
 10
173.651
 20
64.005
 30
0.3
 40
3.0
  1
Ｕ
 50
0.0
 41
0.9
 51
0.0
  7
KANJI9
  0
TEXT
  8
0
  6
CONTINUOUS
 62
     2
 10
188.651
 20
64.005
 30
0.3
 40
3.0
  1
Ｖ
 50
0.0
 41
0.9
 51
0.0
  7
KANJI9
  0
TEXT
  8
0
  6
CONTINUOUS
 62
     2
 10
203.651
 20
64.005
 30
0.3
 40
3.0
  1
Ｗ
 50
0.0
 41
0.9
 51
0.0
  7
KANJI9
  0
LINE
  8
0
  6
CONTINUOUS
 62
     2
 10
40.448929172
 20
148.4
 30
0.0
 11
64.448929172
 21
148.4
 31
0.0
  0
TEXT
  8
0
  6
CONTINUOUS
 62
     2
 10
40.448929172
 20
148.9
 30
0.3
 40
3.0
  1
４－Ｍ６一次端子
 50
0.0
 41
0.9
 51
0.0
  7
KANJI9
  0
TEXT
  8
0
  6
CONTINUOUS
 62
     2
 10
22.879096231
 20
90.5
 30
0.3
 40
3.0
  1
４－Ｍ５二次端子
 50
0.0
 41
0.9
 51
0.0
  7
KANJI9
  0
LINE
  8
0
  6
CONTINUOUS
 62
     2
 10
46.879096231
 20
90.0
 30
0.0
 11
21.117096231
 21
90.0
 31
0.0
  0
LINE
  8
0
  6
CONTINUOUS
 62
     2
 10
115.0
 20
30.0
 30
0.0
 11
115.647047613
 21
32.414814566
 31
0.0
  0
LINE
  8
0
  6
CONTINUOUS
 62
     2
 10
115.0
 20
30.0
 30
0.0
 11
114.352952387
 21
32.414814566
 31
0.0
  0
LINE
  8
0
  6
CONTINUOUS
 62
     2
 10
115.0
 20
30.0
 30
0.0
 11
115.0
 21
67.0
 31
0.0
  0
LINE
  8
0
  6
CONTINUOUS
 62
     2
 10
115.0
 20
67.0
 30
0.0
 11
114.352952387
 21
64.585185434
 31
0.0
  0
LINE
  8
0
  6
CONTINUOUS
 62
     2
 10
115.0
 20
67.0
 30
0.0
 11
115.647047613
 21
64.585185434
 31
0.0
  0
LINE
  8
0
  6
CONTINUOUS
 62
     2
 10
78.912564489
 20
67.0
 30
0.0
 11
116.0
 21
67.0
 31
0.0
  0
TEXT
  8
0
  6
CONTINUOUS
 62
     2
 10
114.5
 20
45.754
 30
0.3
 40
3.0
  1
１８５
 50
90.0
 41
0.6
 51
0.0
  7
KANJI10
  0
LINE
  8
0
  6
CONTINUOUS
 62
     2
 10
30.0
 20
29.0
 30
0.0
 11
30.0
 21
23.0
 31
0.0
  0
LINE
  8
0
  6
CONTINUOUS
 62
     2
 10
30.0
 20
24.0
 30
0.0
 11
32.414814566
 21
23.352952387
 31
0.0
  0
LINE
  8
0
  6
CONTINUOUS
 62
     2
 10
30.0
 20
24.0
 30
0.0
 11
32.414814566
 21
24.647047613
 31
0.0
  0
LINE
  8
0
  6
CONTINUOUS
 62
     2
 10
30.0
 20
24.0
 30
0.0
 11
60.0
 21
24.0
 31
0.0
  0
LINE
  8
0
  6
CONTINUOUS
 62
     2
 10
60.0
 20
24.0
 30
0.0
 11
57.585185434
 21
24.647047613
 31
0.0
  0
LINE
  8
0
  6
CONTINUOUS
 62
     2
 10
60.0
 20
24.0
 30
0.0
 11
57.585185434
 21
23.352952387
 31
0.0
  0
LINE
  8
0
  6
CONTINUOUS
 62
     2
 10
60.0
 20
29.0
 30
0.0
 11
60.0
 21
23.0
 31
0.0
  0
LINE
  8
0
  6
CONTINUOUS
 62
     2
 10
60.0
 20
24.0
 30
0.0
 11
62.414814566
 21
23.352952387
 31
0.0
  0
LINE
  8
0
  6
CONTINUOUS
 62
     2
 10
60.0
 20
24.0
 30
0.0
 11
62.414814566
 21
24.647047613
 31
0.0
  0
LINE
  8
0
  6
CONTINUOUS
 62
     2
 10
60.0
 20
24.0
 30
0.0
 11
90.0
 21
24.0
 31
0.0
  0
LINE
  8
0
  6
CONTINUOUS
 62
     2
 10
90.0
 20
24.0
 30
0.0
 11
87.585185434
 21
24.647047613
 31
0.0
  0
LINE
  8
0
  6
CONTINUOUS
 62
     2
 10
90.0
 20
24.0
 30
0.0
 11
87.585185434
 21
23.352952387
 31
0.0
  0
LINE
  8
0
  6
CONTINUOUS
 62
     2
 10
90.0
 20
29.0
 30
0.0
 11
90.0
 21
23.0
 31
0.0
  0
TEXT
  8
0
  6
CONTINUOUS
 62
     2
 10
42.126
 20
24.5
 30
0.3
 40
3.0
  1
１５０
 50
0.0
 41
0.6
 51
0.0
  7
KANJI10
  0
TEXT
  8
0
  6
CONTINUOUS
 62
     2
 10
71.884
 20
24.5
 30
0.3
 40
3.0
  1
１５０
 50
0.0
 41
0.6
 51
0.0
  7
KANJI10
  0
LINE
  8
0
  6
CONTINUOUS
 62
     2
 10
17.0
 20
29.0
 30
0.0
 11
17.0
 21
17.0
 31
0.0
  0
LINE
  8
0
  6
CONTINUOUS
 62
     2
 10
17.0
 20
18.0
 30
0.0
 11
19.414814566
 21
17.352952387
 31
0.0
  0
LINE
  8
0
  6
CONTINUOUS
 62
     2
 10
17.0
 20
18.0
 30
0.0
 11
19.414814566
 21
18.647047613
 31
0.0
  0
LINE
  8
0
  6
CONTINUOUS
 62
     2
 10
17.0
 20
18.0
 30
0.0
 11
103.0
 21
18.0
 31
0.0
  0
LINE
  8
0
  6
CONTINUOUS
 62
     2
 10
103.0
 20
18.0
 30
0.0
 11
100.585185434
 21
18.647047613
 31
0.0
  0
LINE
  8
0
  6
CONTINUOUS
 62
     2
 10
103.0
 20
18.0
 30
0.0
 11
100.585185434
 21
17.352952387
 31
0.0
  0
LINE
  8
0
  6
CONTINUOUS
 62
     2
 10
103.0
 20
29.0
 30
0.0
 11
103.0
 21
17.0
 31
0.0
  0
LINE
  8
0
  6
CONTINUOUS
 62
     2
 10
45.369695155
 20
12.0
 30
0.0
 11
19.607695155
 21
12.0
 31
0.0
  0
TEXT
  8
0
  6
CONTINUOUS
 62
     2
 10
21.921390309
 20
12.5
 30
0.3
 40
3.0
  1
６－φ１０．５穴
 50
0.0
 41
0.9
 51
0.0
  7
KANJI9
  0
LINE
  8
0
  6
CONTINUOUS
 62
     2
 10
104.0
 20
30.0
 30
0.0
 11
110.0
 21
30.0
 31
0.0
  0
LINE
  8
0
  6
CONTINUOUS
 62
     2
 10
109.0
 20
30.0
 30
0.0
 11
109.647047613
 21
32.414814566
 31
0.0
  0
LINE
  8
0
  6
CONTINUOUS
 62
     2
 10
109.0
 20
30.0
 30
0.0
 11
108.352952387
 21
32.414814566
 31
0.0
  0
LINE
  8
0
  6
CONTINUOUS
 62
     2
 10
109.0
 20
30.0
 30
0.0
 11
109.0
 21
45.8
 31
0.0
  0
LINE
  8
0
  6
CONTINUOUS
 62
     2
 10
109.0
 20
45.8
 30
0.0
 11
108.352952387
 21
43.385185434
 31
0.0
  0
LINE
  8
0
  6
CONTINUOUS
 62
     2
 10
109.0
 20
45.8
 30
0.0
 11
109.647047613
 21
43.385185434
 31
0.0
  0
LINE
  8
0
  6
CONTINUOUS
 62
     2
 10
104.0
 20
45.8
 30
0.0
 11
110.0
 21
45.8
 31
0.0
  0
TEXT
  8
0
  6
CONTINUOUS
 62
     2
 10
108.5
 20
36.14
 30
0.3
 40
3.0
  1
７９
 50
90.0
 41
0.6
 51
0.0
  7
KANJI10
  0
LINE
  8
0
  6
CONTINUOUS
 62
     2
 10
104.0
 20
30.0
 30
0.0
 11
116.0
 21
30.0
 31
0.0
  0
LINE
  8
0
  6
CONTINUOUS
 62
     2
 10
30.0
 20
30.0
 30
0.0
 11
28.232233047
 21
28.232233047
 31
0.0
  0
LINE
  8
0
  6
CONTINUOUS
 62
     2
 10
30.0
 20
30.0
 30
0.0
 11
29.352952387
 21
27.585185434
 31
0.0
  0
LINE
  8
0
  6
CONTINUOUS
 62
     2
 10
30.0
 20
30.0
 30
0.0
 11
19.607695155
 21
12.0
 31
0.0
  0
LINE
  8
0
  6
CONTINUOUS
 62
     2
 10
29.2
 20
104.0
 30
0.0
 11
27.432233047
 21
102.232233047
 31
0.0
  0
LINE
  8
0
  6
CONTINUOUS
 62
     2
 10
29.2
 20
104.0
 30
0.0
 11
28.552952387
 21
101.585185434
 31
0.0
  0
LINE
  8
0
  6
CONTINUOUS
 62
     2
 10
29.2
 20
104.0
 30
0.0
 11
21.117096231
 21
90.0
 31
0.0
  0
LINE
  8
0
  6
CONTINUOUS
 62
     2
 10
31.5
 20
132.9
 30
0.0
 11
33.267766953
 21
134.667766953
 31
0.0
  0
LINE
  8
0
  6
CONTINUOUS
 62
     2
 10
31.5
 20
132.9
 30
0.0
 11
32.147047613
 21
135.314814566
 31
0.0
  0
LINE
  8
0
  6
CONTINUOUS
 62
     2
 10
31.5
 20
132.9
 30
0.0
 11
40.448929172
 21
148.4
 31
0.0
  0
LINE
  8
0
  6
CONTINUOUS
 62
     2
 10
90.8
 20
104.0
 30
0.0
 11
90.152952387
 21
101.585185434
 31
0.0
  0
LINE
  8
0
  6
CONTINUOUS
 62
     2
 10
90.8
 20
104.0
 30
0.0
 11
89.032233047
 21
102.232233047
 31
0.0
  0
LINE
  8
0
  6
CONTINUOUS
 62
     2
 10
90.8
 20
104.0
 30
0.0
 11
82.717096231
 21
90.0
 31
0.0
  0
LINE
  8
0
  6
CONTINUOUS
 62
     2
 10
108.479096231
 20
90.0
 30
0.0
 11
82.717096231
 21
90.0
 31
0.0
  0
TEXT
  8
0
  6
CONTINUOUS
 62
     2
 10
84.479096231
 20
90.5
 30
0.3
 40
3.0
  1
４－Ｍ５三次端子
 50
0.0
 41
0.9
 51
0.0
  7
KANJI9
  0
TEXT
  8
0
  6
CONTINUOUS
 62
     2
 10
28.148903769
 20
57.807
 30
0.0
 40
2.2
  1
ｕ
 50
0.0
 41
0.909090909
 51
0.0
  7
KANJI11
  0
TEXT
  8
0
  6
CONTINUOUS
 62
     2
 10
40.148903769
 20
57.807
 30
0.3
 40
2.2
  1
ａ
 50
0.0
 41
0.909090909
 51
0.0
  7
KANJI12
  0
TEXT
  8
0
  6
CONTINUOUS
 62
     2
 10
44.748903769
 20
57.807
 30
0.3
 40
2.2
  1
ｂ
 50
0.0
 41
0.909090909
 51
0.0
  7
KANJI12
  0
TEXT
  8
0
  6
CONTINUOUS
 62
     2
 10
32.911903769
 20
57.938
 30
0.3
 40
1.8
  1
０
 50
0.0
 41
1.0
 51
0.0
  7
KANJI13
  0
TEXT
  8
0
  6
CONTINUOUS
 62
     2
 10
55.411903769
 20
57.938
 30
0.3
 40
1.8
  1
０
 50
0.0
 41
1.0
 51
0.0
  7
KANJI13
  0
TEXT
  8
0
  6
CONTINUOUS
 62
     2
 10
77.911903769
 20
57.938
 30
0.3
 40
1.8
  1
０
 50
0.0
 41
1.0
 51
0.0
  7
KANJI13
  0
TEXT
  8
0
  6
CONTINUOUS
 62
     2
 10
85.148903769
 20
57.807
 30
0.3
 40
2.2
  1
ｃ
 50
0.0
 41
0.909090909
 51
0.0
  7
KANJI12
  0
TEXT
  8
0
  6
CONTINUOUS
 62
     2
 10
89.748903769
 20
57.807
 30
0.3
 40
2.2
  1
ｆ
 50
0.0
 41
0.909090909
 51
0.0
  7
KANJI12
  0
TEXT
  8
0
  6
CONTINUOUS
 62
     2
 10
73.148903769
 20
57.807
 30
0.0
 40
2.2
  1
ｗ
 50
0.0
 41
0.909090909
 51
0.0
  7
KANJI11
  0
TEXT
  8
0
  6
CONTINUOUS
 62
     2
 10
62.648903769
 20
57.807
 30
0.3
 40
2.2
  1
ｂ
 50
0.0
 41
0.909090909
 51
0.0
  7
KANJI12
  0
TEXT
  8
0
  6
CONTINUOUS
 62
     2
 10
67.248903769
 20
57.807
 30
0.3
 40
2.2
  1
ｃ
 50
0.0
 41
0.909090909
 51
0.0
  7
KANJI12
  0
TEXT
  8
0
  6
CONTINUOUS
 62
     2
 10
50.648903769
 20
57.807
 30
0.0
 40
2.2
  1
ｖ
 50
0.0
 41
0.909090909
 51
0.0
  7
KANJI11
  0
TEXT
  8
0
  6
CONTINUOUS
 62
     2
 10
30.201
 20
69.512
 30
0.3
 40
3.0
  1
Ｕ
 50
0.0
 41
0.9
 51
0.0
  7
KANJI9
  0
TEXT
  8
0
  6
CONTINUOUS
 62
     2
 10
93.372
 20
62.049
 30
0.3
 40
3.0
  1
０
 50
0.0
 41
0.9
 51
0.0
  7
KANJI9
  0
TEXT
  8
0
  6
CONTINUOUS
 62
     2
 10
52.701
 20
69.512
 30
0.3
 40
3.0
  1
Ｖ
 50
0.0
 41
0.9
 51
0.0
  7
KANJI9
  0
TEXT
  8
0
  6
CONTINUOUS
 62
     2
 10
75.201
 20
69.512
 30
0.3
 40
3.0
  1
Ｗ
 50
0.0
 41
0.9
 51
0.0
  7
KANJI9
  0
CIRCLE
  8
0
  6
CONTINUOUS
 62
     2
 10
175.0
 20
22.0
 30
0.0
 40
0.75
  0
LINE
  8
0
  6
CONTINUOUS
 62
     2
 10
175.0
 20
41.0
 30
0.0
 11
175.0
 21
22.75
 31
0.0
  0
LINE
  8
0
  6
CONTINUOUS
 62
     2
 10
190.0
 20
41.0
 30
0.0
 11
190.0
 21
22.75
 31
0.0
  0
LINE
  8
0
  6
CONTINUOUS
 62
     2
 10
205.0
 20
41.0
 30
0.0
 11
205.0
 21
22.75
 31
0.0
  0
CIRCLE
  8
0
  6
CONTINUOUS
 62
     2
 10
190.0
 20
22.0
 30
0.0
 40
0.75
  0
CIRCLE
  8
0
  6
CONTINUOUS
 62
     2
 10
205.0
 20
22.0
 30
0.0
 40
0.75
  0
CIRCLE
  8
0
  6
CONTINUOUS
 62
     2
 10
220.0
 20
22.0
 30
0.0
 40
0.75
  0
LINE
  8
0
  6
CONTINUOUS
 62
     2
 10
220.0
 20
37.0
 30
0.0
 11
220.0
 21
22.75
 31
0.0
  0
TEXT
  8
0
  6
CONTINUOUS
 62
     2
 10
173.418
 20
17.601
 30
0.35
 40
3.5
  1
ｕ
 50
0.0
 41
0.9
 51
0.0
  7
KANJI0
  0
TEXT
  8
0
  6
CONTINUOUS
 62
     2
 10
188.418
 20
17.601
 30
0.35
 40
3.5
  1
ｖ
 50
0.0
 41
0.9
 51
0.0
  7
KANJI0
  0
TEXT
  8
0
  6
CONTINUOUS
 62
     2
 10
203.418
 20
17.601
 30
0.35
 40
3.5
  1
ｗ
 50
0.0
 41
0.9
 51
0.0
  7
KANJI0
  0
TEXT
  8
0
  6
CONTINUOUS
 62
     2
 10
218.418
 20
17.601
 30
0.3
 40
3.0
  1
０
 50
0.0
 41
0.9
 51
0.0
  7
KANJI9
  0
TEXT
  8
0
  6
CONTINUOUS
 62
     2
 10
176.418
 20
22.601
 30
0.35
 40
3.5
  1
ａ
 50
0.0
 41
0.9
 51
0.0
  7
KANJI0
  0
TEXT
  8
0
  6
CONTINUOUS
 62
     2
 10
191.418
 20
22.601
 30
0.35
 40
3.5
  1
ｂ
 50
0.0
 41
0.9
 51
0.0
  7
KANJI0
  0
TEXT
  8
0
  6
CONTINUOUS
 62
     2
 10
206.418
 20
22.601
 30
0.35
 40
3.5
  1
ｃ
 50
0.0
 41
0.9
 51
0.0
  7
KANJI0
  0
TEXT
  8
0
  6
CONTINUOUS
 62
     2
 10
213.918
 20
22.601
 30
0.35
 40
3.5
  1
ｆ
 50
0.0
 41
0.9
 51
0.0
  7
KANJI0
  0
TEXT
  8
0
  6
CONTINUOUS
 62
     2
 10
176.089
 20
100.25
 30
0.35
 40
3.5
  1
ＪＥＣ－１２０１
 50
0.0
 41
0.9
 51
0.0
  7
KANJI0
  0
LINE
  8
0
  6
LTYPE1
 62
     2
 10
104.0
 20
45.8
 30
0.0
 11
13.0
 21
45.8
 31
0.0
  0
TEXT
  8
0
  6
CONTINUOUS
 62
     2
 10
167.485390309
 20
51.005
 30
0.3
 40
3.0
  1
一次
 50
0.0
 41
0.9
 51
0.0
  7
KANJI9
  0
TEXT
  8
0
  6
CONTINUOUS
 62
     2
 10
167.485390309
 20
31.005
 30
0.3
 40
3.0
  1
三次
 50
0.0
 41
0.9
 51
0.0
  7
KANJI9
  0
TEXT
  8
0
  6
CONTINUOUS
 62
     2
 10
167.485390309
 20
39.678
 30
0.3
 40
3.0
  1
二次
 50
0.0
 41
0.9
 51
0.0
  7
KANJI9
  0
LINE
  8
0
  6
CONTINUOUS
 62
     2
 10
25.0
 20
38.5
 30
0.0
 11
25.0
 21
37.5
 31
0.0
  0
LINE
  8
0
  6
CONTINUOUS
 62
     2
 10
95.0
 20
38.5
 30
0.0
 11
95.0
 21
37.5
 31
0.0
  0
LINE
  8
0
  6
CONTINUOUS
 62
     2
 10
25.0
 20
37.5
 30
0.0
 11
18.5
 21
37.5
 31
0.0
  0
ARC
  8
0
  6
CONTINUOUS
 62
     2
 10
18.5
 20
37.0
 30
0.0
 40
0.5
 50
90.0
 51
180.0
  0
LINE
  8
0
  6
CONTINUOUS
 62
     2
 10
18.0
 20
37.0
 30
0.0
 11
18.0
 21
31.5
 31
0.0
  0
LINE
  8
0
  6
CONTINUOUS
 62
     2
 10
101.5
 20
37.5
 30
0.0
 11
95.0
 21
37.5
 31
0.0
  0
LINE
  8
0
  6
CONTINUOUS
 62
     2
 10
102.0
 20
37.0
 30
0.0
 11
102.0
 21
31.5
 31
0.0
  0
ARC
  8
0
  6
CONTINUOUS
 62
     2
 10
101.5
 20
37.0
 30
0.0
 40
0.5
 50
0.0
 51
90.0
  0
ARC
  8
0
  6
CONTINUOUS
 62
     2
 10
102.0
 20
37.5
 30
0.0
 40
1.0
 50
0.0
 51
90.0
  0
LINE
  8
0
  6
CONTINUOUS
 62
     2
 10
103.0
 20
37.5
 30
0.0
 11
103.0
 21
31.0
 31
0.0
  0
ARC
  8
0
  6
CONTINUOUS
 62
     2
 10
18.0
 20
37.5
 30
0.0
 40
1.0
 50
90.0
 51
180.0
  0
LINE
  8
0
  6
CONTINUOUS
 62
     2
 10
17.0
 20
37.5
 30
0.0
 11
17.0
 21
31.0
 31
0.0
  0
LINE
  8
0
  6
CONTINUOUS
 62
     2
 10
49.0
 20
37.5
 30
0.0
 11
49.0
 21
38.5
 31
0.0
  0
ARC
  8
0
  6
CONTINUOUS
 62
     2
 10
52.0
 20
37.5
 30
0.0
 40
3.0
 50
180.0
 51
270.0
  0
LINE
  8
0
  6
CONTINUOUS
 62
     2
 10
71.0
 20
37.5
 30
0.0
 11
71.0
 21
38.5
 31
0.0
  0
LINE
  8
0
  6
CONTINUOUS
 62
     2
 10
68.0
 20
34.5
 30
0.0
 11
52.0
 21
34.5
 31
0.0
  0
ARC
  8
0
  6
CONTINUOUS
 62
     2
 10
68.0
 20
37.5
 30
0.0
 40
3.0
 50
270.0
 51
0.0
  0
LINE
  8
0
  6
CONTINUOUS
 62
     2
 10
26.5
 20
37.5
 30
0.0
 11
26.5
 21
38.5
 31
0.0
  0
ARC
  8
0
  6
CONTINUOUS
 62
     2
 10
29.5
 20
37.5
 30
0.0
 40
3.0
 50
180.0
 51
270.0
  0
LINE
  8
0
  6
CONTINUOUS
 62
     2
 10
48.5
 20
37.5
 30
0.0
 11
48.5
 21
38.5
 31
0.0
  0
LINE
  8
0
  6
CONTINUOUS
 62
     2
 10
45.5
 20
34.5
 30
0.0
 11
29.5
 21
34.5
 31
0.0
  0
ARC
  8
0
  6
CONTINUOUS
 62
     2
 10
45.5
 20
37.5
 30
0.0
 40
3.0
 50
270.0
 51
0.0
  0
LINE
  8
0
  6
CONTINUOUS
 62
     2
 10
71.5
 20
37.5
 30
0.0
 11
71.5
 21
38.5
 31
0.0
  0
ARC
  8
0
  6
CONTINUOUS
 62
     2
 10
74.5
 20
37.5
 30
0.0
 40
3.0
 50
180.0
 51
270.0
  0
LINE
  8
0
  6
CONTINUOUS
 62
     2
 10
93.5
 20
37.5
 30
0.0
 11
93.5
 21
38.5
 31
0.0
  0
LINE
  8
0
  6
CONTINUOUS
 62
     2
 10
90.5
 20
34.5
 30
0.0
 11
74.5
 21
34.5
 31
0.0
  0
ARC
  8
0
  6
CONTINUOUS
 62
     2
 10
90.5
 20
37.5
 30
0.0
 40
3.0
 50
270.0
 51
0.0
  0
LINE
  8
0
  6
CONTINUOUS
 62
     2
 10
98.5
 20
37.5
 30
0.0
 11
98.5
 21
35.8
 31
0.0
  0
LINE
  8
0
  6
CONTINUOUS
 62
     2
 10
99.5
 20
35.8
 30
0.0
 11
98.5
 21
35.8
 31
0.0
  0
LINE
  8
0
  6
CONTINUOUS
 62
     2
 10
99.5
 20
37.5
 30
0.0
 11
99.5
 21
35.8
 31
0.0
  0
LINE
  8
0
  6
CONTINUOUS
 62
     2
 10
100.5
 20
37.5
 30
0.0
 11
100.5
 21
36.5
 31
0.0
  0
LINE
  8
0
  6
CONTINUOUS
 62
     2
 10
100.5
 20
36.5
 30
0.0
 11
97.5
 21
36.5
 31
0.0
  0
LINE
  8
0
  6
CONTINUOUS
 62
     2
 10
97.5
 20
37.5
 30
0.0
 11
97.5
 21
36.5
 31
0.0
  0
LINE
  8
0
  6
CONTINUOUS
 62
     2
 10
21.5
 20
37.5
 30
0.0
 11
21.5
 21
35.8
 31
0.0
  0
LINE
  8
0
  6
CONTINUOUS
 62
     2
 10
20.5
 20
35.8
 30
0.0
 11
21.5
 21
35.8
 31
0.0
  0
LINE
  8
0
  6
CONTINUOUS
 62
     2
 10
20.5
 20
37.5
 30
0.0
 11
20.5
 21
35.8
 31
0.0
  0
LINE
  8
0
  6
CONTINUOUS
 62
     2
 10
19.5
 20
37.5
 30
0.0
 11
19.5
 21
36.5
 31
0.0
  0
LINE
  8
0
  6
CONTINUOUS
 62
     2
 10
19.5
 20
36.5
 30
0.0
 11
22.5
 21
36.5
 31
0.0
  0
LINE
  8
0
  6
CONTINUOUS
 62
     2
 10
22.5
 20
37.5
 30
0.0
 11
22.5
 21
36.5
 31
0.0
  0
LINE
  8
0
  6
CONTINUOUS
 62
     2
 10
60.5
 20
38.5
 30
0.0
 11
60.5
 21
36.8
 31
0.0
  0
LINE
  8
0
  6
CONTINUOUS
 62
     2
 10
59.5
 20
36.8
 30
0.0
 11
60.5
 21
36.8
 31
0.0
  0
LINE
  8
0
  6
CONTINUOUS
 62
     2
 10
59.5
 20
38.5
 30
0.0
 11
59.5
 21
36.8
 31
0.0
  0
LINE
  8
0
  6
CONTINUOUS
 62
     2
 10
58.5
 20
38.5
 30
0.0
 11
58.5
 21
37.5
 31
0.0
  0
LINE
  8
0
  6
CONTINUOUS
 62
     2
 10
58.5
 20
37.5
 30
0.0
 11
61.5
 21
37.5
 31
0.0
  0
LINE
  8
0
  6
CONTINUOUS
 62
     2
 10
61.5
 20
38.5
 30
0.0
 11
61.5
 21
37.5
 31
0.0
  0
LINE
  8
0
  6
CONTINUOUS
 62
     2
 10
58.5
 20
54.1
 30
0.0
 11
61.5
 21
54.1
 31
0.0
  0
LINE
  8
0
  6
CONTINUOUS
 62
     2
 10
61.5
 20
53.1
 30
0.0
 11
61.5
 21
54.1
 31
0.0
  0
LINE
  8
0
  6
CONTINUOUS
 62
     2
 10
60.5
 20
53.1
 30
0.0
 11
60.5
 21
54.1
 31
0.0
  0
LINE
  8
0
  6
CONTINUOUS
 62
     2
 10
58.5
 20
53.1
 30
0.0
 11
58.5
 21
54.1
 31
0.0
  0
LINE
  8
0
  6
CONTINUOUS
 62
     2
 10
59.5
 20
53.1
 30
0.0
 11
59.5
 21
54.1
 31
0.0
  0
LINE
  8
0
  6
CONTINUOUS
 62
     2
 10
19.5
 20
54.1
 30
0.0
 11
22.5
 21
54.1
 31
0.0
  0
LINE
  8
0
  6
CONTINUOUS
 62
     2
 10
22.5
 20
53.1
 30
0.0
 11
22.5
 21
54.1
 31
0.0
  0
LINE
  8
0
  6
CONTINUOUS
 62
     2
 10
21.5
 20
53.1
 30
0.0
 11
21.5
 21
54.1
 31
0.0
  0
LINE
  8
0
  6
CONTINUOUS
 62
     2
 10
19.5
 20
53.1
 30
0.0
 11
19.5
 21
54.1
 31
0.0
  0
LINE
  8
0
  6
CONTINUOUS
 62
     2
 10
20.5
 20
53.1
 30
0.0
 11
20.5
 21
54.1
 31
0.0
  0
LINE
  8
0
  6
CONTINUOUS
 62
     2
 10
100.5
 20
53.1
 30
0.0
 11
100.5
 21
54.1
 31
0.0
  0
LINE
  8
0
  6
CONTINUOUS
 62
     2
 10
100.5
 20
54.1
 30
0.0
 11
97.5
 21
54.1
 31
0.0
  0
LINE
  8
0
  6
CONTINUOUS
 62
     2
 10
99.5
 20
53.1
 30
0.0
 11
99.5
 21
54.1
 31
0.0
  0
LINE
  8
0
  6
CONTINUOUS
 62
     2
 10
97.5
 20
53.1
 30
0.0
 11
97.5
 21
54.1
 31
0.0
  0
LINE
  8
0
  6
CONTINUOUS
 62
     2
 10
98.5
 20
53.1
 30
0.0
 11
98.5
 21
54.1
 31
0.0
  0
LINE
  8
0
  6
CONTINUOUS
 62
     2
 10
103.0
 20
53.1
 30
0.0
 11
17.0
 21
53.1
 31
0.0
  0
TEXT
  8
0
  6
CONTINUOUS
 62
     2
 10
188.436
 20
69.687
 30
0.35
 40
3.5
  1
内部結線図
 50
0.0
 41
0.9
 51
0.0
  7
KANJI0
  0
LINE
  8
0
  6
CONTINUOUS
 62
     2
 10
187.08
 20
69.031
 30
0.0
 11
207.266
 21
69.031
 31
0.0
  0
LINE
  8
0
  6
CONTINUOUS
 62
     2
 10
67.0
 20
48.8
 30
0.0
 11
53.0
 21
48.8
 31
0.0
  0
LINE
  8
0
  6
CONTINUOUS
 62
     2
 10
67.0
 20
40.8
 30
0.0
 11
67.0
 21
48.8
 31
0.0
  0
POLYLINE
  8
0
  6
CONTINUOUS
 62
     2
 66
     1
  0
VERTEX
  8
0
  6
CONTINUOUS
 62
     2
 10
67.0
 20
40.8
 30
0.0
  0
VERTEX
  8
0
  6
CONTINUOUS
 62
     2
 10
53.0
 20
40.8
 30
0.0
  0
VERTEX
  8
0
  6
CONTINUOUS
 62
     2
 10
53.0
 20
48.8
 30
0.0
  0
SEQEND
  0
TEXT
  8
0
  6
CONTINUOUS
 62
     2
 10
55.148
 20
43.013
 30
0.35
 40
3.5
  1
Ｎ．Ｐ．
 50
0.0
 41
0.9
 51
0.0
  7
KANJI0
  0
TEXT
  8
0
  6
CONTINUOUS
 62
     2
 10
57.100829072
 20
18.5
 30
0.3
 40
3.0
  1
４３０
 50
0.0
 41
0.6
 51
0.0
  7
KANJI10
  0
LINE
  8
0
  6
CONTINUOUS
 62
     2
 10
103.0
 20
44.3
 30
0.0
 11
67.0
 21
44.3
 31
0.0
  0
LINE
  8
0
  6
CONTINUOUS
 62
     2
 10
103.0
 20
42.3
 30
0.0
 11
67.0
 21
42.3
 31
0.0
  0
LINE
  8
0
  6
CONTINUOUS
 62
     2
 10
53.0
 20
44.3
 30
0.0
 11
17.0
 21
44.3
 31
0.0
  0
LINE
  8
0
  6
CONTINUOUS
 62
     2
 10
53.0
 20
42.3
 30
0.0
 11
17.0
 21
42.3
 31
0.0
  0
LINE
  8
0
  6
CONTINUOUS
 62
     2
 10
129.0
 20
52.2
 30
0.0
 11
129.0
 21
61.0
 31
0.0
  0
ARC
  8
0
  6
CONTINUOUS
 62
     2
 10
130.5
 20
61.0
 30
0.0
 40
1.5
 50
90.0
 51
180.0
  0
LINE
  8
0
  6
CONTINUOUS
 62
     2
 10
151.0
 20
52.2
 30
0.0
 11
151.0
 21
61.0
 31
0.0
  0
ARC
  8
0
  6
CONTINUOUS
 62
     2
 10
149.5
 20
61.0
 30
0.0
 40
1.5
 50
0.0
 51
90.0
  0
ARC
  8
0
  6
CONTINUOUS
 62
     2
 10
130.5
 20
58.5
 30
0.0
 40
1.5
 50
90.0
 51
180.0
  0
LINE
  8
0
  6
CONTINUOUS
 62
     2
 10
149.500002697
 20
60.0
 30
0.0
 11
130.5
 21
60.0
 31
0.0
  0
ARC
  8
0
  6
CONTINUOUS
 62
     2
 10
149.5
 20
58.5
 30
0.0
 40
1.5
 50
0.0
 51
89.999896967
  0
LINE
  8
0
  6
CONTINUOUS
 62
     2
 10
128.5
 20
30.0
 30
0.0
 11
120.8
 21
30.0
 31
0.0
  0
LINE
  8
0
  6
CONTINUOUS
 62
     2
 10
151.5
 20
30.0
 30
0.0
 11
159.2
 21
30.0
 31
0.0
  0
LINE
  8
0
  6
LTYPE2
 62
     2
 10
128.5
 20
31.0
 30
0.0
 11
120.8
 21
31.0
 31
0.0
  0
LINE
  8
0
  6
LTYPE2
 62
     2
 10
151.5
 20
31.0
 30
0.0
 11
159.2
 21
31.0
 31
0.0
  0
LINE
  8
0
  6
CONTINUOUS
 62
     2
 10
127.0
 20
56.7
 30
0.0
 11
129.0
 21
57.4
 31
0.0
  0
LINE
  8
0
  6
CONTINUOUS
 62
     2
 10
127.0
 20
54.7
 30
0.0
 11
127.0
 21
56.7
 31
0.0
  0
LINE
  8
0
  6
CONTINUOUS
 62
     2
 10
126.8
 20
54.7
 30
0.0
 11
126.8
 21
56.7
 31
0.0
  0
LINE
  8
0
  6
CONTINUOUS
 62
     2
 10
127.0
 20
54.7
 30
0.0
 11
129.0
 21
54.0
 31
0.0
  0
LINE
  8
0
  6
CONTINUOUS
 62
     2
 10
127.0
 20
56.7
 30
0.0
 11
126.8
 21
56.7
 31
0.0
  0
LINE
  8
0
  6
CONTINUOUS
 62
     2
 10
127.0
 20
54.7
 30
0.0
 11
126.8
 21
54.7
 31
0.0
  0
ARC
  8
0
  6
CONTINUOUS
 62
     2
 10
126.851785714
 20
55.7
 30
0.0
 40
0.751785714
 50
93.949868022
 51
266.050131978
  0
LINE
  8
0
  6
LTYPE1
 62
     2
 10
125.5
 20
55.7
 30
0.0
 11
130.102
 21
55.7
 31
0.0
  0
LINE
  8
0
  6
CONTINUOUS
 62
     2
 10
138.5
 20
67.0
 30
0.0
 11
136.0
 21
67.0
 31
0.0
  0
LINE
  8
0
  6
CONTINUOUS
 62
     2
 10
138.5
 20
62.5
 30
0.0
 11
138.5
 21
67.0
 31
0.0
  0
LINE
  8
0
  6
CONTINUOUS
 62
     2
 10
136.0
 20
62.5
 30
0.0
 11
136.0
 21
67.0
 31
0.0
  0
LINE
  8
0
  6
CONTINUOUS
 62
     2
 10
138.5
 20
66.01281761
 30
0.0
 11
136.0
 21
66.01281761
 31
0.0
  0
LINE
  8
0
  6
CONTINUOUS
 62
     2
 10
138.5
 20
63.01281761
 30
0.0
 11
136.0
 21
63.01281761
 31
0.0
  0
LINE
  8
0
  6
CONTINUOUS
 62
     2
 10
151.0
 20
67.0
 30
0.0
 11
148.5
 21
67.0
 31
0.0
  0
LINE
  8
0
  6
CONTINUOUS
 62
     2
 10
148.5
 20
62.5
 30
0.0
 11
148.5
 21
67.0
 31
0.0
  0
LINE
  8
0
  6
CONTINUOUS
 62
     2
 10
151.0
 20
66.01281761
 30
0.0
 11
148.5
 21
66.01281761
 31
0.0
  0
LINE
  8
0
  6
CONTINUOUS
 62
     2
 10
151.0
 20
63.01281761
 30
0.0
 11
148.5
 21
63.01281761
 31
0.0
  0
LINE
  8
0
  6
CONTINUOUS
 62
     2
 10
138.5
 20
66.25
 30
0.0
 11
148.5
 21
66.25
 31
0.0
  0
LINE
  8
0
  6
CONTINUOUS
 62
     2
 10
138.5
 20
62.75
 30
0.0
 11
148.5
 21
62.75
 31
0.0
  0
POLYLINE
  8
0
  6
CONTINUOUS
 62
     2
 66
     1
  0
VERTEX
  8
0
  6
CONTINUOUS
 62
     2
 10
130.5
 20
62.5
 30
0.0
  0
VERTEX
  8
0
  6
CONTINUOUS
 62
     2
 10
151.0
 20
62.5
 30
0.0
  0
VERTEX
  8
0
  6
CONTINUOUS
 62
     2
 10
151.0
 20
67.0
 30
0.0
  0
SEQEND
  0
LINE
  8
0
  6
CONTINUOUS
 62
     2
 10
133.5
 20
65.0
 30
0.0
 11
131.5
 21
65.0
 31
0.0
  0
LINE
  8
0
  6
LTYPE1
 62
     2
 10
130.5
 20
64.0
 30
0.0
 11
134.5
 21
64.0
 31
0.0
  0
LINE
  8
0
  6
CONTINUOUS
 62
     2
 10
131.5
 20
62.5
 30
0.0
 11
131.5
 21
65.0
 31
0.0
  0
LINE
  8
0
  6
CONTINUOUS
 62
     2
 10
133.5
 20
62.5
 30
0.0
 11
133.5
 21
65.0
 31
0.0
  0
LINE
  8
0
  6
LTYPE1
 62
     2
 10
132.5
 20
62.5
 30
0.0
 11
132.5
 21
66.01281761
 31
0.0
  0
CIRCLE
  8
0
  6
CONTINUOUS
 62
     2
 10
132.5
 20
64.0
 30
0.0
 40
0.5
  0
LINE
  8
0
  6
CONTINUOUS
 62
     2
 10
152.7
 20
67.5
 30
0.0
 11
152.2
 21
67.5
 31
0.0
  0
LINE
  8
0
  6
CONTINUOUS
 62
     2
 10
152.2
 20
64.0
 30
0.0
 11
152.2
 21
67.5
 31
0.0
  0
LINE
  8
0
  6
CONTINUOUS
 62
     2
 10
152.2
 20
64.0
 30
0.0
 11
151.0
 21
64.0
 31
0.0
  0
LINE
  8
0
  6
CONTINUOUS
 62
     2
 10
152.7
 20
63.5
 30
0.0
 11
151.0
 21
63.5
 31
0.0
  0
LINE
  8
0
  6
CONTINUOUS
 62
     2
 10
152.7
 20
63.5
 30
0.0
 11
152.7
 21
67.5
 31
0.0
  0
LINE
  8
0
  6
LTYPE1
 62
     2
 10
151.57
 20
66.0
 30
0.0
 11
153.928
 21
66.0
 31
0.0
  0
LINE
  8
0
  6
CONTINUOUS
 62
     2
 10
153.2
 20
65.5
 30
0.0
 11
153.2
 21
66.5
 31
0.0
  0
LINE
  8
0
  6
CONTINUOUS
 62
     2
 10
152.2
 20
65.5
 30
0.0
 11
153.2
 21
65.5
 31
0.0
  0
LINE
  8
0
  6
CONTINUOUS
 62
     2
 10
152.2
 20
66.5
 30
0.0
 11
153.2
 21
66.5
 31
0.0
  0
LINE
  8
0
  6
LTYPE1
 62
     2
 10
134.359
 20
64.5
 30
0.0
 11
152.2
 21
64.5
 31
0.0
  0
LINE
  8
0
  6
CONTINUOUS
 62
     2
 10
126.0
 20
24.0
 30
0.0
 11
128.414814566
 21
23.352952387
 31
0.0
  0
LINE
  8
0
  6
CONTINUOUS
 62
     2
 10
126.0
 20
24.0
 30
0.0
 11
128.414814566
 21
24.647047613
 31
0.0
  0
LINE
  8
0
  6
CONTINUOUS
 62
     2
 10
126.0
 20
24.0
 30
0.0
 11
154.0
 21
24.0
 31
0.0
  0
LINE
  8
0
  6
CONTINUOUS
 62
     2
 10
154.0
 20
24.0
 30
0.0
 11
151.585185434
 21
24.647047613
 31
0.0
  0
LINE
  8
0
  6
CONTINUOUS
 62
     2
 10
154.0
 20
24.0
 30
0.0
 11
151.585185434
 21
23.352952387
 31
0.0
  0
LINE
  8
0
  6
CONTINUOUS
 62
     2
 10
120.8
 20
29.0
 30
0.0
 11
120.8
 21
17.0
 31
0.0
  0
LINE
  8
0
  6
CONTINUOUS
 62
     2
 10
120.8
 20
18.0
 30
0.0
 11
123.214814566
 21
17.352952387
 31
0.0
  0
LINE
  8
0
  6
CONTINUOUS
 62
     2
 10
120.8
 20
18.0
 30
0.0
 11
123.214814566
 21
18.647047613
 31
0.0
  0
LINE
  8
0
  6
CONTINUOUS
 62
     2
 10
120.8
 20
18.0
 30
0.0
 11
159.2
 21
18.0
 31
0.0
  0
LINE
  8
0
  6
CONTINUOUS
 62
     2
 10
159.2
 20
18.0
 30
0.0
 11
156.785185434
 21
18.647047613
 31
0.0
  0
LINE
  8
0
  6
CONTINUOUS
 62
     2
 10
159.2
 20
18.0
 30
0.0
 11
156.785185434
 21
17.352952387
 31
0.0
  0
LINE
  8
0
  6
CONTINUOUS
 62
     2
 10
159.2
 20
29.0
 30
0.0
 11
159.2
 21
17.0
 31
0.0
  0
TEXT
  8
0
  6
CONTINUOUS
 62
     2
 10
137.145
 20
24.5
 30
0.3
 40
3.0
  1
１４０
 50
0.0
 41
0.6
 51
0.0
  7
KANJI10
  0
TEXT
  8
0
  6
CONTINUOUS
 62
     2
 10
136.901
 20
18.5
 30
0.3
 40
3.0
  1
１９２
 50
0.0
 41
0.6
 51
0.0
  7
KANJI10
  0
LINE
  8
0
  6
LTYPE1
 62
     2
 10
140.0
 20
30.0
 30
0.0
 11
140.0
 21
69.991
 31
0.0
  0
LINE
  8
0
  6
CONTINUOUS
 62
     2
 10
121.6
 20
39.3
 30
0.0
 11
158.4
 21
39.3
 31
0.0
  0
LINE
  8
0
  6
CONTINUOUS
 62
     2
 10
151.5
 20
39.3
 30
0.0
 11
151.5
 21
30.0
 31
0.0
  0
LINE
  8
0
  6
CONTINUOUS
 62
     2
 10
128.5
 20
39.3
 30
0.0
 11
128.5
 21
30.0
 31
0.0
  0
LINE
  8
0
  6
CONTINUOUS
 62
     2
 10
151.5
 20
38.5
 30
0.0
 11
159.2
 21
38.5
 31
0.0
  0
LINE
  8
0
  6
CONTINUOUS
 62
     2
 10
120.8
 20
38.5
 30
0.0
 11
128.5
 21
38.5
 31
0.0
  0
LINE
  8
0
  6
CONTINUOUS
 62
     2
 10
129.0
 20
39.3
 30
0.0
 11
129.0
 21
36.0
 31
0.0
  0
ARC
  8
0
  6
CONTINUOUS
 62
     2
 10
130.5
 20
36.0
 30
0.0
 40
1.5
 50
180.0
 51
270.0
  0
LINE
  8
0
  6
CONTINUOUS
 62
     2
 10
151.0
 20
36.0
 30
0.0
 11
151.0
 21
39.3
 31
0.0
  0
LINE
  8
0
  6
CONTINUOUS
 62
     2
 10
130.5
 20
34.5
 30
0.0
 11
149.5
 21
34.5
 31
0.0
  0
ARC
  8
0
  6
CONTINUOUS
 62
     2
 10
149.5
 20
36.0
 30
0.0
 40
1.5
 50
270.0
 51
0.0
  0
LINE
  8
0
  6
CONTINUOUS
 62
     2
 10
155.5
 20
54.1
 30
0.0
 11
152.5
 21
54.1
 31
0.0
  0
LINE
  8
0
  6
CONTINUOUS
 62
     2
 10
152.5
 20
53.1
 30
0.0
 11
152.5
 21
54.1
 31
0.0
  0
LINE
  8
0
  6
CONTINUOUS
 62
     2
 10
153.5
 20
53.1
 30
0.0
 11
153.5
 21
54.1
 31
0.0
  0
LINE
  8
0
  6
CONTINUOUS
 62
     2
 10
151.5
 20
52.3
 30
0.0
 11
151.5
 21
53.1
 31
0.0
  0
LINE
  8
0
  6
CONTINUOUS
 62
     2
 10
155.5
 20
53.1
 30
0.0
 11
155.5
 21
54.1
 31
0.0
  0
LINE
  8
0
  6
CONTINUOUS
 62
     2
 10
154.5
 20
53.1
 30
0.0
 11
154.5
 21
54.1
 31
0.0
  0
LINE
  8
0
  6
CONTINUOUS
 62
     2
 10
127.5
 20
53.1
 30
0.0
 11
127.5
 21
54.1
 31
0.0
  0
LINE
  8
0
  6
CONTINUOUS
 62
     2
 10
127.5
 20
54.1
 30
0.0
 11
124.5
 21
54.1
 31
0.0
  0
LINE
  8
0
  6
CONTINUOUS
 62
     2
 10
126.5
 20
53.1
 30
0.0
 11
126.5
 21
54.1
 31
0.0
  0
LINE
  8
0
  6
CONTINUOUS
 62
     2
 10
128.5
 20
52.3
 30
0.0
 11
128.5
 21
53.1
 31
0.0
  0
LINE
  8
0
  6
CONTINUOUS
 62
     2
 10
124.5
 20
53.1
 30
0.0
 11
124.5
 21
54.1
 31
0.0
  0
LINE
  8
0
  6
CONTINUOUS
 62
     2
 10
125.5
 20
53.1
 30
0.0
 11
125.5
 21
54.1
 31
0.0
  0
LINE
  8
0
  6
CONTINUOUS
 62
     2
 10
151.5
 20
53.1
 30
0.0
 11
159.2
 21
53.1
 31
0.0
  0
LINE
  8
0
  6
CONTINUOUS
 62
     2
 10
158.4
 20
39.3
 30
0.0
 11
158.4
 21
52.3
 31
0.0
  0
LINE
  8
0
  6
CONTINUOUS
 62
     2
 10
121.6
 20
52.3
 30
0.0
 11
158.4
 21
52.3
 31
0.0
  0
LINE
  8
0
  6
CONTINUOUS
 62
     2
 10
121.6
 20
39.3
 30
0.0
 11
121.6
 21
52.3
 31
0.0
  0
LINE
  8
0
  6
CONTINUOUS
 62
     2
 10
120.8
 20
53.1
 30
0.0
 11
128.5
 21
53.1
 31
0.0
  0
LINE
  8
0
  6
LTYPE1
 62
     2
 10
118.0
 20
45.8
 30
0.0
 11
162.0
 21
45.8
 31
0.0
  0
LINE
  8
0
  6
CONTINUOUS
 62
     2
 10
121.6
 20
44.3
 30
0.0
 11
120.8
 21
44.3
 31
0.0
  0
LINE
  8
0
  6
CONTINUOUS
 62
     2
 10
120.8
 20
42.3
 30
0.0
 11
121.6
 21
42.3
 31
0.0
  0
LINE
  8
0
  6
CONTINUOUS
 62
     2
 10
159.2
 20
44.3
 30
0.0
 11
158.4
 21
44.3
 31
0.0
  0
LINE
  8
0
  6
CONTINUOUS
 62
     2
 10
158.4
 20
42.3
 30
0.0
 11
159.2
 21
42.3
 31
0.0
  0
LINE
  8
0
  6
CONTINUOUS
 62
     2
 10
120.8
 20
30.0
 30
0.0
 11
120.8
 21
42.3
 31
0.0
  0
LINE
  8
0
  6
CONTINUOUS
 62
     2
 10
159.2
 20
30.0
 30
0.0
 11
159.2
 21
42.3
 31
0.0
  0
LINE
  8
0
  6
CONTINUOUS
 62
     2
 10
159.2
 20
44.3
 30
0.0
 11
159.2
 21
53.1
 31
0.0
  0
LINE
  8
0
  6
CONTINUOUS
 62
     2
 10
120.8
 20
44.3
 30
0.0
 11
120.8
 21
53.1
 31
0.0
  0
LINE
  8
0
  6
CONTINUOUS
 62
     2
 10
126.0
 20
32.0
 30
0.0
 11
126.0
 21
23.0
 31
0.0
  0
LINE
  8
0
  6
CONTINUOUS
 62
     2
 10
154.0
 20
32.0
 30
0.0
 11
154.0
 21
23.0
 31
0.0
  0
LINE
  8
0
  6
LTYPE1
 62
     2
 10
154.0
 20
37.0
 30
0.0
 11
154.0
 21
55.7
 31
0.0
  0
LINE
  8
0
  6
LTYPE1
 62
     2
 10
126.0
 20
37.0
 30
0.0
 11
126.0
 21
55.7
 31
0.0
  0
LINE
  8
0
  6
CONTINUOUS
 62
     2
 10
34.476776695
 20
55.376776695
 30
0.0
 11
35.680330086
 21
54.173223305
 31
0.0
  0
ARC
  8
0
  6
CONTINUOUS
 62
     2
 10
35.857106781
 20
54.35
 30
0.0
 40
0.25
 50
225.0
 51
270.0
  0
LINE
  8
0
  6
CONTINUOUS
 62
     2
 10
34.123223305
 20
55.023223305
 30
0.0
 11
35.326776695
 21
53.819669914
 31
0.0
  0
ARC
  8
0
  6
CONTINUOUS
 62
     2
 10
35.857106781
 20
54.35
 30
0.0
 40
0.75
 50
225.0
 51
270.0
  0
LINE
  8
0
  6
CONTINUOUS
 62
     2
 10
46.476776695
 20
55.376776695
 30
0.0
 11
47.680330086
 21
54.173223305
 31
0.0
  0
ARC
  8
0
  6
CONTINUOUS
 62
     2
 10
47.857106781
 20
54.35
 30
0.0
 40
0.25
 50
225.0
 51
270.0
  0
LINE
  8
0
  6
CONTINUOUS
 62
     2
 10
46.123223305
 20
55.023223305
 30
0.0
 11
47.326776695
 21
53.819669914
 31
0.0
  0
ARC
  8
0
  6
CONTINUOUS
 62
     2
 10
47.857106781
 20
54.35
 30
0.0
 40
0.75
 50
225.0
 51
270.0
  0
LINE
  8
0
  6
CONTINUOUS
 62
     2
 10
55.623223305
 20
55.376776695
 30
0.0
 11
54.419669914
 21
54.173223305
 31
0.0
  0
LINE
  8
0
  6
CONTINUOUS
 62
     2
 10
55.976776695
 20
55.023223305
 30
0.0
 11
54.773223305
 21
53.819669914
 31
0.0
  0
ARC
  8
0
  6
CONTINUOUS
 62
     2
 10
54.242893219
 20
54.35
 30
0.0
 40
0.75
 50
270.000051517
 51
315.0
  0
LINE
  8
0
  6
CONTINUOUS
 62
     2
 10
54.242893893
 20
53.6
 30
0.0
 11
35.857106781
 21
53.6
 31
0.0
  0
ARC
  8
0
  6
CONTINUOUS
 62
     2
 10
54.242893219
 20
54.35
 30
0.0
 40
0.25
 50
270.00015455
 51
315.0
  0
LINE
  8
0
  6
CONTINUOUS
 62
     2
 10
47.046446609
 20
54.1
 30
0.0
 11
35.857106781
 21
54.1
 31
0.0
  0
LINE
  8
0
  6
CONTINUOUS
 62
     2
 10
54.242893893
 20
54.1
 30
0.0
 11
47.857106781
 21
54.1
 31
0.0
  0
ARC
  8
0
  6
CONTINUOUS
 62
     2
 10
41.2
 20
55.7
 30
0.0
 40
1.7
 50
90.0
 51
250.250077204
  0
ARC
  8
0
  6
CONTINUOUS
 62
     2
 10
33.8
 20
55.7
 30
0.0
 40
1.7
 50
323.456519335
 51
90.0
  0
ARC
  8
0
  6
CONTINUOUS
 62
     2
 10
33.8
 20
55.7
 30
0.0
 40
1.7
 50
270.0
 51
306.543480665
  0
ARC
  8
0
  6
CONTINUOUS
 62
     2
 10
33.8
 20
55.7
 30
0.0
 40
1.0
 50
329.477512186
 51
90.0
  0
ARC
  8
0
  6
CONTINUOUS
 62
     2
 10
33.8
 20
55.7
 30
0.0
 40
1.0
 50
270.0
 51
300.522487814
  0
ARC
  8
0
  6
CONTINUOUS
 62
     2
 10
45.8
 20
55.7
 30
0.0
 40
1.7
 50
323.456519335
 51
90.0
  0
ARC
  8
0
  6
CONTINUOUS
 62
     2
 10
45.8
 20
55.7
 30
0.0
 40
1.7
 50
289.749922796
 51
306.543480665
  0
ARC
  8
0
  6
CONTINUOUS
 62
     2
 10
45.8
 20
55.7
 30
0.0
 40
1.0
 50
329.477512186
 51
90.0
  0
ARC
  8
0
  6
CONTINUOUS
 62
     2
 10
45.8
 20
55.7
 30
0.0
 40
1.0
 50
270.0
 51
300.522487814
  0
LINE
  8
0
  6
CONTINUOUS
 62
     2
 10
49.0
 20
53.1
 30
0.0
 11
49.0
 21
53.6
 31
0.0
  0
LINE
  8
0
  6
CONTINUOUS
 62
     2
 10
48.5
 20
53.6
 30
0.0
 11
48.5
 21
53.1
 31
0.0
  0
LINE
  8
0
  6
CONTINUOUS
 62
     2
 10
49.0
 20
54.1
 30
0.0
 11
49.0
 21
57.0
 31
0.0
  0
LINE
  8
0
  6
CONTINUOUS
 62
     2
 10
48.5
 20
54.1
 30
0.0
 11
48.5
 21
57.0
 31
0.0
  0
LINE
  8
0
  6
CONTINUOUS
 62
     2
 10
56.3
 20
54.0
 30
0.0
 11
54.953553391
 21
54.0
 31
0.0
  0
LINE
  8
0
  6
CONTINUOUS
 62
     2
 10
54.946446609
 20
54.7
 30
0.0
 11
51.7
 21
54.7
 31
0.0
  0
LINE
  8
0
  6
CONTINUOUS
 62
     2
 10
56.3
 20
54.7
 30
0.0
 11
55.653553391
 21
54.7
 31
0.0
  0
ARC
  8
0
  6
CONTINUOUS
 62
     2
 10
51.7
 20
55.7
 30
0.0
 40
1.7
 50
90.0
 51
250.250077204
  0
LINE
  8
0
  6
CONTINUOUS
 62
     2
 10
57.007106781
 20
55.45
 30
0.0
 11
62.992893219
 21
55.45
 31
0.0
  0
LINE
  8
0
  6
CONTINUOUS
 62
     2
 10
57.007106781
 20
55.95
 30
0.0
 11
62.992893219
 21
55.95
 31
0.0
  0
ARC
  8
0
  6
CONTINUOUS
 62
     2
 10
63.7
 20
55.7
 30
0.0
 40
1.0
 50
194.477512186
 51
270.0
  0
ARC
  8
0
  6
CONTINUOUS
 62
     2
 10
63.7
 20
55.7
 30
0.0
 40
1.0
 50
90.0
 51
165.522487814
  0
ARC
  8
0
  6
CONTINUOUS
 62
     2
 10
63.7
 20
55.7
 30
0.0
 40
1.7
 50
188.456519335
 51
270.0
  0
ARC
  8
0
  6
CONTINUOUS
 62
     2
 10
63.7
 20
55.7
 30
0.0
 40
1.7
 50
90.0
 51
171.543480665
  0
ARC
  8
0
  6
CONTINUOUS
 62
     2
 10
56.3
 20
55.7
 30
0.0
 40
1.7
 50
8.456519335
 51
90.0
  0
ARC
  8
0
  6
CONTINUOUS
 62
     2
 10
56.3
 20
55.7
 30
0.0
 40
1.7
 50
270.0
 51
351.543480665
  0
ARC
  8
0
  6
CONTINUOUS
 62
     2
 10
56.3
 20
55.7
 30
0.0
 40
1.0
 50
14.477512186
 51
90.0
  0
ARC
  8
0
  6
CONTINUOUS
 62
     2
 10
56.3
 20
55.7
 30
0.0
 40
1.0
 50
270.0
 51
345.522487814
  0
LINE
  8
0
  6
CONTINUOUS
 62
     2
 10
64.376776695
 20
55.376776695
 30
0.0
 11
65.580330086
 21
54.173223305
 31
0.0
  0
LINE
  8
0
  6
CONTINUOUS
 62
     2
 10
64.023223305
 20
55.023223305
 30
0.0
 11
65.226776695
 21
53.819669914
 31
0.0
  0
ARC
  8
0
  6
CONTINUOUS
 62
     2
 10
65.757106781
 20
54.35
 30
0.0
 40
0.75
 50
225.0
 51
269.999948483
  0
LINE
  8
0
  6
CONTINUOUS
 62
     2
 10
65.757106107
 20
53.6
 30
0.0
 11
84.142893219
 21
53.6
 31
0.0
  0
ARC
  8
0
  6
CONTINUOUS
 62
     2
 10
65.757106781
 20
54.35
 30
0.0
 40
0.25
 50
225.0
 51
269.99984545
  0
LINE
  8
0
  6
CONTINUOUS
 62
     2
 10
65.757106107
 20
54.1
 30
0.0
 11
72.142893219
 21
54.1
 31
0.0
  0
LINE
  8
0
  6
CONTINUOUS
 62
     2
 10
85.523223305
 20
55.376776695
 30
0.0
 11
84.319669914
 21
54.173223305
 31
0.0
  0
ARC
  8
0
  6
CONTINUOUS
 62
     2
 10
84.142893219
 20
54.35
 30
0.0
 40
0.25
 50
270.0
 51
315.0
  0
LINE
  8
0
  6
CONTINUOUS
 62
     2
 10
85.876776695
 20
55.023223305
 30
0.0
 11
84.673223305
 21
53.819669914
 31
0.0
  0
ARC
  8
0
  6
CONTINUOUS
 62
     2
 10
84.142893219
 20
54.35
 30
0.0
 40
0.75
 50
270.0
 51
315.0
  0
LINE
  8
0
  6
CONTINUOUS
 62
     2
 10
65.757106107
 20
53.6
 30
0.0
 11
84.142893219
 21
53.6
 31
0.0
  0
LINE
  8
0
  6
CONTINUOUS
 62
     2
 10
72.953553391
 20
54.1
 30
0.0
 11
84.142893219
 21
54.1
 31
0.0
  0
LINE
  8
0
  6
CONTINUOUS
 62
     2
 10
73.523223305
 20
55.376776695
 30
0.0
 11
72.319669914
 21
54.173223305
 31
0.0
  0
ARC
  8
0
  6
CONTINUOUS
 62
     2
 10
72.142893219
 20
54.35
 30
0.0
 40
0.25
 50
270.0
 51
315.0
  0
LINE
  8
0
  6
CONTINUOUS
 62
     2
 10
73.876776695
 20
55.023223305
 30
0.0
 11
72.673223305
 21
53.819669914
 31
0.0
  0
ARC
  8
0
  6
CONTINUOUS
 62
     2
 10
72.142893219
 20
54.35
 30
0.0
 40
0.75
 50
270.0
 51
315.0
  0
LINE
  8
0
  6
CONTINUOUS
 62
     2
 10
65.757106107
 20
54.1
 30
0.0
 11
72.142893219
 21
54.1
 31
0.0
  0
LINE
  8
0
  6
CONTINUOUS
 62
     2
 10
63.7
 20
54.0
 30
0.0
 11
65.046446609
 21
54.0
 31
0.0
  0
LINE
  8
0
  6
CONTINUOUS
 62
     2
 10
65.053553391
 20
54.7
 30
0.0
 11
68.3
 21
54.7
 31
0.0
  0
LINE
  8
0
  6
CONTINUOUS
 62
     2
 10
63.7
 20
54.7
 30
0.0
 11
64.346446609
 21
54.7
 31
0.0
  0
ARC
  8
0
  6
CONTINUOUS
 62
     2
 10
68.3
 20
55.7
 30
0.0
 40
1.7
 50
289.749922796
 51
90.0
  0
ARC
  8
0
  6
CONTINUOUS
 62
     2
 10
74.2
 20
55.7
 30
0.0
 40
1.0
 50
239.477512186
 51
270.0
  0
ARC
  8
0
  6
CONTINUOUS
 62
     2
 10
74.2
 20
55.7
 30
0.0
 40
1.0
 50
90.0
 51
210.522487814
  0
ARC
  8
0
  6
CONTINUOUS
 62
     2
 10
74.2
 20
55.7
 30
0.0
 40
1.7
 50
90.0
 51
216.543480665
  0
LINE
  8
0
  6
CONTINUOUS
 62
     2
 10
71.5
 20
53.6
 30
0.0
 11
71.5
 21
53.1
 31
0.0
  0
LINE
  8
0
  6
CONTINUOUS
 62
     2
 10
71.0
 20
53.6
 30
0.0
 11
71.0
 21
53.1
 31
0.0
  0
LINE
  8
0
  6
CONTINUOUS
 62
     2
 10
71.5
 20
54.1
 30
0.0
 11
71.5
 21
57.0
 31
0.0
  0
LINE
  8
0
  6
CONTINUOUS
 62
     2
 10
71.0
 20
54.1
 30
0.0
 11
71.0
 21
57.0
 31
0.0
  0
ARC
  8
0
  6
CONTINUOUS
 62
     2
 10
74.2
 20
55.7
 30
0.0
 40
1.7
 50
233.456519335
 51
250.250077204
  0
ARC
  8
0
  6
CONTINUOUS
 62
     2
 10
78.8
 20
55.7
 30
0.0
 40
1.7
 50
289.749922796
 51
90.0
  0
ARC
  8
0
  6
CONTINUOUS
 62
     2
 10
86.2
 20
55.7
 30
0.0
 40
1.0
 50
239.477512186
 51
270.0
  0
ARC
  8
0
  6
CONTINUOUS
 62
     2
 10
86.2
 20
55.7
 30
0.0
 40
1.0
 50
90.0
 51
210.522487814
  0
ARC
  8
0
  6
CONTINUOUS
 62
     2
 10
86.2
 20
55.7
 30
0.0
 40
1.7
 50
233.456519335
 51
270.0
  0
ARC
  8
0
  6
CONTINUOUS
 62
     2
 10
86.2
 20
55.7
 30
0.0
 40
1.7
 50
90.0
 51
216.543480665
  0
TEXT
  8
0
  6
CONTINUOUS
 62
     2
 10
183.175
 20
94.25
 30
0.35
 40
3.5
  1
約４２ｋｇ
 50
0.0
 41
0.9
 51
0.0
  7
KANJI0
  0
TEXT
  8
0
  6
CONTINUOUS
 62
     2
 10
207.587390309
 20
55.376
 30
0.3
 40
3.0
  1
ヒューズ
 50
0.0
 41
0.733333333
 51
0.0
  7
KANJI14
  0
LINE
  8
0
  6
CONTINUOUS
 62
     2
 10
17.0
 20
53.1
 30
0.0
 11
17.0
 21
38.5
 31
0.0
  0
POLYLINE
  8
0
  6
CONTINUOUS
 62
     2
 66
     1
  0
VERTEX
  8
0
  6
CONTINUOUS
 62
     2
 10
103.0
 20
53.1
 30
0.0
  0
VERTEX
  8
0
  6
CONTINUOUS
 62
     2
 10
103.0
 20
38.5
 30
0.0
  0
VERTEX
  8
0
  6
CONTINUOUS
 62
     2
 10
17.0
 20
38.5
 30
0.0
  0
SEQEND
  0
TEXT
  8
0
  6
CONTINUOUS
 62
     1
 10
230.2
 20
65.8
 30
0.42
 40
4.2
  1
エホ゜キシモールト゛計器用変圧器　外形図
 50
0.0
 41
0.9
 51
0.0
  7
KANJI15
  0
TEXT
  8
0
  6
CONTINUOUS
 62
     1
 10
229.8
 20
75.8
 30
0.48
 40
4.8
  1
ＰＭｅ－１ＤＧａ
 50
0.0
 41
0.9
 51
0.0
  7
KANJI16
  0
TEXT
  8
0
  6
CONTINUOUS
 62
     3
 10
232.0
 20
52.0
 30
0.2
 40
5.8
  1
ＭＳ－９４５０Ｂ
 50
0.0
 41
0.827586207
 51
0.0
  7
KANJI17
  0
ENDSEC
  0
EOF
