  0
SECTION
  2
HEADER
  9
$ACADVER
  1
AC1009
  9
$DWGCODEPAGE
  3
dos932
  9
$EXTMIN
 10
0.0
 20
0.0
 30
0.0
  9
$EXTMAX
 10
297.0
 20
210.0
 30
0.0
  9
$LIMMIN
 10
0.0
 20
0.0
  9
$LIMMAX
 10
297.0
 20
210.0
  9
$LTSCALE
 40
1.0
  9
$PDMODE
 70
     0
  0
ENDSEC
  0
SECTION
  2
TABLES
  0
TABLE
  2
VPORT
 70
     1
  0
VPORT
  2
*ACTIVE
 70
     0
 10
0.0
 20
0.0
 11
1.0
 21
1.0
 12
148.5
 22
105.0
 13
0.0
 23
0.0
 14
10.0
 24
10.0
 15
10.0
 25
10.0
 16
0.0
 26
0.0
 36
1.0
 17
0.0
 27
0.0
 37
0.0
 40
297.0
 41
1.414285714
 42
50.0
 43
0.0
 44
0.0
 50
0.0
 51
0.0
 71
     0
 72
  1000
 73
     1
 74
     3
 75
     0
 76
     0
 77
     0
 78
     0
  0
ENDTAB
  0
TABLE
  2
LTYPE
 70
     4
  0
LTYPE
  2
CONTINUOUS
 70
    64
  3
Solid line
 72
    65
 73
     0
 40
0.0
  0
LTYPE
  2
LTYPE1
 70
    64
  3
CENTER
 72
    65
 73
     4
 40
8.0
 49
5.6
 49
-0.8
 49
0.8
 49
-0.8
  0
LTYPE
  2
LTYPE2
 70
    64
  3
CENTER
 72
    65
 73
     4
 40
0.5
 49
0.35
 49
-0.05
 49
0.05
 49
-0.05
  0
LTYPE
  2
LTYPE3
 70
    64
  3
HIDDEN
 72
    65
 73
     2
 40
1.0
 49
0.6
 49
-0.4
  0
ENDTAB
  0
TABLE
  2
LAYER
 70
   128
  0
LAYER
  2
0
 70
     0
 62
     7
  6
CONTINUOUS
  0
LAYER
  2
2
 70
     0
 62
     7
  6
CONTINUOUS
  0
LAYER
  2
3
 70
     0
 62
     7
  6
CONTINUOUS
  0
LAYER
  2
4
 70
     0
 62
     7
  6
CONTINUOUS
  0
LAYER
  2
5
 70
     0
 62
     7
  6
CONTINUOUS
  0
LAYER
  2
6
 70
     0
 62
     7
  6
CONTINUOUS
  0
LAYER
  2
7
 70
     0
 62
     7
  6
CONTINUOUS
  0
LAYER
  2
8
 70
     0
 62
     7
  6
CONTINUOUS
  0
LAYER
  2
9
 70
     0
 62
     7
  6
CONTINUOUS
  0
LAYER
  2
10
 70
     0
 62
     7
  6
CONTINUOUS
  0
LAYER
  2
11
 70
     0
 62
     7
  6
CONTINUOUS
  0
LAYER
  2
12
 70
     0
 62
     7
  6
CONTINUOUS
  0
LAYER
  2
13
 70
     0
 62
     7
  6
CONTINUOUS
  0
LAYER
  2
14
 70
     0
 62
     7
  6
CONTINUOUS
  0
LAYER
  2
15
 70
     0
 62
     7
  6
CONTINUOUS
  0
LAYER
  2
16
 70
     0
 62
     7
  6
CONTINUOUS
  0
LAYER
  2
17
 70
     0
 62
     7
  6
CONTINUOUS
  0
LAYER
  2
18
 70
     0
 62
     7
  6
CONTINUOUS
  0
LAYER
  2
19
 70
     0
 62
     7
  6
CONTINUOUS
  0
LAYER
  2
20
 70
     0
 62
     7
  6
CONTINUOUS
  0
LAYER
  2
21
 70
     0
 62
     7
  6
CONTINUOUS
  0
LAYER
  2
22
 70
     0
 62
     7
  6
CONTINUOUS
  0
LAYER
  2
23
 70
     0
 62
     7
  6
CONTINUOUS
  0
LAYER
  2
24
 70
     0
 62
     7
  6
CONTINUOUS
  0
LAYER
  2
25
 70
     0
 62
     7
  6
CONTINUOUS
  0
LAYER
  2
26
 70
     0
 62
     7
  6
CONTINUOUS
  0
LAYER
  2
27
 70
     0
 62
     7
  6
CONTINUOUS
  0
LAYER
  2
28
 70
     0
 62
     7
  6
CONTINUOUS
  0
LAYER
  2
29
 70
     0
 62
     7
  6
CONTINUOUS
  0
LAYER
  2
30
 70
     0
 62
     7
  6
CONTINUOUS
  0
LAYER
  2
31
 70
     0
 62
     7
  6
CONTINUOUS
  0
LAYER
  2
32
 70
     0
 62
     7
  6
CONTINUOUS
  0
LAYER
  2
33
 70
     0
 62
     7
  6
CONTINUOUS
  0
LAYER
  2
34
 70
     0
 62
     7
  6
CONTINUOUS
  0
LAYER
  2
35
 70
     0
 62
     7
  6
CONTINUOUS
  0
LAYER
  2
36
 70
     0
 62
     7
  6
CONTINUOUS
  0
LAYER
  2
37
 70
     0
 62
     7
  6
CONTINUOUS
  0
LAYER
  2
38
 70
     0
 62
     7
  6
CONTINUOUS
  0
LAYER
  2
39
 70
     0
 62
     7
  6
CONTINUOUS
  0
LAYER
  2
40
 70
     0
 62
     7
  6
CONTINUOUS
  0
LAYER
  2
41
 70
     0
 62
     7
  6
CONTINUOUS
  0
LAYER
  2
42
 70
     0
 62
     7
  6
CONTINUOUS
  0
LAYER
  2
43
 70
     0
 62
     7
  6
CONTINUOUS
  0
LAYER
  2
44
 70
     0
 62
     7
  6
CONTINUOUS
  0
LAYER
  2
45
 70
     0
 62
     7
  6
CONTINUOUS
  0
LAYER
  2
46
 70
     0
 62
     7
  6
CONTINUOUS
  0
LAYER
  2
47
 70
     0
 62
     7
  6
CONTINUOUS
  0
LAYER
  2
48
 70
     0
 62
     7
  6
CONTINUOUS
  0
LAYER
  2
49
 70
     0
 62
     7
  6
CONTINUOUS
  0
LAYER
  2
50
 70
     0
 62
     7
  6
CONTINUOUS
  0
LAYER
  2
51
 70
     0
 62
     7
  6
CONTINUOUS
  0
LAYER
  2
52
 70
     0
 62
     7
  6
CONTINUOUS
  0
LAYER
  2
53
 70
     0
 62
     7
  6
CONTINUOUS
  0
LAYER
  2
54
 70
     0
 62
     7
  6
CONTINUOUS
  0
LAYER
  2
55
 70
     0
 62
     7
  6
CONTINUOUS
  0
LAYER
  2
56
 70
     0
 62
     7
  6
CONTINUOUS
  0
LAYER
  2
57
 70
     0
 62
     7
  6
CONTINUOUS
  0
LAYER
  2
58
 70
     0
 62
     7
  6
CONTINUOUS
  0
LAYER
  2
59
 70
     0
 62
     7
  6
CONTINUOUS
  0
LAYER
  2
60
 70
     0
 62
     7
  6
CONTINUOUS
  0
LAYER
  2
61
 70
     0
 62
     7
  6
CONTINUOUS
  0
LAYER
  2
62
 70
     0
 62
     7
  6
CONTINUOUS
  0
LAYER
  2
63
 70
     0
 62
     7
  6
CONTINUOUS
  0
LAYER
  2
64
 70
     0
 62
     7
  6
CONTINUOUS
  0
LAYER
  2
65
 70
     0
 62
     7
  6
CONTINUOUS
  0
LAYER
  2
66
 70
     0
 62
     7
  6
CONTINUOUS
  0
LAYER
  2
67
 70
     0
 62
     7
  6
CONTINUOUS
  0
LAYER
  2
68
 70
     0
 62
     7
  6
CONTINUOUS
  0
LAYER
  2
69
 70
     0
 62
     7
  6
CONTINUOUS
  0
LAYER
  2
70
 70
     0
 62
     7
  6
CONTINUOUS
  0
LAYER
  2
71
 70
     0
 62
     7
  6
CONTINUOUS
  0
LAYER
  2
72
 70
     0
 62
     7
  6
CONTINUOUS
  0
LAYER
  2
73
 70
     0
 62
     7
  6
CONTINUOUS
  0
LAYER
  2
74
 70
     0
 62
     7
  6
CONTINUOUS
  0
LAYER
  2
75
 70
     0
 62
     7
  6
CONTINUOUS
  0
LAYER
  2
76
 70
     0
 62
     7
  6
CONTINUOUS
  0
LAYER
  2
77
 70
     0
 62
     7
  6
CONTINUOUS
  0
LAYER
  2
78
 70
     0
 62
     7
  6
CONTINUOUS
  0
LAYER
  2
79
 70
     0
 62
     7
  6
CONTINUOUS
  0
LAYER
  2
80
 70
     0
 62
     7
  6
CONTINUOUS
  0
LAYER
  2
81
 70
     0
 62
     7
  6
CONTINUOUS
  0
LAYER
  2
82
 70
     0
 62
     7
  6
CONTINUOUS
  0
LAYER
  2
83
 70
     0
 62
     7
  6
CONTINUOUS
  0
LAYER
  2
84
 70
     0
 62
     7
  6
CONTINUOUS
  0
LAYER
  2
85
 70
     0
 62
     7
  6
CONTINUOUS
  0
LAYER
  2
86
 70
     0
 62
     7
  6
CONTINUOUS
  0
LAYER
  2
87
 70
     0
 62
     7
  6
CONTINUOUS
  0
LAYER
  2
88
 70
     0
 62
     7
  6
CONTINUOUS
  0
LAYER
  2
89
 70
     0
 62
     7
  6
CONTINUOUS
  0
LAYER
  2
90
 70
     0
 62
     7
  6
CONTINUOUS
  0
LAYER
  2
91
 70
     0
 62
     7
  6
CONTINUOUS
  0
LAYER
  2
92
 70
     0
 62
     7
  6
CONTINUOUS
  0
LAYER
  2
93
 70
     0
 62
     7
  6
CONTINUOUS
  0
LAYER
  2
94
 70
     0
 62
     7
  6
CONTINUOUS
  0
LAYER
  2
95
 70
     0
 62
     7
  6
CONTINUOUS
  0
LAYER
  2
96
 70
     0
 62
     7
  6
CONTINUOUS
  0
LAYER
  2
97
 70
     0
 62
     7
  6
CONTINUOUS
  0
LAYER
  2
98
 70
     0
 62
     7
  6
CONTINUOUS
  0
LAYER
  2
99
 70
     0
 62
     7
  6
CONTINUOUS
  0
LAYER
  2
100
 70
     0
 62
     7
  6
CONTINUOUS
  0
LAYER
  2
101
 70
     0
 62
     7
  6
CONTINUOUS
  0
LAYER
  2
102
 70
     0
 62
     7
  6
CONTINUOUS
  0
LAYER
  2
103
 70
     0
 62
     7
  6
CONTINUOUS
  0
LAYER
  2
104
 70
     0
 62
     7
  6
CONTINUOUS
  0
LAYER
  2
105
 70
     0
 62
     7
  6
CONTINUOUS
  0
LAYER
  2
106
 70
     0
 62
     7
  6
CONTINUOUS
  0
LAYER
  2
107
 70
     0
 62
     7
  6
CONTINUOUS
  0
LAYER
  2
108
 70
     0
 62
     7
  6
CONTINUOUS
  0
LAYER
  2
109
 70
     0
 62
     7
  6
CONTINUOUS
  0
LAYER
  2
110
 70
     0
 62
     7
  6
CONTINUOUS
  0
LAYER
  2
111
 70
     0
 62
     7
  6
CONTINUOUS
  0
LAYER
  2
112
 70
     0
 62
     7
  6
CONTINUOUS
  0
LAYER
  2
113
 70
     0
 62
     7
  6
CONTINUOUS
  0
LAYER
  2
114
 70
     0
 62
     7
  6
CONTINUOUS
  0
LAYER
  2
115
 70
     0
 62
     7
  6
CONTINUOUS
  0
LAYER
  2
116
 70
     0
 62
     7
  6
CONTINUOUS
  0
LAYER
  2
117
 70
     0
 62
     7
  6
CONTINUOUS
  0
LAYER
  2
118
 70
     0
 62
     7
  6
CONTINUOUS
  0
LAYER
  2
119
 70
     0
 62
     7
  6
CONTINUOUS
  0
LAYER
  2
120
 70
     0
 62
     7
  6
CONTINUOUS
  0
LAYER
  2
121
 70
     0
 62
     7
  6
CONTINUOUS
  0
LAYER
  2
122
 70
     0
 62
     7
  6
CONTINUOUS
  0
LAYER
  2
123
 70
     0
 62
     7
  6
CONTINUOUS
  0
LAYER
  2
124
 70
     0
 62
     7
  6
CONTINUOUS
  0
LAYER
  2
125
 70
     0
 62
     7
  6
CONTINUOUS
  0
LAYER
  2
126
 70
     0
 62
     7
  6
CONTINUOUS
  0
LAYER
  2
127
 70
     0
 62
     7
  6
CONTINUOUS
  0
LAYER
  2
128
 70
     0
 62
     7
  6
CONTINUOUS
  0
ENDTAB
  0
TABLE
  2
STYLE
 70
    26
  0
STYLE
  2
STANDARD
 70
     0
 40
0.0
 41
1.0
 50
0.0
 71
     0
 42
0.2
  3
txt.shx
  4
extfont.shx
  0
STYLE
  2
KANJI0
 70
     0
 40
2.541
 41
0.733333333
 50
0.0
 71
     0
 42
2.541
  3
txt.shx
  4
extfont.shx
  0
STYLE
  2
KANJI1
 70
     0
 40
2.541
 41
0.9
 50
0.0
 71
     0
 42
2.541
  3
txt.shx
  4
extfont.shx
  0
STYLE
  2
KANJI2
 70
     0
 40
2.541
 41
0.833333333
 50
0.0
 71
     0
 42
2.541
  3
txt.shx
  4
extfont.shx
  0
STYLE
  2
KANJI3
 70
     0
 40
2.541
 41
0.833333333
 50
0.0
 71
     0
 42
2.541
  3
txt.shx
  4
extfont.shx
  0
STYLE
  2
KANJI4
 70
     0
 40
6.0
 41
0.9
 50
0.0
 71
     0
 42
6.0
  3
txt.shx
  4
extfont.shx
  0
STYLE
  2
KANJI5
 70
     0
 40
2.541
 41
0.666666667
 50
0.0
 71
     0
 42
2.541
  3
txt.shx
  4
extfont.shx
  0
STYLE
  2
KANJI6
 70
     0
 40
2.7
 41
0.9
 50
0.0
 71
     0
 42
2.7
  3
txt.shx
  4
extfont.shx
  0
STYLE
  2
KANJI7
 70
     0
 40
3.0
 41
0.6
 50
0.0
 71
     0
 42
3.0
  3
txt.shx
  4
extfont.shx
  0
STYLE
  2
KANJI8
 70
     0
 40
3.6
 41
1.0
 50
0.0
 71
     0
 42
3.6
  3
txt.shx
  4
extfont.shx
  0
STYLE
  2
KANJI9
 70
     0
 40
2.0
 41
0.9
 50
0.0
 71
     0
 42
2.0
  3
txt.shx
  4
extfont.shx
  0
STYLE
  2
KANJI10
 70
     0
 40
3.6
 41
1.0
 50
0.0
 71
     0
 42
3.6
  3
txt.shx
  4
extfont.shx
  0
STYLE
  2
KANJI11
 70
     0
 40
3.0
 41
0.9
 50
0.0
 71
     0
 42
3.0
  3
txt.shx
  4
extfont.shx
  0
STYLE
  2
KANJI12
 70
     0
 40
3.0
 41
0.833333333
 50
0.0
 71
     0
 42
3.0
  3
txt.shx
  4
extfont.shx
  0
STYLE
  2
KANJI13
 70
     0
 40
2.8
 41
0.892857143
 50
0.0
 71
     0
 42
2.8
  3
txt.shx
  4
extfont.shx
  0
STYLE
  2
KANJI14
 70
     0
 40
3.0
 41
0.933333333
 50
0.0
 71
     0
 42
3.0
  3
txt.shx
  4
extfont.shx
  0
STYLE
  2
KANJI15
 70
     0
 40
2.8
 41
0.892857143
 50
0.0
 71
     0
 42
2.8
  3
txt.shx
  4
extfont.shx
  0
STYLE
  2
KANJI16
 70
     0
 40
2.7
 41
0.833333333
 50
0.0
 71
     0
 42
2.7
  3
txt.shx
  4
extfont.shx
  0
STYLE
  2
KANJI17
 70
     0
 40
2.7
 41
0.45
 50
0.0
 71
     0
 42
2.7
  3
txt.shx
  4
extfont.shx
  0
STYLE
  2
KANJI18
 70
     0
 40
2.7
 41
0.833333333
 50
0.0
 71
     0
 42
2.7
  3
txt.shx
  4
extfont.shx
  0
STYLE
  2
KANJI19
 70
     0
 40
2.7
 41
0.9
 50
0.0
 71
     0
 42
2.7
  3
txt.shx
  4
extfont.shx
  0
STYLE
  2
KANJI20
 70
     0
 40
1.8
 41
0.45
 50
0.0
 71
     0
 42
1.8
  3
txt.shx
  4
extfont.shx
  0
STYLE
  2
KANJI21
 70
     0
 40
2.541
 41
0.833333333
 50
0.0
 71
     0
 42
2.541
  3
txt.shx
  4
extfont.shx
  0
STYLE
  2
KANJI22
 70
     0
 40
2.7
 41
0.6
 50
0.0
 71
     0
 42
2.7
  3
txt.shx
  4
extfont.shx
  0
STYLE
  2
KANJI23
 70
     0
 40
4.0
 41
0.9
 50
0.0
 71
     0
 42
4.0
  3
txt.shx
  4
extfont.shx
  0
STYLE
  2
KANJI24
 70
     0
 40
3.15
 41
0.9
 50
0.0
 71
     0
 42
3.15
  3
txt.shx
  4
extfont.shx
  0
ENDTAB
  0
TABLE
  2
VIEW
 70
     0
  0
ENDTAB
  0
ENDSEC
  0
SECTION
  2
BLOCKS
  0
ENDSEC
  0
SECTION
  2
ENTITIES
  0
LINE
  8
2
  6
CONTINUOUS
 62
     2
 10
57.647
 20
171.38035
 30
0.0
 11
15.297
 21
171.38035
 31
0.0
  0
LINE
  8
2
  6
CONTINUOUS
 62
     2
 10
15.297
 20
179.85035
 30
0.0
 11
15.297
 21
133.26535
 31
0.0
  0
LINE
  8
2
  6
CONTINUOUS
 62
     2
 10
36.472
 20
179.85035
 30
0.0
 11
36.472
 21
133.26535
 31
0.0
  0
LINE
  8
2
  6
CONTINUOUS
 62
     2
 10
57.647
 20
179.85035
 30
0.0
 11
57.647
 21
133.26535
 31
0.0
  0
TEXT
  8
2
  6
CONTINUOUS
 62
     2
 10
16.144
 20
172.22735
 30
0.0847
 40
2.541
  1
ＣＢＭ－５－４０
 50
0.0
 41
0.733333333
 51
0.0
  7
KANJI0
  0
TEXT
  8
2
  6
CONTINUOUS
 62
     2
 10
16.144
 20
167.99235
 30
0.0847
 40
2.541
  1
ＣＢＭ－５－５０
 50
0.0
 41
0.733333333
 51
0.0
  7
KANJI0
  0
TEXT
  8
2
  6
CONTINUOUS
 62
     2
 10
16.144
 20
163.75735
 30
0.0847
 40
2.541
  1
ＣＢＭ－１５－４０
 50
0.0
 41
0.733333333
 51
0.0
  7
KANJI0
  0
TEXT
  8
2
  6
CONTINUOUS
 62
     2
 10
16.144
 20
159.52235
 30
0.0847
 40
2.541
  1
ＣＢＭ－１５－５０
 50
0.0
 41
0.733333333
 51
0.0
  7
KANJI0
  0
TEXT
  8
2
  6
CONTINUOUS
 62
     2
 10
16.144
 20
155.28735
 30
0.0847
 40
2.541
  1
ＣＢＭ－１５－７５
 50
0.0
 41
0.733333333
 51
0.0
  7
KANJI0
  0
TEXT
  8
2
  6
CONTINUOUS
 62
     2
 10
16.144
 20
151.05235
 30
0.0847
 40
2.541
  1
ＣＢＭ－１５－１００
 50
0.0
 41
0.733333333
 51
0.0
  7
KANJI0
  0
TEXT
  8
2
  6
CONTINUOUS
 62
     2
 10
16.144
 20
146.81735
 30
0.0847
 40
2.541
  1
ＣＢＭ－４０－４０
 50
0.0
 41
0.733333333
 51
0.0
  7
KANJI0
  0
TEXT
  8
2
  6
CONTINUOUS
 62
     2
 10
16.144
 20
142.58235
 30
0.0847
 40
2.541
  1
ＣＢＭ－４０－５０
 50
0.0
 41
0.733333333
 51
0.0
  7
KANJI0
  0
TEXT
  8
2
  6
CONTINUOUS
 62
     2
 10
16.144
 20
138.34735
 30
0.0847
 40
2.541
  1
ＣＢＭ－４０－７５
 50
0.0
 41
0.733333333
 51
0.0
  7
KANJI0
  0
TEXT
  8
2
  6
CONTINUOUS
 62
     2
 10
16.144
 20
134.11235
 30
0.0847
 40
2.541
  1
ＣＢＭ－４０－１００
 50
0.0
 41
0.733333333
 51
0.0
  7
KANJI0
  0
TEXT
  8
2
  6
CONTINUOUS
 62
     2
 10
37.319
 20
172.22735
 30
0.0847
 40
2.541
  1
１５０～３００Ａ
 50
0.0
 41
0.733333333
 51
0.0
  7
KANJI0
  0
TEXT
  8
2
  6
CONTINUOUS
 62
     2
 10
37.319
 20
167.99235
 30
0.0847
 40
2.541
  1
４００～６００Ａ
 50
0.0
 41
0.733333333
 51
0.0
  7
KANJI0
  0
TEXT
  8
2
  6
CONTINUOUS
 62
     2
 10
37.319
 20
163.75735
 30
0.0847
 40
2.541
  1
２００～３００Ａ
 50
0.0
 41
0.733333333
 51
0.0
  7
KANJI0
  0
TEXT
  8
2
  6
CONTINUOUS
 62
     2
 10
37.319
 20
159.52235
 30
0.0847
 40
2.541
  1
４００～６００Ａ
 50
0.0
 41
0.733333333
 51
0.0
  7
KANJI0
  0
TEXT
  8
2
  6
CONTINUOUS
 62
     2
 10
37.319
 20
155.28735
 30
0.0847
 40
2.541
  1
６００～１０００Ａ
 50
0.0
 41
0.733333333
 51
0.0
  7
KANJI0
  0
TEXT
  8
2
  6
CONTINUOUS
 62
     2
 10
37.319
 20
151.05235
 30
0.0847
 40
2.541
  1
１０００～２０００Ａ
 50
0.0
 41
0.733333333
 51
0.0
  7
KANJI0
  0
TEXT
  8
2
  6
CONTINUOUS
 62
     2
 10
37.319
 20
146.81735
 30
0.0847
 40
2.541
  1
２００～３００Ａ
 50
0.0
 41
0.733333333
 51
0.0
  7
KANJI0
  0
TEXT
  8
2
  6
CONTINUOUS
 62
     2
 10
37.319
 20
142.58235
 30
0.0847
 40
2.541
  1
４００～６００Ａ
 50
0.0
 41
0.733333333
 51
0.0
  7
KANJI0
  0
TEXT
  8
2
  6
CONTINUOUS
 62
     2
 10
37.319
 20
138.34735
 30
0.0847
 40
2.541
  1
６００～１０００Ａ
 50
0.0
 41
0.733333333
 51
0.0
  7
KANJI0
  0
TEXT
  8
2
  6
CONTINUOUS
 62
     2
 10
37.319
 20
134.11235
 30
0.0847
 40
2.541
  1
１０００～２０００Ａ
 50
0.0
 41
0.733333333
 51
0.0
  7
KANJI0
  0
LINE
  8
2
  6
CONTINUOUS
 62
     2
 10
15.297
 20
162.91035
 30
0.0
 11
57.647
 21
162.91035
 31
0.0
  0
LINE
  8
2
  6
CONTINUOUS
 62
     2
 10
15.297
 20
158.67535
 30
0.0
 11
57.647
 21
158.67535
 31
0.0
  0
LINE
  8
2
  6
CONTINUOUS
 62
     2
 10
15.297
 20
154.44035
 30
0.0
 11
57.647
 21
154.44035
 31
0.0
  0
LINE
  8
2
  6
CONTINUOUS
 62
     2
 10
15.297
 20
145.97035
 30
0.0
 11
57.647
 21
145.97035
 31
0.0
  0
LINE
  8
2
  6
CONTINUOUS
 62
     2
 10
15.297
 20
141.73535
 30
0.0
 11
57.647
 21
141.73535
 31
0.0
  0
LINE
  8
2
  6
CONTINUOUS
 62
     2
 10
15.297
 20
137.50035
 30
0.0
 11
57.647
 21
137.50035
 31
0.0
  0
TEXT
  8
2
  6
CONTINUOUS
 62
     2
 10
20.379
 20
176.46235
 30
0.2541
 40
2.541
  1
形　　式
 50
0.0
 41
0.9
 51
0.0
  7
KANJI1
  0
TEXT
  8
2
  6
CONTINUOUS
 62
     2
 10
39.013
 20
176.46235
 30
0.2541
 40
2.541
  1
一　次　電　流
 50
0.0
 41
0.9
 51
0.0
  7
KANJI1
  0
TEXT
  8
2
  6
CONTINUOUS
 62
     2
 10
60.4749
 20
157.40485
 30
0.0847
 40
2.541
  1
１５ＶＡ
 50
0.0
 41
0.733333333
 51
0.0
  7
KANJI0
  0
TEXT
  8
2
  6
CONTINUOUS
 62
     2
 10
60.4749
 20
140.46485
 30
0.0847
 40
2.541
  1
４０ＶＡ
 50
0.0
 41
0.733333333
 51
0.0
  7
KANJI0
  0
TEXT
  8
2
  6
CONTINUOUS
 62
     2
 10
59.1361
 20
176.46235
 30
0.2541
 40
2.541
  1
定格負担
 50
0.0
 41
0.9
 51
0.0
  7
KANJI1
  0
LINE
  8
2
  6
CONTINUOUS
 62
     2
 10
70.587
 20
179.85035
 30
0.0
 11
70.587
 21
133.26535
 31
0.0
  0
LINE
  8
2
  6
CONTINUOUS
 62
     2
 10
15.297
 20
167.14535
 30
0.0
 11
70.587
 21
167.14535
 31
0.0
  0
TEXT
  8
2
  6
CONTINUOUS
 62
     2
 10
73.822
 20
176.46235
 30
1.694
 40
2.541
  1
Ａ
 50
0.0
 41
0.833333333
 51
0.0
  7
KANJI2
  0
TEXT
  8
2
  6
CONTINUOUS
 62
     2
 10
83.986
 20
176.46235
 30
1.694
 40
2.541
  1
Ｂ
 50
0.0
 41
0.833333333
 51
0.0
  7
KANJI2
  0
TEXT
  8
2
  6
CONTINUOUS
 62
     2
 10
94.15
 20
176.46235
 30
1.694
 40
2.541
  1
Ｃ
 50
0.0
 41
0.833333333
 51
0.0
  7
KANJI2
  0
TEXT
  8
2
  6
CONTINUOUS
 62
     2
 10
104.314
 20
176.46235
 30
1.694
 40
2.541
  1
Ｄ
 50
0.0
 41
0.833333333
 51
0.0
  7
KANJI2
  0
TEXT
  8
2
  6
CONTINUOUS
 62
     2
 10
114.478
 20
176.46235
 30
1.694
 40
2.541
  1
Ｅ
 50
0.0
 41
0.833333333
 51
0.0
  7
KANJI2
  0
TEXT
  8
2
  6
CONTINUOUS
 62
     2
 10
134.806
 20
176.46235
 30
1.694
 40
2.541
  1
Ｈ
 50
0.0
 41
0.833333333
 51
0.0
  7
KANJI2
  0
TEXT
  8
2
  6
CONTINUOUS
 62
     2
 10
124.642
 20
176.46235
 30
1.694
 40
2.541
  1
Ｇ
 50
0.0
 41
0.833333333
 51
0.0
  7
KANJI2
  0
LINE
  8
2
  6
CONTINUOUS
 62
     2
 10
79.751
 20
179.85035
 30
0.0
 11
79.751
 21
133.26535
 31
0.0
  0
LINE
  8
2
  6
CONTINUOUS
 62
     2
 10
89.915
 20
133.26535
 30
0.0
 11
89.915
 21
179.85035
 31
0.0
  0
LINE
  8
2
  6
CONTINUOUS
 62
     2
 10
100.079
 20
179.85035
 30
0.0
 11
100.079
 21
133.26535
 31
0.0
  0
LINE
  8
2
  6
CONTINUOUS
 62
     2
 10
110.243
 20
133.26535
 30
0.0
 11
110.243
 21
179.85035
 31
0.0
  0
LINE
  8
2
  6
CONTINUOUS
 62
     2
 10
120.407
 20
179.85035
 30
0.0
 11
120.407
 21
133.26535
 31
0.0
  0
LINE
  8
2
  6
CONTINUOUS
 62
     2
 10
130.571
 20
133.26535
 30
0.0
 11
130.571
 21
179.85035
 31
0.0
  0
LINE
  8
2
  6
CONTINUOUS
 62
     2
 10
140.735
 20
179.85035
 30
0.0
 11
140.735
 21
133.26535
 31
0.0
  0
TEXT
  8
2
  6
CONTINUOUS
 62
     2
 10
91.609
 20
155.28735
 30
0.0847
 40
2.541
  1
１０５
 50
0.0
 41
0.733333333
 51
0.0
  7
KANJI0
  0
TEXT
  8
2
  6
CONTINUOUS
 62
     2
 10
91.609
 20
138.34735
 30
0.0847
 40
2.541
  1
１２６
 50
0.0
 41
0.733333333
 51
0.0
  7
KANJI0
  0
TEXT
  8
2
  6
CONTINUOUS
 62
     2
 10
91.609
 20
134.11235
 30
0.0847
 40
2.541
  1
１１０
 50
0.0
 41
0.733333333
 51
0.0
  7
KANJI0
  0
TEXT
  8
2
  6
CONTINUOUS
 62
     2
 10
103.7211
 20
170.10985
 30
0.0847
 40
2.541
  1
４０
 50
0.0
 41
0.733333333
 51
0.0
  7
KANJI0
  0
TEXT
  8
2
  6
CONTINUOUS
 62
     2
 10
103.7211
 20
163.75735
 30
0.0847
 40
2.541
  1
６０
 50
0.0
 41
0.733333333
 51
0.0
  7
KANJI0
  0
TEXT
  8
2
  6
CONTINUOUS
 62
     2
 10
103.7211
 20
159.52235
 30
0.0847
 40
2.541
  1
６５
 50
0.0
 41
0.733333333
 51
0.0
  7
KANJI0
  0
TEXT
  8
2
  6
CONTINUOUS
 62
     2
 10
103.7211
 20
155.28735
 30
0.0847
 40
2.541
  1
５５
 50
0.0
 41
0.733333333
 51
0.0
  7
KANJI0
  0
TEXT
  8
2
  6
CONTINUOUS
 62
     2
 10
103.7211
 20
151.05235
 30
0.0847
 40
2.541
  1
６０
 50
0.0
 41
0.733333333
 51
0.0
  7
KANJI0
  0
TEXT
  8
2
  6
CONTINUOUS
 62
     2
 10
103.7211
 20
142.58235
 30
0.0847
 40
2.541
  1
７６
 50
0.0
 41
0.733333333
 51
0.0
  7
KANJI0
  0
TEXT
  8
2
  6
CONTINUOUS
 62
     2
 10
103.7211
 20
134.11235
 30
0.0847
 40
2.541
  1
６０
 50
0.0
 41
0.733333333
 51
0.0
  7
KANJI0
  0
TEXT
  8
2
  6
CONTINUOUS
 62
     2
 10
113.631
 20
172.22735
 30
0.0847
 40
2.541
  1
４２
 50
0.0
 41
0.733333333
 51
0.0
  7
KANJI0
  0
TEXT
  8
2
  6
CONTINUOUS
 62
     2
 10
113.631
 20
167.99235
 30
0.0847
 40
2.541
  1
５２
 50
0.0
 41
0.733333333
 51
0.0
  7
KANJI0
  0
TEXT
  8
2
  6
CONTINUOUS
 62
     2
 10
113.631
 20
163.75735
 30
0.0847
 40
2.541
  1
４２
 50
0.0
 41
0.733333333
 51
0.0
  7
KANJI0
  0
TEXT
  8
2
  6
CONTINUOUS
 62
     2
 10
113.631
 20
155.28735
 30
0.0847
 40
2.541
  1
８２
 50
0.0
 41
0.733333333
 51
0.0
  7
KANJI0
  0
TEXT
  8
2
  6
CONTINUOUS
 62
     2
 10
113.631
 20
159.52235
 30
0.0847
 40
2.541
  1
５２
 50
0.0
 41
0.733333333
 51
0.0
  7
KANJI0
  0
TEXT
  8
2
  6
CONTINUOUS
 62
     2
 10
113.631
 20
146.81735
 30
0.0847
 40
2.541
  1
４２
 50
0.0
 41
0.733333333
 51
0.0
  7
KANJI0
  0
TEXT
  8
2
  6
CONTINUOUS
 62
     2
 10
113.631
 20
142.58235
 30
0.0847
 40
2.541
  1
５２
 50
0.0
 41
0.733333333
 51
0.0
  7
KANJI0
  0
TEXT
  8
2
  6
CONTINUOUS
 62
     2
 10
113.631
 20
138.34735
 30
0.0847
 40
2.541
  1
８２
 50
0.0
 41
0.733333333
 51
0.0
  7
KANJI0
  0
TEXT
  8
2
  6
CONTINUOUS
 62
     2
 10
111.6829
 20
134.11235
 30
0.0847
 40
2.541
  1
１０５
 50
0.0
 41
0.733333333
 51
0.0
  7
KANJI0
  0
TEXT
  8
2
  6
CONTINUOUS
 62
     2
 10
111.6829
 20
151.05235
 30
0.0847
 40
2.541
  1
１０５
 50
0.0
 41
0.733333333
 51
0.0
  7
KANJI0
  0
LINE
  8
2
  6
CONTINUOUS
 62
     2
 10
120.407
 20
171.38035
 30
0.0
 11
110.243
 21
171.38035
 31
0.0
  0
LINE
  8
2
  6
CONTINUOUS
 62
     2
 10
79.751
 20
167.14535
 30
0.0
 11
120.407
 21
167.14535
 31
0.0
  0
LINE
  8
2
  6
CONTINUOUS
 62
     2
 10
79.751
 20
162.91035
 30
0.0
 11
120.407
 21
162.91035
 31
0.0
  0
TEXT
  8
2
  6
CONTINUOUS
 62
     2
 10
122.101
 20
151.05235
 30
0.0847
 40
2.541
  1
１１０
 50
0.0
 41
0.733333333
 51
0.0
  7
KANJI0
  0
TEXT
  8
2
  6
CONTINUOUS
 62
     2
 10
122.101
 20
134.11235
 30
0.0847
 40
2.541
  1
１１０
 50
0.0
 41
0.733333333
 51
0.0
  7
KANJI0
  0
TEXT
  8
2
  6
CONTINUOUS
 62
     2
 10
124.0491
 20
165.87485
 30
0.0847
 40
2.541
  1
６０
 50
0.0
 41
0.733333333
 51
0.0
  7
KANJI0
  0
TEXT
  8
2
  6
CONTINUOUS
 62
     2
 10
124.0491
 20
155.28735
 30
0.0847
 40
2.541
  1
８６
 50
0.0
 41
0.733333333
 51
0.0
  7
KANJI0
  0
TEXT
  8
2
  6
CONTINUOUS
 62
     2
 10
124.0491
 20
146.81735
 30
0.0847
 40
2.541
  1
７６
 50
0.0
 41
0.733333333
 51
0.0
  7
KANJI0
  0
TEXT
  8
2
  6
CONTINUOUS
 62
     2
 10
124.0491
 20
142.58235
 30
0.0847
 40
2.541
  1
７４
 50
0.0
 41
0.733333333
 51
0.0
  7
KANJI0
  0
TEXT
  8
2
  6
CONTINUOUS
 62
     2
 10
124.0491
 20
138.34735
 30
0.0847
 40
2.541
  1
８６
 50
0.0
 41
0.733333333
 51
0.0
  7
KANJI0
  0
LINE
  8
2
  6
CONTINUOUS
 62
     2
 10
110.243
 20
141.73535
 30
0.0
 11
140.735
 21
141.73535
 31
0.0
  0
TEXT
  8
2
  6
CONTINUOUS
 62
     2
 10
71.781
 20
165.87485
 30
0.0847
 40
2.541
  1
１１５
 50
0.0
 41
0.733333333
 51
0.0
  7
KANJI0
  0
TEXT
  8
2
  6
CONTINUOUS
 62
     2
 10
71.781
 20
155.28735
 30
0.0847
 40
2.541
  1
１６７
 50
0.0
 41
0.733333333
 51
0.0
  7
KANJI0
  0
TEXT
  8
2
  6
CONTINUOUS
 62
     2
 10
71.781
 20
151.05235
 30
0.0847
 40
2.541
  1
１８８
 50
0.0
 41
0.733333333
 51
0.0
  7
KANJI0
  0
TEXT
  8
2
  6
CONTINUOUS
 62
     2
 10
71.781
 20
138.34735
 30
0.0847
 40
2.541
  1
１６７
 50
0.0
 41
0.733333333
 51
0.0
  7
KANJI0
  0
TEXT
  8
2
  6
CONTINUOUS
 62
     2
 10
71.781
 20
134.11235
 30
0.0847
 40
2.541
  1
１８８
 50
0.0
 41
0.733333333
 51
0.0
  7
KANJI0
  0
TEXT
  8
2
  6
CONTINUOUS
 62
     2
 10
71.781
 20
144.69985
 30
0.0847
 40
2.541
  1
１２４
 50
0.0
 41
0.733333333
 51
0.0
  7
KANJI0
  0
LINE
  8
2
  6
CONTINUOUS
 62
     2
 10
70.587
 20
141.73535
 30
0.0
 11
100.079
 21
141.73535
 31
0.0
  0
TEXT
  8
2
  6
CONTINUOUS
 62
     2
 10
143.97
 20
176.46235
 30
1.694
 40
2.541
  1
Ⅰ
 50
0.0
 41
0.833333333
 51
0.0
  7
KANJI2
  0
TEXT
  8
2
  6
CONTINUOUS
 62
     2
 10
142.6995
 20
165.87485
 30
0.0847
 40
2.541
  1
１０
 50
0.0
 41
0.733333333
 51
0.0
  7
KANJI0
  0
TEXT
  8
2
  6
CONTINUOUS
 62
     2
 10
142.6995
 20
155.28735
 30
0.0847
 40
2.541
  1
１２
 50
0.0
 41
0.733333333
 51
0.0
  7
KANJI0
  0
TEXT
  8
2
  6
CONTINUOUS
 62
     2
 10
142.6995
 20
151.05235
 30
0.0847
 40
2.541
  1
２３
 50
0.0
 41
0.733333333
 51
0.0
  7
KANJI0
  0
TEXT
  8
2
  6
CONTINUOUS
 62
     2
 10
142.6995
 20
146.81735
 30
0.0847
 40
2.541
  1
１０
 50
0.0
 41
0.733333333
 51
0.0
  7
KANJI0
  0
TEXT
  8
2
  6
CONTINUOUS
 62
     2
 10
142.6995
 20
134.11235
 30
0.0847
 40
2.541
  1
２３
 50
0.0
 41
0.733333333
 51
0.0
  7
KANJI0
  0
TEXT
  8
2
  6
CONTINUOUS
 62
     2
 10
142.6995
 20
140.46485
 30
0.0847
 40
2.541
  1
１２
 50
0.0
 41
0.733333333
 51
0.0
  7
KANJI0
  0
LINE
  8
2
  6
CONTINUOUS
 62
     2
 10
148.899
 20
133.26535
 30
0.0
 11
148.899
 21
179.85035
 31
0.0
  0
LINE
  8
2
  6
CONTINUOUS
 62
     2
 10
159.063
 20
179.85035
 30
0.0
 11
159.063
 21
133.26535
 31
0.0
  0
TEXT
  8
2
  6
CONTINUOUS
 62
     2
 10
152.80367
 20
176.424235
 30
0.2541
 40
2.541
  1
Ｊ
 50
0.0
 41
0.833333333
 51
0.0
  7
KANJI3
  0
LINE
  8
2
  6
CONTINUOUS
 62
     2
 10
70.587
 20
154.44035
 30
0.0
 11
148.899
 21
154.44035
 31
0.0
  0
LINE
  8
2
  6
CONTINUOUS
 62
     2
 10
110.243
 20
145.97035
 30
0.0
 11
148.899
 21
145.97035
 31
0.0
  0
LINE
  8
2
  6
CONTINUOUS
 62
     2
 10
70.587
 20
137.50035
 30
0.0
 11
148.899
 21
137.50035
 31
0.0
  0
TEXT
  8
2
  6
CONTINUOUS
 62
     2
 10
162.298
 20
176.46235
 30
1.694
 40
2.541
  1
ｈ
 50
0.0
 41
0.833333333
 51
0.0
  7
KANJI2
  0
LINE
  8
2
  6
CONTINUOUS
 62
     2
 10
167.227
 20
179.85035
 30
0.0
 11
167.227
 21
133.26535
 31
0.0
  0
TEXT
  8
0
  6
CONTINUOUS
 62
     3
 10
235.0
 20
12.0
 30
0.6
 40
6.0
  1
ＭＳ－９５１３Ｂ
 50
0.0
 41
0.9
 51
0.0
  7
KANJI4
  0
TEXT
  8
2
  6
CONTINUOUS
 62
     2
 10
83.3931
 20
170.10985
 30
0.0847
 40
2.541
  1
９０
 50
0.0
 41
0.733333333
 51
0.0
  7
KANJI0
  0
TEXT
  8
2
  6
CONTINUOUS
 62
     2
 10
93.5571
 20
170.10985
 30
0.0847
 40
2.541
  1
７４
 50
0.0
 41
0.733333333
 51
0.0
  7
KANJI0
  0
TEXT
  8
2
  6
CONTINUOUS
 62
     2
 10
133.23905
 20
165.87485
 30
0.0847
 40
2.541
  1
６５
 50
0.0
 41
0.733333333
 51
0.0
  7
KANJI0
  0
TEXT
  8
2
  6
CONTINUOUS
 62
     2
 10
161.451
 20
165.87485
 30
0.0847
 40
2.541
  1
３５
 50
0.0
 41
0.733333333
 51
0.0
  7
KANJI0
  0
LINE
  8
2
  6
CONTINUOUS
 62
     2
 10
167.227
 20
179.85035
 30
0.0
 11
15.297
 21
179.85035
 31
0.0
  0
LINE
  8
2
  6
CONTINUOUS
 62
     2
 10
15.297
 20
175.61535
 30
0.0
 11
167.227
 21
175.61535
 31
0.0
  0
LINE
  8
2
  6
CONTINUOUS
 62
     2
 10
70.587
 20
158.67535
 30
0.0
 11
167.227
 21
158.67535
 31
0.0
  0
LINE
  8
2
  6
CONTINUOUS
 62
     2
 10
148.899
 20
141.73535
 30
0.0
 11
167.227
 21
141.73535
 31
0.0
  0
LINE
  8
2
  6
CONTINUOUS
 62
     2
 10
15.297
 20
133.26535
 30
0.0
 11
167.227
 21
133.26535
 31
0.0
  0
TEXT
  8
2
  6
CONTINUOUS
 62
     2
 10
168.921
 20
165.87485
 30
0.0847
 40
2.541
  1
６
 50
0.0
 41
0.733333333
 51
0.0
  7
KANJI0
  0
TEXT
  8
2
  6
CONTINUOUS
 62
     2
 10
168.921
 20
153.16985
 30
0.0847
 40
2.541
  1
７
 50
0.0
 41
0.733333333
 51
0.0
  7
KANJI0
  0
TEXT
  8
2
  6
CONTINUOUS
 62
     2
 10
168.921
 20
144.69985
 30
0.0847
 40
2.541
  1
６
 50
0.0
 41
0.733333333
 51
0.0
  7
KANJI0
  0
TEXT
  8
2
  6
CONTINUOUS
 62
     2
 10
168.921
 20
136.22985
 30
0.0847
 40
2.541
  1
７
 50
0.0
 41
0.733333333
 51
0.0
  7
KANJI0
  0
LINE
  8
2
  6
CONTINUOUS
 62
     2
 10
172.309
 20
179.85035
 30
0.0
 11
172.309
 21
133.26535
 31
0.0
  0
TEXT
  8
2
  6
CONTINUOUS
 62
     2
 10
174.003
 20
165.87485
 30
0.0847
 40
2.541
  1
２
 50
0.0
 41
0.733333333
 51
0.0
  7
KANJI0
  0
TEXT
  8
2
  6
CONTINUOUS
 62
     2
 10
174.003
 20
153.16985
 30
0.0847
 40
2.541
  1
２
 50
0.0
 41
0.733333333
 51
0.0
  7
KANJI0
  0
TEXT
  8
2
  6
CONTINUOUS
 62
     2
 10
174.003
 20
144.69985
 30
0.0847
 40
2.541
  1
２
 50
0.0
 41
0.733333333
 51
0.0
  7
KANJI0
  0
TEXT
  8
2
  6
CONTINUOUS
 62
     2
 10
174.003
 20
136.22985
 30
0.0847
 40
2.541
  1
２
 50
0.0
 41
0.733333333
 51
0.0
  7
KANJI0
  0
TEXT
  8
2
  6
CONTINUOUS
 62
     2
 10
168.4975
 20
176.46235
 30
1.694
 40
2.541
  1
ｄ
 50
0.0
 41
0.833333333
 51
0.0
  7
KANJI2
  0
TEXT
  8
2
  6
CONTINUOUS
 62
     2
 10
174.003
 20
176.46235
 30
1.694
 40
2.541
  1
ｔ
 50
0.0
 41
0.833333333
 51
0.0
  7
KANJI2
  0
LINE
  8
2
  6
CONTINUOUS
 62
     2
 10
177.391
 20
179.85035
 30
0.0
 11
177.391
 21
133.26535
 31
0.0
  0
LINE
  8
2
  6
CONTINUOUS
 62
     2
 10
184.555
 20
133.26535
 30
0.0
 11
184.555
 21
179.85035
 31
0.0
  0
LINE
  8
2
  6
CONTINUOUS
 62
     2
 10
197.26
 20
179.85035
 30
0.0
 11
197.26
 21
133.26535
 31
0.0
  0
TEXT
  8
2
  6
CONTINUOUS
 62
     2
 10
184.93615
 20
170.10985
 30
0.0
 40
2.541
  1
０．６５～０．８
 50
0.0
 41
0.666666667
 51
0.0
  7
KANJI5
  0
TEXT
  8
2
  6
CONTINUOUS
 62
     2
 10
184.93615
 20
161.63985
 30
0.0
 40
2.541
  1
１．２～１．２５
 50
0.0
 41
0.666666667
 51
0.0
  7
KANJI5
  0
TEXT
  8
2
  6
CONTINUOUS
 62
     2
 10
184.93615
 20
155.28735
 30
0.0
 40
2.541
  1
２．２～２．５
 50
0.0
 41
0.666666667
 51
0.0
  7
KANJI5
  0
TEXT
  8
2
  6
CONTINUOUS
 62
     2
 10
184.93615
 20
151.05235
 30
0.0
 40
2.541
  1
３．３～３．６
 50
0.0
 41
0.666666667
 51
0.0
  7
KANJI5
  0
TEXT
  8
2
  6
CONTINUOUS
 62
     2
 10
187.096
 20
146.81735
 30
0.0
 40
2.541
  1
２．４
 50
0.0
 41
0.666666667
 51
0.0
  7
KANJI5
  0
TEXT
  8
2
  6
CONTINUOUS
 62
     2
 10
184.93615
 20
142.58235
 30
0.0
 40
2.541
  1
１．８～１．８５
 50
0.0
 41
0.666666667
 51
0.0
  7
KANJI5
  0
TEXT
  8
2
  6
CONTINUOUS
 62
     2
 10
184.93615
 20
138.34735
 30
0.0
 40
2.541
  1
３．３～３．５
 50
0.0
 41
0.666666667
 51
0.0
  7
KANJI5
  0
TEXT
  8
2
  6
CONTINUOUS
 62
     2
 10
184.93615
 20
134.11235
 30
0.0
 40
2.541
  1
３．３～３．６
 50
0.0
 41
0.666666667
 51
0.0
  7
KANJI5
  0
TEXT
  8
2
  6
CONTINUOUS
 62
     2
 10
179.626
 20
176.46235
 30
1.694
 40
2.541
  1
ｇ
 50
0.0
 41
0.833333333
 51
0.0
  7
KANJI2
  0
TEXT
  8
2
  6
CONTINUOUS
 62
     2
 10
178.951
 20
165.77435
 30
0.0847
 40
2.541
  1
１５
 50
0.0
 41
0.733333333
 51
0.0
  7
KANJI0
  0
LINE
  8
2
  6
CONTINUOUS
 62
     2
 10
167.227
 20
150.20535
 30
0.0
 11
177.391
 21
150.20535
 31
0.0
  0
LINE
  8
2
  6
CONTINUOUS
 62
     2
 10
167.227
 20
141.73535
 30
0.0
 11
177.391
 21
141.73535
 31
0.0
  0
TEXT
  8
2
  6
CONTINUOUS
 62
     2
 10
178.884
 20
144.70235
 30
0.0847
 40
2.541
  1
２０
 50
0.0
 41
0.733333333
 51
0.0
  7
KANJI0
  0
TEXT
  8
2
  6
CONTINUOUS
 62
     2
 10
81.445
 20
163.75735
 30
0.0847
 40
2.541
  1
１１０
 50
0.0
 41
0.733333333
 51
0.0
  7
KANJI0
  0
TEXT
  8
2
  6
CONTINUOUS
 62
     2
 10
81.445
 20
159.52235
 30
0.0847
 40
2.541
  1
１１５
 50
0.0
 41
0.733333333
 51
0.0
  7
KANJI0
  0
TEXT
  8
2
  6
CONTINUOUS
 62
     2
 10
81.445
 20
155.28735
 30
0.0847
 40
2.541
  1
１２５
 50
0.0
 41
0.733333333
 51
0.0
  7
KANJI0
  0
TEXT
  8
2
  6
CONTINUOUS
 62
     2
 10
81.445
 20
151.05235
 30
0.0847
 40
2.541
  1
１３０
 50
0.0
 41
0.733333333
 51
0.0
  7
KANJI0
  0
TEXT
  8
2
  6
CONTINUOUS
 62
     2
 10
81.445
 20
144.69985
 30
0.0847
 40
2.541
  1
１２６
 50
0.0
 41
0.733333333
 51
0.0
  7
KANJI0
  0
TEXT
  8
2
  6
CONTINUOUS
 62
     2
 10
81.445
 20
138.34735
 30
0.0847
 40
2.541
  1
１４６
 50
0.0
 41
0.733333333
 51
0.0
  7
KANJI0
  0
TEXT
  8
2
  6
CONTINUOUS
 62
     2
 10
81.445
 20
134.11235
 30
0.0847
 40
2.541
  1
１３０
 50
0.0
 41
0.733333333
 51
0.0
  7
KANJI0
  0
TEXT
  8
2
  6
CONTINUOUS
 62
     2
 10
93.5571
 20
163.75735
 30
0.0847
 40
2.541
  1
９４
 50
0.0
 41
0.733333333
 51
0.0
  7
KANJI0
  0
LINE
  8
0
 62
    99
 10
0.0
 20
242.615
 30
0.0
 11
420.0
 21
242.615
 31
0.0
  0
LINE
  8
0
 62
    99
 10
0.0
 20
263.765
 30
0.0
 11
420.0
 21
263.765
 31
0.0
  0
LINE
  8
0
 62
    99
 10
0.0
 20
221.465
 30
0.0
 11
420.0
 21
221.465
 31
0.0
  0
LINE
  8
0
 62
    99
 10
344.048
 20
0.0
 30
0.0
 11
344.048
 21
297.0
 31
0.0
  0
LINE
  8
0
  6
CONTINUOUS
 62
     1
 10
76.1055
 20
115.02
 30
0.0
 11
39.7005
 21
115.02
 31
0.0
  0
LINE
  8
0
  6
CONTINUOUS
 62
     1
 10
76.1055
 20
88.02
 30
0.0
 11
39.7005
 21
88.02
 31
0.0
  0
ARC
  8
0
  6
CONTINUOUS
 62
     1
 10
44.403
 20
122.67
 30
0.0
 40
1.35
 50
90.000051715
 51
269.999948285
  0
ARC
  8
0
  6
CONTINUOUS
 62
     1
 10
40.578
 20
125.37
 30
0.0
 40
0.9
 50
90.0
 51
180.0
  0
LINE
  8
0
  6
CONTINUOUS
 62
     1
 10
44.403
 20
121.32
 30
0.0
 11
46.992752506
 21
121.32
 31
0.0
  0
ARC
  8
0
  6
CONTINUOUS
 62
     1
 10
48.180501926
 20
124.92
 30
0.0
 40
1.35
 50
33.690067526
 51
90.0
  0
LINE
  8
0
  6
CONTINUOUS
 62
     1
 10
48.180501926
 20
126.27
 30
0.0
 11
40.578
 21
126.27
 31
0.0
  0
ARC
  8
0
  6
CONTINUOUS
 62
     1
 10
53.884665383
 20
120.42
 30
0.0
 40
0.9
 50
213.690067526
 51
270.0
  0
LINE
  8
0
  6
CONTINUOUS
 62
     1
 10
61.921334617
 20
119.52
 30
0.0
 11
53.884665383
 21
119.52
 31
0.0
  0
LINE
  8
0
  6
CONTINUOUS
 62
     1
 10
53.135820118
 20
119.920769823
 30
0.0
 11
49.303769823
 21
125.668845265
 31
0.0
  0
LINE
  8
0
  6
CONTINUOUS
 62
     1
 10
36.528
 20
115.92
 30
0.0
 11
36.528
 21
115.02
 31
0.0
  0
LINE
  8
0
  6
CONTINUOUS
 62
     1
 10
79.278
 20
115.02
 30
0.0
 11
79.278
 21
115.92
 31
0.0
  0
LINE
  8
0
  6
CONTINUOUS
 62
     1
 10
79.278
 20
115.92
 30
0.0
 11
36.528
 21
115.92
 31
0.0
  0
LINE
  8
0
  6
CONTINUOUS
 62
     1
 10
36.528
 20
115.02
 30
0.0
 11
79.278
 21
115.02
 31
0.0
  0
ARC
  8
0
  6
CONTINUOUS
 62
     1
 10
61.921334617
 20
120.42
 30
0.0
 40
0.9
 50
270.0
 51
326.309932474
  0
ARC
  8
0
  6
CONTINUOUS
 62
     1
 10
75.228
 20
125.37
 30
0.0
 40
0.9
 50
0.0
 51
90.0
  0
ARC
  8
0
  6
CONTINUOUS
 62
     1
 10
71.403
 20
122.67
 30
0.0
 40
1.35
 50
270.000051715
 51
89.999948285
  0
LINE
  8
0
  6
CONTINUOUS
 62
     1
 10
71.403
 20
121.32
 30
0.0
 11
68.813247494
 21
121.32
 31
0.0
  0
ARC
  8
0
  6
CONTINUOUS
 62
     1
 10
67.625498074
 20
124.92
 30
0.0
 40
1.35
 50
90.0
 51
146.309932474
  0
LINE
  8
0
  6
CONTINUOUS
 62
     1
 10
62.670179882
 20
119.920769823
 30
0.0
 11
66.502230177
 21
125.668845265
 31
0.0
  0
LINE
  8
0
  6
CONTINUOUS
 62
     1
 10
67.625498074
 20
126.27
 30
0.0
 11
75.228
 21
126.27
 31
0.0
  0
ARC
  8
0
  6
CONTINUOUS
 62
     1
 10
40.764
 20
77.67
 30
0.0
 40
0.9
 50
180.0
 51
270.0
  0
ARC
  8
0
  6
CONTINUOUS
 62
     1
 10
48.366501926
 20
78.12
 30
0.0
 40
1.35
 50
270.0
 51
326.309932474
  0
LINE
  8
0
  6
CONTINUOUS
 62
     1
 10
48.366501926
 20
76.77
 30
0.0
 11
40.764
 21
76.77
 31
0.0
  0
ARC
  8
0
  6
CONTINUOUS
 62
     1
 10
54.070665383
 20
82.62
 30
0.0
 40
0.9
 50
90.0
 51
146.309932474
  0
LINE
  8
0
  6
CONTINUOUS
 62
     1
 10
62.107334617
 20
83.52
 30
0.0
 11
54.070665383
 21
83.52
 31
0.0
  0
LINE
  8
0
  6
CONTINUOUS
 62
     1
 10
53.321820118
 20
83.119230177
 30
0.0
 11
49.489769823
 21
77.371154735
 31
0.0
  0
LINE
  8
0
  6
CONTINUOUS
 62
     1
 10
36.714
 20
87.12
 30
0.0
 11
36.714
 21
88.02
 31
0.0
  0
LINE
  8
0
  6
CONTINUOUS
 62
     1
 10
79.464
 20
88.02
 30
0.0
 11
79.464
 21
87.12
 31
0.0
  0
LINE
  8
0
  6
CONTINUOUS
 62
     1
 10
79.464
 20
87.12
 30
0.0
 11
36.714
 21
87.12
 31
0.0
  0
LINE
  8
0
  6
CONTINUOUS
 62
     1
 10
36.714
 20
88.02
 30
0.0
 11
79.464
 21
88.02
 31
0.0
  0
ARC
  8
0
  6
CONTINUOUS
 62
     1
 10
62.107334617
 20
82.62
 30
0.0
 40
0.9
 50
33.690067526
 51
90.0
  0
ARC
  8
0
  6
CONTINUOUS
 62
     1
 10
75.414
 20
77.67
 30
0.0
 40
0.9
 50
270.0
 51
0.0
  0
ARC
  8
0
  6
CONTINUOUS
 62
     1
 10
67.811498074
 20
78.12
 30
0.0
 40
1.35
 50
213.690067526
 51
270.0
  0
LINE
  8
0
  6
CONTINUOUS
 62
     1
 10
62.856179882
 20
83.119230177
 30
0.0
 11
66.688230177
 21
77.371154735
 31
0.0
  0
LINE
  8
0
  6
CONTINUOUS
 62
     1
 10
67.811498074
 20
76.77
 30
0.0
 11
75.414
 21
76.77
 31
0.0
  0
ARC
  8
0
  6
CONTINUOUS
 62
     1
 10
36.528
 20
113.22
 30
0.0
 40
1.8
 50
90.0
 51
180.0
  0
LINE
  8
0
  6
CONTINUOUS
 62
     1
 10
34.728
 20
89.82
 30
0.0
 11
34.728
 21
113.22
 31
0.0
  0
ARC
  8
0
  6
CONTINUOUS
 62
     1
 10
79.278
 20
113.22
 30
0.0
 40
1.8
 50
0.0
 51
90.0
  0
LINE
  8
0
  6
CONTINUOUS
 62
     1
 10
81.078
 20
89.82
 30
0.0
 11
81.078
 21
113.22
 31
0.0
  0
ARC
  8
0
  6
CONTINUOUS
 62
     1
 10
79.278
 20
89.82
 30
0.0
 40
1.8
 50
270.0
 51
0.0
  0
LINE
  8
0
  6
CONTINUOUS
 62
     2
 10
48.903
 20
106.02
 30
0.0
 11
48.903
 21
97.02
 31
0.0
  0
LINE
  8
0
  6
CONTINUOUS
 62
     2
 10
48.903
 20
97.02
 30
0.0
 11
66.903
 21
97.02
 31
0.0
  0
LINE
  8
0
  6
CONTINUOUS
 62
     2
 10
66.903
 20
97.02
 30
0.0
 11
66.903
 21
106.02
 31
0.0
  0
LINE
  8
0
  6
CONTINUOUS
 62
     2
 10
66.903
 20
106.02
 30
0.0
 11
48.903
 21
106.02
 31
0.0
  0
TEXT
  8
2
  6
CONTINUOUS
 62
     2
 10
61.818
 20
102.87
 30
0.27
 40
2.7
  1
銘　板
 50
180.0
 41
0.9
 51
0.0
  7
KANJI6
  0
LINE
  8
0
  6
CONTINUOUS
 62
     1
 10
81.078
 20
93.42
 30
0.0
 11
85.578
 21
93.42
 31
0.0
  0
LINE
  8
0
  6
CONTINUOUS
 62
     1
 10
85.578
 20
109.62
 30
0.0
 11
81.078
 21
109.62
 31
0.0
  0
LINE
  8
0
  6
CONTINUOUS
 62
     1
 10
85.578
 20
99.72
 30
0.0
 11
86.478
 21
100.17
 31
0.0
  0
LINE
  8
0
  6
CONTINUOUS
 62
     1
 10
86.478
 20
100.17
 30
0.0
 11
86.478
 21
102.87
 31
0.0
  0
LINE
  8
0
  6
CONTINUOUS
 62
     1
 10
86.478
 20
102.87
 30
0.0
 11
85.578
 21
103.32
 31
0.0
  0
LINE
  8
0
  6
CONTINUOUS
 62
     1
 10
85.578
 20
103.32
 30
0.0
 11
85.578
 21
109.62
 31
0.0
  0
LINE
  8
0
  6
CONTINUOUS
 62
     1
 10
85.578
 20
93.42
 30
0.0
 11
85.578
 21
99.72
 31
0.0
  0
LINE
  8
0
  6
CONTINUOUS
 62
     1
 10
86.208
 20
104.67
 30
0.0
 11
87.828
 21
104.67
 31
0.0
  0
LINE
  8
0
  6
CONTINUOUS
 62
     1
 10
87.828
 20
104.67
 30
0.0
 11
87.828
 21
108.27
 31
0.0
  0
LINE
  8
0
  6
CONTINUOUS
 62
     1
 10
87.828
 20
108.27
 30
0.0
 11
86.208
 21
108.27
 31
0.0
  0
LINE
  8
0
  6
CONTINUOUS
 62
     1
 10
86.208
 20
108.27
 30
0.0
 11
86.208
 21
104.67
 31
0.0
  0
LINE
  8
0
  6
CONTINUOUS
 62
     1
 10
86.208
 20
108.36
 30
0.0
 11
86.208
 21
104.58
 31
0.0
  0
LINE
  8
0
  6
CONTINUOUS
 62
     1
 10
87.828
 20
106.47
 30
0.0
 11
86.208
 21
106.47
 31
0.0
  0
LINE
  8
0
  6
CONTINUOUS
 62
     1
 10
86.208
 20
94.77
 30
0.0
 11
87.828
 21
94.77
 31
0.0
  0
LINE
  8
0
  6
CONTINUOUS
 62
     1
 10
87.828
 20
94.77
 30
0.0
 11
87.828
 21
98.37
 31
0.0
  0
LINE
  8
0
  6
CONTINUOUS
 62
     1
 10
87.828
 20
98.37
 30
0.0
 11
86.208
 21
98.37
 31
0.0
  0
LINE
  8
0
  6
CONTINUOUS
 62
     1
 10
86.208
 20
98.37
 30
0.0
 11
86.208
 21
94.77
 31
0.0
  0
LINE
  8
0
  6
CONTINUOUS
 62
     1
 10
86.208
 20
98.46
 30
0.0
 11
86.208
 21
94.68
 31
0.0
  0
LINE
  8
0
  6
CONTINUOUS
 62
     1
 10
87.828
 20
96.57
 30
0.0
 11
86.208
 21
96.57
 31
0.0
  0
LINE
  8
0
  6
CONTINUOUS
 62
     2
 10
85.578
 20
104.22
 30
0.0
 11
85.848
 21
104.22
 31
0.0
  0
LINE
  8
0
  6
CONTINUOUS
 62
     2
 10
85.848
 20
104.22
 30
0.0
 11
85.848
 21
108.72
 31
0.0
  0
LINE
  8
0
  6
CONTINUOUS
 62
     2
 10
85.848
 20
108.72
 30
0.0
 11
85.578
 21
108.72
 31
0.0
  0
LINE
  8
0
  6
CONTINUOUS
 62
     2
 10
85.848
 20
108.36
 30
0.0
 11
86.208
 21
108.36
 31
0.0
  0
LINE
  8
0
  6
CONTINUOUS
 62
     2
 10
86.208
 20
104.58
 30
0.0
 11
85.848
 21
104.58
 31
0.0
  0
LINE
  8
0
  6
CONTINUOUS
 62
     2
 10
86.208
 20
106.6725
 30
0.0
 11
85.848
 21
106.3125
 31
0.0
  0
LINE
  8
0
  6
CONTINUOUS
 62
     2
 10
86.208
 20
106.4025
 30
0.0
 11
85.848
 21
106.0425
 31
0.0
  0
LINE
  8
0
  6
CONTINUOUS
 62
     2
 10
85.578
 20
94.32
 30
0.0
 11
85.848
 21
94.32
 31
0.0
  0
LINE
  8
0
  6
CONTINUOUS
 62
     2
 10
85.848
 20
94.32
 30
0.0
 11
85.848
 21
98.82
 31
0.0
  0
LINE
  8
0
  6
CONTINUOUS
 62
     2
 10
85.848
 20
98.82
 30
0.0
 11
85.578
 21
98.82
 31
0.0
  0
LINE
  8
0
  6
CONTINUOUS
 62
     2
 10
85.848
 20
98.46
 30
0.0
 11
86.208
 21
98.46
 31
0.0
  0
LINE
  8
0
  6
CONTINUOUS
 62
     2
 10
86.208
 20
94.68
 30
0.0
 11
85.848
 21
94.68
 31
0.0
  0
LINE
  8
0
  6
CONTINUOUS
 62
     2
 10
86.208
 20
96.7725
 30
0.0
 11
85.848
 21
96.4125
 31
0.0
  0
LINE
  8
0
  6
CONTINUOUS
 62
     2
 10
86.208
 20
96.5025
 30
0.0
 11
85.848
 21
96.1425
 31
0.0
  0
ARC
  8
0
  6
CONTINUOUS
 62
     1
 10
46.992752506
 20
122.67
 30
0.0
 40
1.35
 50
270.000051715
 51
89.999948285
  0
LINE
  8
0
  6
CONTINUOUS
 62
     1
 10
46.992753724
 20
124.02
 30
0.0
 11
44.403
 21
124.02
 31
0.0
  0
ARC
  8
0
  6
CONTINUOUS
 62
     1
 10
68.813247494
 20
122.67
 30
0.0
 40
1.35
 50
90.000051715
 51
269.999948285
  0
LINE
  8
0
  6
CONTINUOUS
 62
     1
 10
68.813247494
 20
124.02
 30
0.0
 11
71.403
 21
124.02
 31
0.0
  0
ARC
  8
0
  6
CONTINUOUS
 62
     1
 10
44.403
 20
80.37
 30
0.0
 40
1.35
 50
90.000051715
 51
269.999948285
  0
LINE
  8
0
  6
CONTINUOUS
 62
     1
 10
44.403
 20
81.72
 30
0.0
 11
46.992752506
 21
81.72
 31
0.0
  0
ARC
  8
0
  6
CONTINUOUS
 62
     1
 10
46.992752506
 20
80.37
 30
0.0
 40
1.35
 50
270.000051715
 51
89.999948285
  0
LINE
  8
0
  6
CONTINUOUS
 62
     1
 10
46.992753724
 20
79.02
 30
0.0
 11
44.403
 21
79.02
 31
0.0
  0
ARC
  8
0
  6
CONTINUOUS
 62
     1
 10
71.403
 20
80.37
 30
0.0
 40
1.35
 50
270.000051715
 51
89.999948285
  0
LINE
  8
0
  6
CONTINUOUS
 62
     1
 10
71.403
 20
81.72
 30
0.0
 11
68.813247494
 21
81.72
 31
0.0
  0
ARC
  8
0
  6
CONTINUOUS
 62
     1
 10
68.813247494
 20
80.37
 30
0.0
 40
1.35
 50
90.000051715
 51
269.999948285
  0
LINE
  8
0
  6
CONTINUOUS
 62
     1
 10
68.813247494
 20
79.02
 30
0.0
 11
71.403
 21
79.02
 31
0.0
  0
LINE
  8
0
  6
LTYPE1
 62
     5
 10
94.852247494
 20
101.52
 30
0.0
 11
39.4305
 21
101.52
 31
0.0
  0
LINE
  8
0
  6
CONTINUOUS
 62
     6
 10
82.406247494
 20
109.835
 30
0.0
 11
84.478247494
 21
109.835
 31
0.0
  0
LINE
  8
0
  6
CONTINUOUS
 62
     5
 10
83.504247494
 20
110.359
 30
0.0
 11
84.892307075
 21
111.798892565
 31
0.0
  0
LINE
  8
0
  6
CONTINUOUS
 62
     5
 10
83.504247494
 20
110.359
 30
0.0
 11
83.986396071
 21
112.300013331
 31
0.0
  0
LINE
  8
0
  6
CONTINUOUS
 62
     5
 10
83.504247494
 20
110.359
 30
0.0
 11
88.961247494
 21
120.224
 31
0.0
  0
LINE
  8
2
  6
CONTINUOUS
 62
     6
 10
89.879008849
 20
120.638994696
 30
0.0
 11
89.933008849
 21
120.672114696
 31
0.0
  0
LINE
  8
2
  6
CONTINUOUS
 62
     6
 10
89.933008849
 20
120.672114696
 30
0.0
 11
89.987008849
 21
120.705954696
 31
0.0
  0
LINE
  8
2
  6
CONTINUOUS
 62
     6
 10
89.987008849
 20
120.705954696
 30
0.0
 11
90.041008849
 21
120.741234696
 31
0.0
  0
LINE
  8
2
  6
CONTINUOUS
 62
     6
 10
90.041008849
 20
120.741234696
 30
0.0
 11
90.095008849
 21
120.778674696
 31
0.0
  0
LINE
  8
2
  6
CONTINUOUS
 62
     6
 10
90.095008849
 20
120.778674696
 30
0.0
 11
90.149008849
 21
120.818994696
 31
0.0
  0
LINE
  8
2
  6
CONTINUOUS
 62
     6
 10
90.149008849
 20
120.818994696
 30
0.0
 11
90.200128849
 21
120.868674696
 31
0.0
  0
LINE
  8
2
  6
CONTINUOUS
 62
     6
 10
90.200128849
 20
120.868674696
 30
0.0
 11
90.251968849
 21
120.921234696
 31
0.0
  0
LINE
  8
2
  6
CONTINUOUS
 62
     6
 10
90.251968849
 20
120.921234696
 30
0.0
 11
90.305248849
 21
120.975954696
 31
0.0
  0
LINE
  8
2
  6
CONTINUOUS
 62
     6
 10
90.305248849
 20
120.975954696
 30
0.0
 11
90.360688849
 21
121.032114696
 31
0.0
  0
LINE
  8
2
  6
CONTINUOUS
 62
     6
 10
90.360688849
 20
121.032114696
 30
0.0
 11
90.419008849
 21
121.088994696
 31
0.0
  0
LINE
  8
2
  6
CONTINUOUS
 62
     6
 10
90.419008849
 20
121.088994696
 30
0.0
 11
90.492448849
 21
121.142994696
 31
0.0
  0
LINE
  8
2
  6
CONTINUOUS
 62
     6
 10
90.492448849
 20
121.142994696
 30
0.0
 11
90.567328849
 21
121.196994696
 31
0.0
  0
LINE
  8
2
  6
CONTINUOUS
 62
     6
 10
90.567328849
 20
121.196994696
 30
0.0
 11
90.641488849
 21
121.250994696
 31
0.0
  0
LINE
  8
2
  6
CONTINUOUS
 62
     6
 10
90.641488849
 20
121.250994696
 30
0.0
 11
90.712768849
 21
121.304994696
 31
0.0
  0
LINE
  8
2
  6
CONTINUOUS
 62
     6
 10
90.712768849
 20
121.304994696
 30
0.0
 11
90.779008849
 21
121.358994696
 31
0.0
  0
LINE
  8
2
  6
CONTINUOUS
 62
     6
 10
90.779008849
 20
121.358994696
 30
0.0
 11
90.823648849
 21
121.412994696
 31
0.0
  0
LINE
  8
2
  6
CONTINUOUS
 62
     6
 10
90.823648849
 20
121.412994696
 30
0.0
 11
90.862528849
 21
121.466994696
 31
0.0
  0
LINE
  8
2
  6
CONTINUOUS
 62
     6
 10
90.862528849
 20
121.466994696
 30
0.0
 11
90.897088849
 21
121.520994696
 31
0.0
  0
LINE
  8
2
  6
CONTINUOUS
 62
     6
 10
90.897088849
 20
121.520994696
 30
0.0
 11
90.928768849
 21
121.574994696
 31
0.0
  0
LINE
  8
2
  6
CONTINUOUS
 62
     6
 10
90.928768849
 20
121.574994696
 30
0.0
 11
90.959008849
 21
121.628994696
 31
0.0
  0
LINE
  8
2
  6
CONTINUOUS
 62
     6
 10
90.959008849
 20
121.628994696
 30
0.0
 11
90.997888849
 21
121.682994696
 31
0.0
  0
LINE
  8
2
  6
CONTINUOUS
 62
     6
 10
90.997888849
 20
121.682994696
 30
0.0
 11
91.036048849
 21
121.736994696
 31
0.0
  0
LINE
  8
2
  6
CONTINUOUS
 62
     6
 10
91.036048849
 20
121.736994696
 30
0.0
 11
91.072768849
 21
121.790994696
 31
0.0
  0
LINE
  8
2
  6
CONTINUOUS
 62
     6
 10
91.072768849
 20
121.790994696
 30
0.0
 11
91.107328849
 21
121.844994696
 31
0.0
  0
LINE
  8
2
  6
CONTINUOUS
 62
     6
 10
91.107328849
 20
121.844994696
 30
0.0
 11
91.139008849
 21
121.898994696
 31
0.0
  0
LINE
  8
2
  6
CONTINUOUS
 62
     6
 10
91.139008849
 20
121.898994696
 30
0.0
 11
91.161328849
 21
121.947234696
 31
0.0
  0
LINE
  8
2
  6
CONTINUOUS
 62
     6
 10
91.161328849
 20
121.947234696
 30
0.0
 11
91.180768849
 21
121.996914696
 31
0.0
  0
LINE
  8
2
  6
CONTINUOUS
 62
     6
 10
91.180768849
 20
121.996914696
 30
0.0
 11
91.198048849
 21
122.049474696
 31
0.0
  0
LINE
  8
2
  6
CONTINUOUS
 62
     6
 10
91.198048849
 20
122.049474696
 30
0.0
 11
91.213888849
 21
122.106354696
 31
0.0
  0
LINE
  8
2
  6
CONTINUOUS
 62
     6
 10
91.213888849
 20
122.106354696
 30
0.0
 11
91.229008849
 21
122.168994696
 31
0.0
  0
LINE
  8
2
  6
CONTINUOUS
 62
     6
 10
91.229008849
 20
122.168994696
 30
0.0
 11
91.249888849
 21
122.250354696
 31
0.0
  0
LINE
  8
2
  6
CONTINUOUS
 62
     6
 10
91.249888849
 20
122.250354696
 30
0.0
 11
91.270048849
 21
122.337474696
 31
0.0
  0
LINE
  8
2
  6
CONTINUOUS
 62
     6
 10
91.270048849
 20
122.337474696
 30
0.0
 11
91.288768849
 21
122.428914696
 31
0.0
  0
LINE
  8
2
  6
CONTINUOUS
 62
     6
 10
91.288768849
 20
122.428914696
 30
0.0
 11
91.305328849
 21
122.523234696
 31
0.0
  0
LINE
  8
2
  6
CONTINUOUS
 62
     6
 10
91.305328849
 20
122.523234696
 30
0.0
 11
91.319008849
 21
122.618994696
 31
0.0
  0
LINE
  8
2
  6
CONTINUOUS
 62
     6
 10
91.319008849
 20
122.618994696
 30
0.0
 11
91.329088849
 21
122.714754696
 31
0.0
  0
LINE
  8
2
  6
CONTINUOUS
 62
     6
 10
91.329088849
 20
122.714754696
 30
0.0
 11
91.334848849
 21
122.809074696
 31
0.0
  0
LINE
  8
2
  6
CONTINUOUS
 62
     6
 10
91.334848849
 20
122.809074696
 30
0.0
 11
91.335568849
 21
122.900514696
 31
0.0
  0
LINE
  8
2
  6
CONTINUOUS
 62
     6
 10
91.335568849
 20
122.900514696
 30
0.0
 11
91.330528849
 21
122.987634696
 31
0.0
  0
LINE
  8
2
  6
CONTINUOUS
 62
     6
 10
91.330528849
 20
122.987634696
 30
0.0
 11
91.319008849
 21
123.068994696
 31
0.0
  0
LINE
  8
2
  6
CONTINUOUS
 62
     6
 10
91.319008849
 20
123.068994696
 30
0.0
 11
91.297408849
 21
123.143154696
 31
0.0
  0
LINE
  8
2
  6
CONTINUOUS
 62
     6
 10
91.297408849
 20
123.143154696
 30
0.0
 11
91.268608849
 21
123.208674696
 31
0.0
  0
LINE
  8
2
  6
CONTINUOUS
 62
     6
 10
91.268608849
 20
123.208674696
 30
0.0
 11
91.232608849
 21
123.264114696
 31
0.0
  0
LINE
  8
2
  6
CONTINUOUS
 62
     6
 10
91.232608849
 20
123.264114696
 30
0.0
 11
91.189408849
 21
123.308034696
 31
0.0
  0
LINE
  8
2
  6
CONTINUOUS
 62
     6
 10
91.189408849
 20
123.308034696
 30
0.0
 11
91.139008849
 21
123.338994696
 31
0.0
  0
LINE
  8
2
  6
CONTINUOUS
 62
     6
 10
91.139008849
 20
123.338994696
 30
0.0
 11
91.072768849
 21
123.346914696
 31
0.0
  0
LINE
  8
2
  6
CONTINUOUS
 62
     6
 10
91.072768849
 20
123.346914696
 30
0.0
 11
91.001488849
 21
123.341154696
 31
0.0
  0
LINE
  8
2
  6
CONTINUOUS
 62
     6
 10
91.001488849
 20
123.341154696
 30
0.0
 11
90.927328849
 21
123.322434696
 31
0.0
  0
LINE
  8
2
  6
CONTINUOUS
 62
     6
 10
90.927328849
 20
123.322434696
 30
0.0
 11
90.852448849
 21
123.291474696
 31
0.0
  0
LINE
  8
2
  6
CONTINUOUS
 62
     6
 10
90.852448849
 20
123.291474696
 30
0.0
 11
90.779008849
 21
123.248994696
 31
0.0
  0
LINE
  8
2
  6
CONTINUOUS
 62
     6
 10
90.779008849
 20
123.248994696
 30
0.0
 11
90.717808849
 21
123.189954696
 31
0.0
  0
LINE
  8
2
  6
CONTINUOUS
 62
     6
 10
90.717808849
 20
123.189954696
 30
0.0
 11
90.660208849
 21
123.122274696
 31
0.0
  0
LINE
  8
2
  6
CONTINUOUS
 62
     6
 10
90.660208849
 20
123.122274696
 30
0.0
 11
90.606208849
 21
123.048114696
 31
0.0
  0
LINE
  8
2
  6
CONTINUOUS
 62
     6
 10
90.606208849
 20
123.048114696
 30
0.0
 11
90.555808849
 21
122.969634696
 31
0.0
  0
LINE
  8
2
  6
CONTINUOUS
 62
     6
 10
90.555808849
 20
122.969634696
 30
0.0
 11
90.509008849
 21
122.888994696
 31
0.0
  0
LINE
  8
2
  6
CONTINUOUS
 62
     6
 10
90.509008849
 20
122.888994696
 30
0.0
 11
90.462928849
 21
122.819874696
 31
0.0
  0
LINE
  8
2
  6
CONTINUOUS
 62
     6
 10
90.462928849
 20
122.819874696
 30
0.0
 11
90.421168849
 21
122.750034696
 31
0.0
  0
LINE
  8
2
  6
CONTINUOUS
 62
     6
 10
90.421168849
 20
122.750034696
 30
0.0
 11
90.384448849
 21
122.678754696
 31
0.0
  0
LINE
  8
2
  6
CONTINUOUS
 62
     6
 10
90.384448849
 20
122.678754696
 30
0.0
 11
90.353488849
 21
122.605314696
 31
0.0
  0
LINE
  8
2
  6
CONTINUOUS
 62
     6
 10
90.353488849
 20
122.605314696
 30
0.0
 11
90.329008849
 21
122.528994696
 31
0.0
  0
LINE
  8
2
  6
CONTINUOUS
 62
     6
 10
90.329008849
 20
122.528994696
 30
0.0
 11
90.317488849
 21
122.446194696
 31
0.0
  0
LINE
  8
2
  6
CONTINUOUS
 62
     6
 10
90.317488849
 20
122.446194696
 30
0.0
 11
90.312448849
 21
122.359794696
 31
0.0
  0
LINE
  8
2
  6
CONTINUOUS
 62
     6
 10
90.312448849
 20
122.359794696
 30
0.0
 11
90.313168849
 21
122.269794696
 31
0.0
  0
LINE
  8
2
  6
CONTINUOUS
 62
     6
 10
90.313168849
 20
122.269794696
 30
0.0
 11
90.318928849
 21
122.176194696
 31
0.0
  0
LINE
  8
2
  6
CONTINUOUS
 62
     6
 10
90.318928849
 20
122.176194696
 30
0.0
 11
90.329008849
 21
122.078994696
 31
0.0
  0
LINE
  8
2
  6
CONTINUOUS
 62
     6
 10
90.329008849
 20
122.078994696
 30
0.0
 11
90.339808849
 21
121.969554696
 31
0.0
  0
LINE
  8
2
  6
CONTINUOUS
 62
     6
 10
90.339808849
 20
121.969554696
 30
0.0
 11
90.354208849
 21
121.858674696
 31
0.0
  0
LINE
  8
2
  6
CONTINUOUS
 62
     6
 10
90.354208849
 20
121.858674696
 30
0.0
 11
90.372208849
 21
121.748514696
 31
0.0
  0
LINE
  8
2
  6
CONTINUOUS
 62
     6
 10
90.372208849
 20
121.748514696
 30
0.0
 11
90.393808849
 21
121.641234696
 31
0.0
  0
LINE
  8
2
  6
CONTINUOUS
 62
     6
 10
90.393808849
 20
121.641234696
 30
0.0
 11
90.419008849
 21
121.538994696
 31
0.0
  0
LINE
  8
2
  6
CONTINUOUS
 62
     6
 10
90.419008849
 20
121.538994696
 30
0.0
 11
90.447808849
 21
121.458354696
 31
0.0
  0
LINE
  8
2
  6
CONTINUOUS
 62
     6
 10
90.447808849
 20
121.458354696
 30
0.0
 11
90.480208849
 21
121.383474696
 31
0.0
  0
LINE
  8
2
  6
CONTINUOUS
 62
     6
 10
90.480208849
 20
121.383474696
 30
0.0
 11
90.516208849
 21
121.312914696
 31
0.0
  0
LINE
  8
2
  6
CONTINUOUS
 62
     6
 10
90.516208849
 20
121.312914696
 30
0.0
 11
90.555808849
 21
121.245234696
 31
0.0
  0
LINE
  8
2
  6
CONTINUOUS
 62
     6
 10
90.555808849
 20
121.245234696
 30
0.0
 11
90.599008849
 21
121.178994696
 31
0.0
  0
LINE
  8
2
  6
CONTINUOUS
 62
     6
 10
90.599008849
 20
121.178994696
 30
0.0
 11
90.651568849
 21
121.104114696
 31
0.0
  0
LINE
  8
2
  6
CONTINUOUS
 62
     6
 10
90.651568849
 20
121.104114696
 30
0.0
 11
90.706288849
 21
121.029954696
 31
0.0
  0
LINE
  8
2
  6
CONTINUOUS
 62
     6
 10
90.706288849
 20
121.029954696
 30
0.0
 11
90.761728849
 21
120.957234696
 31
0.0
  0
LINE
  8
2
  6
CONTINUOUS
 62
     6
 10
90.761728849
 20
120.957234696
 30
0.0
 11
90.816448849
 21
120.886674696
 31
0.0
  0
LINE
  8
2
  6
CONTINUOUS
 62
     6
 10
90.816448849
 20
120.886674696
 30
0.0
 11
90.869008849
 21
120.818994696
 31
0.0
  0
LINE
  8
2
  6
CONTINUOUS
 62
     6
 10
90.869008849
 20
120.818994696
 30
0.0
 11
90.903568849
 21
120.754914696
 31
0.0
  0
LINE
  8
2
  6
CONTINUOUS
 62
     6
 10
90.903568849
 20
120.754914696
 30
0.0
 11
90.936688849
 21
120.695154696
 31
0.0
  0
LINE
  8
2
  6
CONTINUOUS
 62
     6
 10
90.936688849
 20
120.695154696
 30
0.0
 11
90.970528849
 21
120.640434696
 31
0.0
  0
LINE
  8
2
  6
CONTINUOUS
 62
     6
 10
90.970528849
 20
120.640434696
 30
0.0
 11
91.007248849
 21
120.591474696
 31
0.0
  0
LINE
  8
2
  6
CONTINUOUS
 62
     6
 10
91.007248849
 20
120.591474696
 30
0.0
 11
91.049008849
 21
120.548994696
 31
0.0
  0
LINE
  8
2
  6
CONTINUOUS
 62
     6
 10
91.049008849
 20
120.548994696
 30
0.0
 11
91.118128849
 21
120.516594696
 31
0.0
  0
LINE
  8
2
  6
CONTINUOUS
 62
     6
 10
91.118128849
 20
120.516594696
 30
0.0
 11
91.191568849
 21
120.491394696
 31
0.0
  0
LINE
  8
2
  6
CONTINUOUS
 62
     6
 10
91.191568849
 20
120.491394696
 30
0.0
 11
91.266448849
 21
120.473394696
 31
0.0
  0
LINE
  8
2
  6
CONTINUOUS
 62
     6
 10
91.266448849
 20
120.473394696
 30
0.0
 11
91.339888849
 21
120.462594696
 31
0.0
  0
LINE
  8
2
  6
CONTINUOUS
 62
     6
 10
91.339888849
 20
120.462594696
 30
0.0
 11
91.409008849
 21
120.458994696
 31
0.0
  0
LINE
  8
2
  6
CONTINUOUS
 62
     6
 10
91.409008849
 20
120.458994696
 30
0.0
 11
91.453648849
 21
120.468354696
 31
0.0
  0
LINE
  8
2
  6
CONTINUOUS
 62
     6
 10
91.453648849
 20
120.468354696
 30
0.0
 11
91.492528849
 21
120.483474696
 31
0.0
  0
LINE
  8
2
  6
CONTINUOUS
 62
     6
 10
91.492528849
 20
120.483474696
 30
0.0
 11
91.527088849
 21
120.502914696
 31
0.0
  0
LINE
  8
2
  6
CONTINUOUS
 62
     6
 10
91.527088849
 20
120.502914696
 30
0.0
 11
91.558768849
 21
120.525234696
 31
0.0
  0
LINE
  8
2
  6
CONTINUOUS
 62
     6
 10
91.558768849
 20
120.525234696
 30
0.0
 11
91.589008849
 21
120.548994696
 31
0.0
  0
LINE
  8
0
  6
CONTINUOUS
 62
     5
 10
88.961247494
 20
120.224
 30
0.0
 11
92.870008849
 21
120.224
 31
0.0
  0
LINE
  8
0
  6
LTYPE1
 62
     5
 10
69.8055
 20
101.52
 30
0.0
 11
30.89
 21
101.52
 31
0.0
  0
LINE
  8
0
  6
CONTINUOUS
 62
     5
 10
35.528
 20
115.02
 30
0.0
 11
28.84
 21
115.02
 31
0.0
  0
LINE
  8
0
  6
CONTINUOUS
 62
     5
 10
29.84
 20
115.02
 30
0.0
 11
29.32236191
 21
113.088148347
 31
0.0
  0
LINE
  8
0
  6
CONTINUOUS
 62
     5
 10
29.84
 20
115.02
 30
0.0
 11
30.35763809
 21
113.088148347
 31
0.0
  0
LINE
  8
0
  6
CONTINUOUS
 62
     5
 10
29.84
 20
115.02
 30
0.0
 11
29.84
 21
88.02
 31
0.0
  0
LINE
  8
0
  6
CONTINUOUS
 62
     5
 10
29.84
 20
88.02
 30
0.0
 11
30.35763809
 21
89.951851653
 31
0.0
  0
LINE
  8
0
  6
CONTINUOUS
 62
     5
 10
29.84
 20
88.02
 30
0.0
 11
29.32236191
 21
89.951851653
 31
0.0
  0
LINE
  8
0
  6
CONTINUOUS
 62
     5
 10
35.714
 20
88.02
 30
0.0
 11
28.84
 21
88.02
 31
0.0
  0
TEXT
  8
0
  6
CONTINUOUS
 62
     2
 10
28.84
 20
100.62
 30
0.3
 40
3.0
  1
Ｄ
 50
90.0
 41
0.6
 51
0.0
  7
KANJI7
  0
LINE
  8
0
  6
LTYPE1
 62
     5
 10
45.697876862
 20
125.032
 30
0.0
 11
45.697876862
 21
120.257
 31
0.0
  0
LINE
  8
0
  6
LTYPE1
 62
     5
 10
66.417123747
 20
122.67
 30
0.0
 11
73.501123747
 21
122.67
 31
0.0
  0
LINE
  8
0
  6
LTYPE1
 62
     5
 10
42.017123747
 20
122.67
 30
0.0
 11
49.154123747
 21
122.67
 31
0.0
  0
LINE
  8
0
  6
LTYPE1
 62
     5
 10
70.108123747
 20
124.901
 30
0.0
 11
70.108123747
 21
120.625
 31
0.0
  0
LINE
  8
0
  6
LTYPE1
 62
     5
 10
66.667876862
 20
80.37
 30
0.0
 11
73.620876862
 21
80.37
 31
0.0
  0
LINE
  8
0
  6
LTYPE1
 62
     5
 10
70.108123747
 20
82.286
 30
0.0
 11
70.108123747
 21
78.298
 31
0.0
  0
LINE
  8
0
  6
LTYPE1
 62
     5
 10
42.189123747
 20
80.37
 30
0.0
 11
48.958123747
 21
80.37
 31
0.0
  0
LINE
  8
0
  6
LTYPE1
 62
     5
 10
45.697876862
 20
82.339
 30
0.0
 11
45.697876862
 21
78.587
 31
0.0
  0
LINE
  8
0
  6
CONTINUOUS
 62
     5
 10
42.053
 20
122.67
 30
0.0
 11
22.334
 21
122.67
 31
0.0
  0
LINE
  8
0
  6
CONTINUOUS
 62
     5
 10
23.334
 20
122.67
 30
0.0
 11
22.81636191
 21
120.738148347
 31
0.0
  0
LINE
  8
0
  6
CONTINUOUS
 62
     5
 10
23.334
 20
122.67
 30
0.0
 11
23.85163809
 21
120.738148347
 31
0.0
  0
LINE
  8
0
  6
CONTINUOUS
 62
     5
 10
23.334
 20
122.67
 30
0.0
 11
23.334
 21
80.37
 31
0.0
  0
LINE
  8
0
  6
CONTINUOUS
 62
     5
 10
23.334
 20
80.37
 30
0.0
 11
23.85163809
 21
82.301851653
 31
0.0
  0
LINE
  8
0
  6
CONTINUOUS
 62
     5
 10
23.334
 20
80.37
 30
0.0
 11
22.81636191
 21
82.301851653
 31
0.0
  0
LINE
  8
0
  6
CONTINUOUS
 62
     5
 10
42.053
 20
80.37
 30
0.0
 11
22.334
 21
80.37
 31
0.0
  0
TEXT
  8
0
  6
CONTINUOUS
 62
     2
 10
22.334
 20
100.62
 30
0.3
 40
3.0
  1
Ｃ
 50
90.0
 41
0.6
 51
0.0
  7
KANJI7
  0
LINE
  8
0
  6
CONTINUOUS
 62
     5
 10
39.578
 20
126.27
 30
0.0
 11
15.795
 21
126.27
 31
0.0
  0
LINE
  8
0
  6
CONTINUOUS
 62
     5
 10
16.795
 20
126.27
 30
0.0
 11
16.27736191
 21
124.338148347
 31
0.0
  0
LINE
  8
0
  6
CONTINUOUS
 62
     5
 10
16.795
 20
126.27
 30
0.0
 11
17.31263809
 21
124.338148347
 31
0.0
  0
LINE
  8
0
  6
CONTINUOUS
 62
     5
 10
16.795
 20
126.27
 30
0.0
 11
16.795
 21
76.77
 31
0.0
  0
LINE
  8
0
  6
CONTINUOUS
 62
     5
 10
16.795
 20
76.77
 30
0.0
 11
17.31263809
 21
78.701851653
 31
0.0
  0
LINE
  8
0
  6
CONTINUOUS
 62
     5
 10
16.795
 20
76.77
 30
0.0
 11
16.27736191
 21
78.701851653
 31
0.0
  0
LINE
  8
0
  6
CONTINUOUS
 62
     5
 10
39.764
 20
76.77
 30
0.0
 11
15.795
 21
76.77
 31
0.0
  0
TEXT
  8
0
  6
CONTINUOUS
 62
     2
 10
15.795
 20
100.62
 30
0.3
 40
3.0
  1
Ｂ
 50
90.0
 41
0.6
 51
0.0
  7
KANJI7
  0
ARC
  8
0
  6
CONTINUOUS
 62
     1
 10
36.528
 20
89.82
 30
0.0
 40
1.8
 50
180.0
 51
275.899625047
  0
ARC
  8
0
  6
CONTINUOUS
 62
     1
 10
38.78310578
 20
116.984615538
 30
0.0
 40
1.157190802
 50
90.0
 51
181.527525441
  0
ARC
  8
0
  6
CONTINUOUS
 62
     1
 10
40.57289422
 20
116.984615538
 30
0.0
 40
1.157190802
 50
0.0
 51
90.0
  0
LINE
  8
0
  6
CONTINUOUS
 62
     1
 10
40.57289422
 20
118.14180634
 30
0.0
 11
38.78310578
 21
118.14180634
 31
0.0
  0
LINE
  8
0
  6
CONTINUOUS
 62
     1
 10
40.017442635
 20
118.033801865
 30
0.0
 11
39.431132629
 21
118.033801865
 31
0.0
  0
LINE
  8
0
  6
CONTINUOUS
 62
     1
 10
41.730085022
 20
116.521739217
 30
0.0
 11
41.730085022
 21
117.000044749
 31
0.0
  0
LINE
  8
0
  6
CONTINUOUS
 62
     1
 10
37.656773399
 20
117.000044749
 30
0.0
 11
37.625914978
 21
116.521739217
 31
0.0
  0
LINE
  8
0
  6
CONTINUOUS
 62
     1
 10
41.730085022
 20
116.521739217
 30
0.0
 11
37.625914978
 21
116.521739217
 31
0.0
  0
LINE
  8
0
  6
CONTINUOUS
 62
     2
 10
37.625914978
 20
115.92
 30
0.0
 11
37.625914978
 21
116.506310006
 31
0.0
  0
LINE
  8
0
  6
CONTINUOUS
 62
     2
 10
39.492849472
 20
115.92
 30
0.0
 11
39.971155003
 21
116.506310006
 31
0.0
  0
LINE
  8
0
  6
CONTINUOUS
 62
     2
 10
39.122548415
 20
115.92
 30
0.0
 11
39.569995525
 21
116.521739217
 31
0.0
  0
LINE
  8
0
  6
CONTINUOUS
 62
     2
 10
40.002013425
 20
118.14180634
 30
0.0
 11
40.002013425
 21
118.033801865
 31
0.0
  0
LINE
  8
0
  6
CONTINUOUS
 62
     2
 10
39.431132629
 20
118.033801865
 30
0.0
 11
39.431132629
 21
118.126377129
 31
0.0
  0
LINE
  8
0
  6
CONTINUOUS
 62
     2
 10
41.730085022
 20
115.923239217
 30
0.0
 11
41.730085022
 21
116.521739217
 31
0.0
  0
LINE
  8
0
  6
CONTINUOUS
 62
     2
 10
41.731018444
 20
115.92
 30
0.0
 11
37.625914978
 21
115.92
 31
0.0
  0
ARC
  8
0
  6
CONTINUOUS
 62
     1
 10
75.23310578
 20
116.984615538
 30
0.0
 40
1.157190802
 50
90.0
 51
181.527525441
  0
ARC
  8
0
  6
CONTINUOUS
 62
     1
 10
77.02289422
 20
116.984615538
 30
0.0
 40
1.157190802
 50
0.0
 51
90.0
  0
LINE
  8
0
  6
CONTINUOUS
 62
     1
 10
77.02289422
 20
118.14180634
 30
0.0
 11
75.23310578
 21
118.14180634
 31
0.0
  0
LINE
  8
0
  6
CONTINUOUS
 62
     1
 10
76.467442635
 20
118.033801865
 30
0.0
 11
75.881132629
 21
118.033801865
 31
0.0
  0
LINE
  8
0
  6
CONTINUOUS
 62
     1
 10
78.180085022
 20
116.521739217
 30
0.0
 11
78.180085022
 21
117.000044749
 31
0.0
  0
LINE
  8
0
  6
CONTINUOUS
 62
     1
 10
74.106773399
 20
117.000044749
 30
0.0
 11
74.075914978
 21
116.521739217
 31
0.0
  0
LINE
  8
0
  6
CONTINUOUS
 62
     1
 10
78.180085022
 20
116.521739217
 30
0.0
 11
74.075914978
 21
116.521739217
 31
0.0
  0
LINE
  8
0
  6
CONTINUOUS
 62
     2
 10
74.075914978
 20
115.92
 30
0.0
 11
74.075914978
 21
116.506310006
 31
0.0
  0
LINE
  8
0
  6
CONTINUOUS
 62
     2
 10
75.942849472
 20
115.92
 30
0.0
 11
76.421155003
 21
116.506310006
 31
0.0
  0
LINE
  8
0
  6
CONTINUOUS
 62
     2
 10
75.572548415
 20
115.92
 30
0.0
 11
76.019995525
 21
116.521739217
 31
0.0
  0
LINE
  8
0
  6
CONTINUOUS
 62
     2
 10
76.452013425
 20
118.14180634
 30
0.0
 11
76.452013425
 21
118.033801865
 31
0.0
  0
LINE
  8
0
  6
CONTINUOUS
 62
     2
 10
75.881132629
 20
118.033801865
 30
0.0
 11
75.881132629
 21
118.126377129
 31
0.0
  0
LINE
  8
0
  6
CONTINUOUS
 62
     2
 10
78.180085022
 20
115.923239217
 30
0.0
 11
78.180085022
 21
116.521739217
 31
0.0
  0
LINE
  8
0
  6
CONTINUOUS
 62
     2
 10
78.181018444
 20
115.92
 30
0.0
 11
74.075914978
 21
115.92
 31
0.0
  0
LINE
  8
0
  6
CONTINUOUS
 62
     1
 10
76.128
 20
118.14180634
 30
0.0
 11
76.128
 21
125.37
 31
0.0
  0
LINE
  8
0
  6
CONTINUOUS
 62
     1
 10
39.678
 20
118.14180634
 30
0.0
 11
39.678
 21
125.37
 31
0.0
  0
ARC
  8
0
  6
CONTINUOUS
 62
     1
 10
38.78310578
 20
86.055384462
 30
0.0
 40
1.157190802
 50
178.472474559
 51
270.0
  0
ARC
  8
0
  6
CONTINUOUS
 62
     1
 10
40.57289422
 20
86.055384462
 30
0.0
 40
1.157190802
 50
270.0
 51
0.0
  0
LINE
  8
0
  6
CONTINUOUS
 62
     1
 10
40.57289422
 20
84.89819366
 30
0.0
 11
38.78310578
 21
84.89819366
 31
0.0
  0
LINE
  8
0
  6
CONTINUOUS
 62
     1
 10
40.017442635
 20
85.006198135
 30
0.0
 11
39.431132629
 21
85.006198135
 31
0.0
  0
LINE
  8
0
  6
CONTINUOUS
 62
     1
 10
41.730085022
 20
86.518260783
 30
0.0
 11
41.730085022
 21
86.039955251
 31
0.0
  0
LINE
  8
0
  6
CONTINUOUS
 62
     1
 10
37.656773399
 20
86.039955251
 30
0.0
 11
37.625914978
 21
86.518260783
 31
0.0
  0
LINE
  8
0
  6
CONTINUOUS
 62
     1
 10
41.730085022
 20
86.518260783
 30
0.0
 11
37.625914978
 21
86.518260783
 31
0.0
  0
LINE
  8
0
  6
CONTINUOUS
 62
     2
 10
37.625914978
 20
87.12
 30
0.0
 11
37.625914978
 21
86.533689994
 31
0.0
  0
LINE
  8
0
  6
CONTINUOUS
 62
     2
 10
39.492849472
 20
87.12
 30
0.0
 11
39.971155003
 21
86.533689994
 31
0.0
  0
LINE
  8
0
  6
CONTINUOUS
 62
     2
 10
39.122548415
 20
87.12
 30
0.0
 11
39.569995525
 21
86.518260783
 31
0.0
  0
LINE
  8
0
  6
CONTINUOUS
 62
     2
 10
40.002013425
 20
84.89819366
 30
0.0
 11
40.002013425
 21
85.006198135
 31
0.0
  0
LINE
  8
0
  6
CONTINUOUS
 62
     2
 10
39.431132629
 20
85.006198135
 30
0.0
 11
39.431132629
 21
84.913622871
 31
0.0
  0
LINE
  8
0
  6
CONTINUOUS
 62
     2
 10
41.730085022
 20
87.116760783
 30
0.0
 11
41.730085022
 21
86.518260783
 31
0.0
  0
LINE
  8
0
  6
CONTINUOUS
 62
     2
 10
41.731018444
 20
87.12
 30
0.0
 11
37.625914978
 21
87.12
 31
0.0
  0
ARC
  8
0
  6
CONTINUOUS
 62
     1
 10
75.23310578
 20
86.055384462
 30
0.0
 40
1.157190802
 50
178.472474559
 51
270.0
  0
ARC
  8
0
  6
CONTINUOUS
 62
     1
 10
77.02289422
 20
86.055384462
 30
0.0
 40
1.157190802
 50
270.0
 51
0.0
  0
LINE
  8
0
  6
CONTINUOUS
 62
     1
 10
77.02289422
 20
84.89819366
 30
0.0
 11
75.23310578
 21
84.89819366
 31
0.0
  0
LINE
  8
0
  6
CONTINUOUS
 62
     1
 10
76.467442635
 20
85.006198135
 30
0.0
 11
75.881132629
 21
85.006198135
 31
0.0
  0
LINE
  8
0
  6
CONTINUOUS
 62
     1
 10
78.180085022
 20
86.518260783
 30
0.0
 11
78.180085022
 21
86.039955251
 31
0.0
  0
LINE
  8
0
  6
CONTINUOUS
 62
     1
 10
74.106773399
 20
86.039955251
 30
0.0
 11
74.075914978
 21
86.518260783
 31
0.0
  0
LINE
  8
0
  6
CONTINUOUS
 62
     1
 10
78.180085022
 20
86.518260783
 30
0.0
 11
74.075914978
 21
86.518260783
 31
0.0
  0
LINE
  8
0
  6
CONTINUOUS
 62
     2
 10
74.075914978
 20
87.12
 30
0.0
 11
74.075914978
 21
86.533689994
 31
0.0
  0
LINE
  8
0
  6
CONTINUOUS
 62
     2
 10
75.942849472
 20
87.12
 30
0.0
 11
76.421155003
 21
86.533689994
 31
0.0
  0
LINE
  8
0
  6
CONTINUOUS
 62
     2
 10
75.572548415
 20
87.12
 30
0.0
 11
76.019995525
 21
86.518260783
 31
0.0
  0
LINE
  8
0
  6
CONTINUOUS
 62
     2
 10
76.452013425
 20
84.89819366
 30
0.0
 11
76.452013425
 21
85.006198135
 31
0.0
  0
LINE
  8
0
  6
CONTINUOUS
 62
     2
 10
75.881132629
 20
85.006198135
 30
0.0
 11
75.881132629
 21
84.913622871
 31
0.0
  0
LINE
  8
0
  6
CONTINUOUS
 62
     2
 10
78.180085022
 20
87.116760783
 30
0.0
 11
78.180085022
 21
86.518260783
 31
0.0
  0
LINE
  8
0
  6
CONTINUOUS
 62
     2
 10
78.181018444
 20
87.12
 30
0.0
 11
74.075914978
 21
87.12
 31
0.0
  0
LINE
  8
0
  6
CONTINUOUS
 62
     1
 10
39.864
 20
84.89819366
 30
0.0
 11
39.864
 21
77.67
 31
0.0
  0
LINE
  8
0
  6
CONTINUOUS
 62
     1
 10
76.314
 20
84.89819366
 30
0.0
 11
76.314
 21
77.67
 31
0.0
  0
LINE
  8
0
  6
CONTINUOUS
 62
     5
 10
81.078
 20
110.62
 30
0.0
 11
81.078
 21
127.02
 31
0.0
  0
LINE
  8
0
  6
CONTINUOUS
 62
     5
 10
81.078
 20
126.02
 30
0.0
 11
83.009851653
 21
125.50236191
 31
0.0
  0
LINE
  8
0
  6
CONTINUOUS
 62
     5
 10
81.078
 20
126.02
 30
0.0
 11
83.009851653
 21
126.53763809
 31
0.0
  0
LINE
  8
0
  6
CONTINUOUS
 62
     5
 10
81.078
 20
126.02
 30
0.0
 11
87.828
 21
126.02
 31
0.0
  0
LINE
  8
0
  6
CONTINUOUS
 62
     5
 10
87.828
 20
126.02
 30
0.0
 11
85.896148347
 21
126.53763809
 31
0.0
  0
LINE
  8
0
  6
CONTINUOUS
 62
     5
 10
87.828
 20
126.02
 30
0.0
 11
85.896148347
 21
125.50236191
 31
0.0
  0
LINE
  8
0
  6
CONTINUOUS
 62
     5
 10
87.828
 20
109.27
 30
0.0
 11
87.828
 21
127.02
 31
0.0
  0
TEXT
  8
0
  6
CONTINUOUS
 62
     2
 10
82.503
 20
127.02
 30
0.3
 40
3.0
  1
１５
 50
0.0
 41
0.6
 51
0.0
  7
KANJI7
  0
LINE
  8
0
  6
CONTINUOUS
 62
     5
 10
57.903
 20
116.203
 30
0.0
 11
58.946122201
 21
117.909427869
 31
0.0
  0
LINE
  8
0
  6
CONTINUOUS
 62
     5
 10
57.903
 20
116.203
 30
0.0
 11
57.953156391
 21
118.202370985
 31
0.0
  0
LINE
  8
0
  6
CONTINUOUS
 62
     5
 10
57.903
 20
116.203
 30
0.0
 11
60.639
 21
125.477
 31
0.0
  0
LINE
  8
0
  6
CONTINUOUS
 62
     5
 10
60.639
 20
125.477
 30
0.0
 11
64.239
 21
125.477
 31
0.0
  0
TEXT
  8
0
  6
CONTINUOUS
 62
     6
 10
60.639
 20
126.477
 30
0.3
 40
3.6
  1
Ｌ
 50
0.0
 41
1.0
 51
0.0
  7
KANJI8
  0
LINE
  8
0
  6
CONTINUOUS
 62
     5
 10
34.728
 20
88.82
 30
0.0
 11
34.728
 21
72.818
 31
0.0
  0
LINE
  8
0
  6
CONTINUOUS
 62
     5
 10
34.728
 20
73.818
 30
0.0
 11
36.659851653
 21
73.30036191
 31
0.0
  0
LINE
  8
0
  6
CONTINUOUS
 62
     5
 10
34.728
 20
73.818
 30
0.0
 11
36.659851653
 21
74.33563809
 31
0.0
  0
LINE
  8
0
  6
CONTINUOUS
 62
     5
 10
34.728
 20
73.818
 30
0.0
 11
87.828
 21
73.818
 31
0.0
  0
LINE
  8
0
  6
CONTINUOUS
 62
     5
 10
87.828
 20
73.818
 30
0.0
 11
85.896148347
 21
74.33563809
 31
0.0
  0
LINE
  8
0
  6
CONTINUOUS
 62
     5
 10
87.828
 20
73.818
 30
0.0
 11
85.896148347
 21
73.30036191
 31
0.0
  0
LINE
  8
0
  6
CONTINUOUS
 62
     5
 10
87.828
 20
93.77
 30
0.0
 11
87.828
 21
72.818
 31
0.0
  0
TEXT
  8
0
  6
CONTINUOUS
 62
     2
 10
60.378
 20
74.818
 30
0.3
 40
3.0
  1
Ａ
 50
0.0
 41
0.6
 51
0.0
  7
KANJI7
  0
TEXT
  8
0
  6
CONTINUOUS
 62
     2
 10
20.778376862
 20
103.805
 30
0.0
 40
2.0
  1
±２
 50
90.0
 41
0.9
 51
0.0
  7
KANJI9
  0
LINE
  8
0
  6
CONTINUOUS
 62
     1
 10
85.578
 20
44.579
 30
0.0
 11
85.578
 21
35.579
 31
0.0
  0
LINE
  8
0
  6
CONTINUOUS
 62
     1
 10
85.578
 20
35.579
 30
0.0
 11
81.078
 21
35.579
 31
0.0
  0
LINE
  8
0
  6
CONTINUOUS
 62
     1
 10
86.208
 20
38.279
 30
0.0
 11
87.828
 21
38.279
 31
0.0
  0
LINE
  8
0
  6
CONTINUOUS
 62
     1
 10
87.828
 20
38.279
 30
0.0
 11
87.828
 21
41.879
 31
0.0
  0
LINE
  8
0
  6
CONTINUOUS
 62
     1
 10
87.828
 20
41.879
 30
0.0
 11
86.208
 21
41.879
 31
0.0
  0
LINE
  8
0
  6
CONTINUOUS
 62
     1
 10
86.208
 20
41.879
 30
0.0
 11
86.208
 21
38.279
 31
0.0
  0
LINE
  8
0
  6
CONTINUOUS
 62
     1
 10
86.208
 20
41.969
 30
0.0
 11
86.208
 21
38.189
 31
0.0
  0
LINE
  8
0
  6
CONTINUOUS
 62
     1
 10
87.828
 20
40.079
 30
0.0
 11
86.208
 21
40.079
 31
0.0
  0
LINE
  8
0
  6
CONTINUOUS
 62
     1
 10
81.078
 20
44.579
 30
0.0
 11
86.478
 21
44.579
 31
0.0
  0
LINE
  8
0
  6
CONTINUOUS
 62
     1
 10
86.478
 20
44.579
 30
0.0
 11
86.478
 21
41.879
 31
0.0
  0
LINE
  8
0
  6
CONTINUOUS
 62
     1
 10
86.478
 20
38.279
 30
0.0
 11
86.478
 21
35.579
 31
0.0
  0
LINE
  8
0
  6
CONTINUOUS
 62
     1
 10
86.478
 20
35.579
 30
0.0
 11
85.578
 21
35.579
 31
0.0
  0
LINE
  8
0
  6
CONTINUOUS
 62
     2
 10
85.578
 20
37.829
 30
0.0
 11
85.848
 21
37.829
 31
0.0
  0
LINE
  8
0
  6
CONTINUOUS
 62
     2
 10
85.848
 20
37.829
 30
0.0
 11
85.848
 21
42.329
 31
0.0
  0
LINE
  8
0
  6
CONTINUOUS
 62
     2
 10
85.848
 20
42.329
 30
0.0
 11
85.578
 21
42.329
 31
0.0
  0
LINE
  8
0
  6
CONTINUOUS
 62
     2
 10
85.848
 20
41.969
 30
0.0
 11
86.208
 21
41.969
 31
0.0
  0
LINE
  8
0
  6
CONTINUOUS
 62
     2
 10
86.208
 20
38.189
 30
0.0
 11
85.848
 21
38.189
 31
0.0
  0
LINE
  8
0
  6
CONTINUOUS
 62
     2
 10
86.208
 20
40.2815
 30
0.0
 11
85.848
 21
39.9215
 31
0.0
  0
LINE
  8
0
  6
CONTINUOUS
 62
     2
 10
86.208
 20
40.0115
 30
0.0
 11
85.848
 21
39.6515
 31
0.0
  0
CIRCLE
  8
0
  6
CONTINUOUS
 62
     2
 10
77.478
 20
49.979
 30
0.0
 40
1.125
  0
LINE
  8
0
  6
LTYPE2
 62
     5
 10
77.478
 20
47.279
 30
0.0
 11
77.478
 21
52.679
 31
0.0
  0
ARC
  8
0
  6
CONTINUOUS
 62
     1
 10
79.278
 20
51.779
 30
0.0
 40
1.8
 50
0.0
 51
90.0
  0
LINE
  8
0
  6
CONTINUOUS
 62
     1
 10
81.078
 20
28.379
 30
0.0
 11
81.078
 21
51.779
 31
0.0
  0
ARC
  8
0
  6
CONTINUOUS
 62
     1
 10
36.528
 20
51.779
 30
0.0
 40
1.8
 50
90.0
 51
180.0
  0
LINE
  8
0
  6
CONTINUOUS
 62
     1
 10
34.728
 20
28.379
 30
0.0
 11
34.728
 21
51.779
 31
0.0
  0
LINE
  8
0
  6
CONTINUOUS
 62
     1
 10
79.278
 20
53.579
 30
0.0
 11
36.528
 21
53.579
 31
0.0
  0
LINE
  8
0
  6
CONTINUOUS
 62
     1
 10
48.498
 20
37.829
 30
0.0
 11
67.308
 21
37.829
 31
0.0
  0
LINE
  8
0
  6
CONTINUOUS
 62
     1
 10
67.308
 20
37.829
 30
0.0
 11
67.308
 21
42.329
 31
0.0
  0
LINE
  8
0
  6
CONTINUOUS
 62
     1
 10
67.308
 20
42.329
 30
0.0
 11
48.498
 21
42.329
 31
0.0
  0
LINE
  8
0
  6
CONTINUOUS
 62
     1
 10
48.498
 20
42.329
 30
0.0
 11
48.498
 21
37.829
 31
0.0
  0
LINE
  8
0
  6
LTYPE1
 62
     5
 10
57.903
 20
56.819
 30
0.0
 11
57.903
 21
23.339
 31
0.0
  0
LINE
  8
0
  6
CONTINUOUS
 62
     5
 10
48.498
 20
43.229
 30
0.0
 11
48.498
 21
59.879
 31
0.0
  0
LINE
  8
0
  6
CONTINUOUS
 62
     5
 10
67.308
 20
43.229
 30
0.0
 11
67.308
 21
59.879
 31
0.0
  0
TEXT
  8
0
  6
CONTINUOUS
 62
     6
 10
56.118
 20
46.061
 30
0.0
 40
3.6
  1
Ｋ
 50
0.0
 41
1.0
 51
0.0
  7
KANJI10
  0
CIRCLE
  8
0
  6
CONTINUOUS
 62
     2
 10
38.328
 20
49.979
 30
0.0
 40
1.125
  0
LINE
  8
0
  6
LTYPE2
 62
     5
 10
38.328
 20
47.279
 30
0.0
 11
38.328
 21
52.679
 31
0.0
  0
LINE
  8
0
  6
LTYPE2
 62
     5
 10
35.909
 20
49.979
 30
0.0
 11
41.471
 21
49.979
 31
0.0
  0
LINE
  8
0
  6
LTYPE2
 62
     5
 10
74.11
 20
49.979
 30
0.0
 11
80.178
 21
49.979
 31
0.0
  0
LINE
  8
0
  6
CONTINUOUS
 62
     5
 10
47.598
 20
42.329
 30
0.0
 11
42.198
 21
42.329
 31
0.0
  0
LINE
  8
0
  6
CONTINUOUS
 62
     5
 10
43.998
 20
42.329
 30
0.0
 11
43.998
 21
37.829
 31
0.0
  0
LINE
  8
0
  6
CONTINUOUS
 62
     5
 10
47.598
 20
37.829
 30
0.0
 11
42.198
 21
37.829
 31
0.0
  0
LINE
  8
0
  6
CONTINUOUS
 62
     5
 10
43.998
 20
42.329
 30
0.0
 11
44.580342851
 21
44.502333109
 31
0.0
  0
LINE
  8
0
  6
CONTINUOUS
 62
     5
 10
43.998
 20
42.329
 30
0.0
 11
43.415657149
 21
44.502333109
 31
0.0
  0
LINE
  8
0
  6
CONTINUOUS
 62
     5
 10
43.998
 20
37.829
 30
0.0
 11
44.580342851
 21
35.655666891
 31
0.0
  0
LINE
  8
0
  6
CONTINUOUS
 62
     5
 10
43.998
 20
37.829
 30
0.0
 11
43.415657149
 21
35.655666891
 31
0.0
  0
LINE
  8
0
  6
CONTINUOUS
 62
     5
 10
43.998
 20
37.829
 30
0.0
 11
43.998
 21
33.329
 31
0.0
  0
LINE
  8
0
  6
CONTINUOUS
 62
     5
 10
43.998
 20
42.329
 30
0.0
 11
43.998
 21
46.829
 31
0.0
  0
LINE
  8
0
  6
CONTINUOUS
 62
     2
 10
66.267481556
 20
24.779
 30
0.0
 11
70.372585022
 21
24.779
 31
0.0
  0
LINE
  8
0
  6
CONTINUOUS
 62
     1
 10
80.178
 20
26.129
 30
0.0
 11
80.178
 21
29.729
 31
0.0
  0
ARC
  8
0
  6
CONTINUOUS
 62
     1
 10
77.478
 20
29.729
 30
0.0
 40
2.7
 50
0.0
 51
90.0
  0
LINE
  8
0
  6
CONTINUOUS
 62
     1
 10
77.478
 20
32.429
 30
0.0
 11
63.303
 21
26.579
 31
0.0
  0
LINE
  8
0
  6
CONTINUOUS
 62
     1
 10
77.028
 20
23.879
 30
0.0
 11
77.028
 21
25.229
 31
0.0
  0
LINE
  8
0
  6
CONTINUOUS
 62
     1
 10
77.028
 20
25.229
 30
0.0
 11
80.178
 21
26.129
 31
0.0
  0
LINE
  8
0
  6
CONTINUOUS
 62
     5
 10
78.74
 20
51.074
 30
0.0
 11
80.218222714
 21
52.42116651
 31
0.0
  0
LINE
  8
0
  6
CONTINUOUS
 62
     5
 10
78.74
 20
51.074
 30
0.0
 11
79.346595168
 21
52.979791778
 31
0.0
  0
LINE
  8
0
  6
CONTINUOUS
 62
     5
 10
78.74
 20
51.074
 30
0.0
 11
83.673
 21
58.771
 31
0.0
  0
TEXT
  8
0
  6
CONTINUOUS
 62
     2
 10
83.673
 20
59.771
 30
0.3
 40
3.0
  1
ハ　ｍｍネジ
 50
0.0
 41
0.9
 51
0.0
  7
KANJI11
  0
LINE
  8
0
  6
CONTINUOUS
 62
     5
 10
83.673
 20
58.771
 30
0.0
 11
97.29
 21
58.771
 31
0.0
  0
LINE
  8
0
  6
CONTINUOUS
 62
     2
 10
49.538518444
 20
24.779
 30
0.0
 11
45.433414978
 21
24.779
 31
0.0
  0
LINE
  8
0
  6
CONTINUOUS
 62
     1
 10
72.303
 20
23.879
 30
0.0
 11
56.341
 21
23.879
 31
0.0
  0
LINE
  8
0
  6
CONTINUOUS
 62
     1
 10
35.628
 20
26.129
 30
0.0
 11
35.628
 21
29.729
 31
0.0
  0
LINE
  8
0
  6
CONTINUOUS
 62
     1
 10
38.778
 20
23.879
 30
0.0
 11
38.778
 21
25.229
 31
0.0
  0
LINE
  8
0
  6
CONTINUOUS
 62
     1
 10
38.778
 20
25.229
 30
0.0
 11
35.628
 21
26.129
 31
0.0
  0
LINE
  8
0
  6
CONTINUOUS
 62
     1
 10
38.328
 20
32.429
 30
0.0
 11
52.503
 21
26.579
 31
0.0
  0
ARC
  8
0
  6
CONTINUOUS
 62
     1
 10
38.328
 20
29.729
 30
0.0
 40
2.7
 50
90.0
 51
180.0
  0
LINE
  8
0
  6
CONTINUOUS
 62
     1
 10
56.341
 20
26.579
 30
0.0
 11
63.303
 21
26.579
 31
0.0
  0
LINE
  8
0
  6
CONTINUOUS
 62
     1
 10
38.778
 20
23.879
 30
0.0
 11
54.541
 21
23.879
 31
0.0
  0
LINE
  8
0
  6
CONTINUOUS
 62
     1
 10
56.341
 20
23.879
 30
0.0
 11
77.028
 21
23.879
 31
0.0
  0
LINE
  8
0
  6
CONTINUOUS
 62
     1
 10
56.341
 20
24.779
 30
0.0
 11
77.028
 21
24.779
 31
0.0
  0
LINE
  8
0
  6
CONTINUOUS
 62
     1
 10
52.503
 20
26.579
 30
0.0
 11
61.472
 21
26.579
 31
0.0
  0
LINE
  8
0
  6
CONTINUOUS
 62
     1
 10
38.778
 20
24.779
 30
0.0
 11
57.328
 21
24.779
 31
0.0
  0
LINE
  8
0
  6
CONTINUOUS
 62
     1
 10
57.821
 20
23.879
 30
0.0
 11
42.603
 21
23.879
 31
0.0
  0
ARC
  8
0
  6
CONTINUOUS
 62
     1
 10
36.528
 20
28.379
 30
0.0
 40
1.8
 50
180.0
 51
240.0
  0
ARC
  8
0
  6
CONTINUOUS
 62
     1
 10
79.278
 20
28.379
 30
0.0
 40
1.8
 50
300.0
 51
0.0
  0
LINE
  8
0
  6
CONTINUOUS
 62
     1
 10
82.18
 20
39.68796
 30
0.0
 11
82.288
 21
39.75708
 31
0.0
  0
LINE
  8
0
  6
CONTINUOUS
 62
     1
 10
82.288
 20
39.75708
 30
0.0
 11
82.396
 21
39.82692
 31
0.0
  0
LINE
  8
0
  6
CONTINUOUS
 62
     1
 10
82.396
 20
39.82692
 30
0.0
 11
82.504
 21
39.8982
 31
0.0
  0
LINE
  8
0
  6
CONTINUOUS
 62
     1
 10
82.504
 20
39.8982
 30
0.0
 11
82.612
 21
39.97164
 31
0.0
  0
LINE
  8
0
  6
CONTINUOUS
 62
     1
 10
82.612
 20
39.97164
 30
0.0
 11
82.72
 21
40.04796
 31
0.0
  0
LINE
  8
0
  6
CONTINUOUS
 62
     1
 10
82.72
 20
40.04796
 30
0.0
 11
82.83376
 21
40.13364
 31
0.0
  0
LINE
  8
0
  6
CONTINUOUS
 62
     1
 10
82.83376
 20
40.13364
 30
0.0
 11
82.94608
 21
40.2222
 31
0.0
  0
LINE
  8
0
  6
CONTINUOUS
 62
     1
 10
82.94608
 20
40.2222
 30
0.0
 11
83.05552
 21
40.31292
 31
0.0
  0
LINE
  8
0
  6
CONTINUOUS
 62
     1
 10
83.05552
 20
40.31292
 30
0.0
 11
83.16064
 21
40.40508
 31
0.0
  0
LINE
  8
0
  6
CONTINUOUS
 62
     1
 10
83.16064
 20
40.40508
 30
0.0
 11
83.26
 21
40.49796
 31
0.0
  0
LINE
  8
0
  6
CONTINUOUS
 62
     1
 10
83.26
 20
40.49796
 30
0.0
 11
83.34928
 21
40.58508
 31
0.0
  0
LINE
  8
0
  6
CONTINUOUS
 62
     1
 10
83.34928
 20
40.58508
 30
0.0
 11
83.43064
 21
40.67292
 31
0.0
  0
LINE
  8
0
  6
CONTINUOUS
 62
     1
 10
83.43064
 20
40.67292
 30
0.0
 11
83.50336
 21
40.7622
 31
0.0
  0
LINE
  8
0
  6
CONTINUOUS
 62
     1
 10
83.50336
 20
40.7622
 30
0.0
 11
83.56672
 21
40.85364
 31
0.0
  0
LINE
  8
0
  6
CONTINUOUS
 62
     1
 10
83.56672
 20
40.85364
 30
0.0
 11
83.62
 21
40.94796
 31
0.0
  0
LINE
  8
0
  6
CONTINUOUS
 62
     1
 10
83.62
 20
40.94796
 30
0.0
 11
83.65672
 21
41.06028
 31
0.0
  0
LINE
  8
0
  6
CONTINUOUS
 62
     1
 10
83.65672
 20
41.06028
 30
0.0
 11
83.68336
 21
41.17332
 31
0.0
  0
LINE
  8
0
  6
CONTINUOUS
 62
     1
 10
83.68336
 20
41.17332
 30
0.0
 11
83.70064
 21
41.2842
 31
0.0
  0
LINE
  8
0
  6
CONTINUOUS
 62
     1
 10
83.70064
 20
41.2842
 30
0.0
 11
83.70928
 21
41.39004
 31
0.0
  0
LINE
  8
0
  6
CONTINUOUS
 62
     1
 10
83.70928
 20
41.39004
 30
0.0
 11
83.71
 21
41.48796
 31
0.0
  0
LINE
  8
0
  6
CONTINUOUS
 62
     1
 10
83.71
 20
41.48796
 30
0.0
 11
83.70928
 21
41.56644
 31
0.0
  0
LINE
  8
0
  6
CONTINUOUS
 62
     1
 10
83.70928
 20
41.56644
 30
0.0
 11
83.70064
 21
41.6334
 31
0.0
  0
LINE
  8
0
  6
CONTINUOUS
 62
     1
 10
83.70064
 20
41.6334
 30
0.0
 11
83.68336
 21
41.68812
 31
0.0
  0
LINE
  8
0
  6
CONTINUOUS
 62
     1
 10
83.68336
 20
41.68812
 30
0.0
 11
83.65672
 21
41.72988
 31
0.0
  0
LINE
  8
0
  6
CONTINUOUS
 62
     1
 10
83.65672
 20
41.72988
 30
0.0
 11
83.62
 21
41.75796
 31
0.0
  0
LINE
  8
0
  6
CONTINUOUS
 62
     1
 10
83.62
 20
41.75796
 30
0.0
 11
83.5552
 21
41.76588
 31
0.0
  0
LINE
  8
0
  6
CONTINUOUS
 62
     1
 10
83.5552
 20
41.76588
 30
0.0
 11
83.4832
 21
41.76012
 31
0.0
  0
LINE
  8
0
  6
CONTINUOUS
 62
     1
 10
83.4832
 20
41.76012
 30
0.0
 11
83.4076
 21
41.7414
 31
0.0
  0
LINE
  8
0
  6
CONTINUOUS
 62
     1
 10
83.4076
 20
41.7414
 30
0.0
 11
83.332
 21
41.71044
 31
0.0
  0
LINE
  8
0
  6
CONTINUOUS
 62
     1
 10
83.332
 20
41.71044
 30
0.0
 11
83.26
 21
41.66796
 31
0.0
  0
LINE
  8
0
  6
CONTINUOUS
 62
     1
 10
83.26
 20
41.66796
 30
0.0
 11
83.21824
 21
41.61468
 31
0.0
  0
LINE
  8
0
  6
CONTINUOUS
 62
     1
 10
83.21824
 20
41.61468
 30
0.0
 11
83.18152
 21
41.55132
 31
0.0
  0
LINE
  8
0
  6
CONTINUOUS
 62
     1
 10
83.18152
 20
41.55132
 30
0.0
 11
83.14768
 21
41.4786
 31
0.0
  0
LINE
  8
0
  6
CONTINUOUS
 62
     1
 10
83.14768
 20
41.4786
 30
0.0
 11
83.11456
 21
41.39724
 31
0.0
  0
LINE
  8
0
  6
CONTINUOUS
 62
     1
 10
83.11456
 20
41.39724
 30
0.0
 11
83.08
 21
41.30796
 31
0.0
  0
LINE
  8
0
  6
CONTINUOUS
 62
     1
 10
83.08
 20
41.30796
 30
0.0
 11
83.02456
 21
41.21148
 31
0.0
  0
LINE
  8
0
  6
CONTINUOUS
 62
     1
 10
83.02456
 20
41.21148
 30
0.0
 11
82.96768
 21
41.10852
 31
0.0
  0
LINE
  8
0
  6
CONTINUOUS
 62
     1
 10
82.96768
 20
41.10852
 30
0.0
 11
82.91152
 21
40.9998
 31
0.0
  0
LINE
  8
0
  6
CONTINUOUS
 62
     1
 10
82.91152
 20
40.9998
 30
0.0
 11
82.85824
 21
40.88604
 31
0.0
  0
LINE
  8
0
  6
CONTINUOUS
 62
     1
 10
82.85824
 20
40.88604
 30
0.0
 11
82.81
 21
40.76796
 31
0.0
  0
LINE
  8
0
  6
CONTINUOUS
 62
     1
 10
82.81
 20
40.76796
 30
0.0
 11
82.78048
 21
40.64628
 31
0.0
  0
LINE
  8
0
  6
CONTINUOUS
 62
     1
 10
82.78048
 20
40.64628
 30
0.0
 11
82.75744
 21
40.52172
 31
0.0
  0
LINE
  8
0
  6
CONTINUOUS
 62
     1
 10
82.75744
 20
40.52172
 30
0.0
 11
82.74016
 21
40.395
 31
0.0
  0
LINE
  8
0
  6
CONTINUOUS
 62
     1
 10
82.74016
 20
40.395
 30
0.0
 11
82.72792
 21
40.26684
 31
0.0
  0
LINE
  8
0
  6
CONTINUOUS
 62
     1
 10
82.72792
 20
40.26684
 30
0.0
 11
82.72
 21
40.13796
 31
0.0
  0
LINE
  8
0
  6
CONTINUOUS
 62
     1
 10
82.72
 20
40.13796
 30
0.0
 11
82.71568
 21
40.0062
 31
0.0
  0
LINE
  8
0
  6
CONTINUOUS
 62
     1
 10
82.71568
 20
40.0062
 30
0.0
 11
82.71424
 21
39.87588
 31
0.0
  0
LINE
  8
0
  6
CONTINUOUS
 62
     1
 10
82.71424
 20
39.87588
 30
0.0
 11
82.71496
 21
39.74844
 31
0.0
  0
LINE
  8
0
  6
CONTINUOUS
 62
     1
 10
82.71496
 20
39.74844
 30
0.0
 11
82.71712
 21
39.62532
 31
0.0
  0
LINE
  8
0
  6
CONTINUOUS
 62
     1
 10
82.71712
 20
39.62532
 30
0.0
 11
82.72
 21
39.50796
 31
0.0
  0
LINE
  8
0
  6
CONTINUOUS
 62
     1
 10
82.72
 20
39.50796
 30
0.0
 11
82.72
 21
39.40356
 31
0.0
  0
LINE
  8
0
  6
CONTINUOUS
 62
     1
 10
82.72
 20
39.40356
 30
0.0
 11
82.72
 21
39.30636
 31
0.0
  0
LINE
  8
0
  6
CONTINUOUS
 62
     1
 10
82.72
 20
39.30636
 30
0.0
 11
82.72
 21
39.21636
 31
0.0
  0
LINE
  8
0
  6
CONTINUOUS
 62
     1
 10
82.72
 20
39.21636
 30
0.0
 11
82.72
 21
39.13356
 31
0.0
  0
LINE
  8
0
  6
CONTINUOUS
 62
     1
 10
82.72
 20
39.13356
 30
0.0
 11
82.72
 21
39.05796
 31
0.0
  0
LINE
  8
0
  6
CONTINUOUS
 62
     1
 10
82.72
 20
39.05796
 30
0.0
 11
82.71712
 21
38.95788
 31
0.0
  0
LINE
  8
0
  6
CONTINUOUS
 62
     1
 10
82.71712
 20
38.95788
 30
0.0
 11
82.71496
 21
38.87292
 31
0.0
  0
LINE
  8
0
  6
CONTINUOUS
 62
     1
 10
82.71496
 20
38.87292
 30
0.0
 11
82.71424
 21
38.811
 31
0.0
  0
LINE
  8
0
  6
CONTINUOUS
 62
     1
 10
82.71424
 20
38.811
 30
0.0
 11
82.71568
 21
38.78004
 31
0.0
  0
LINE
  8
0
  6
CONTINUOUS
 62
     1
 10
82.71568
 20
38.78004
 30
0.0
 11
82.72
 21
38.78796
 31
0.0
  0
LINE
  8
0
  6
CONTINUOUS
 62
     1
 10
82.72
 20
38.78796
 30
0.0
 11
82.72504
 21
38.92908
 31
0.0
  0
LINE
  8
0
  6
CONTINUOUS
 62
     1
 10
82.72504
 20
38.92908
 30
0.0
 11
82.73512
 21
39.10332
 31
0.0
  0
LINE
  8
0
  6
CONTINUOUS
 62
     1
 10
82.73512
 20
39.10332
 30
0.0
 11
82.75168
 21
39.297
 31
0.0
  0
LINE
  8
0
  6
CONTINUOUS
 62
     1
 10
82.75168
 20
39.297
 30
0.0
 11
82.77616
 21
39.49644
 31
0.0
  0
LINE
  8
0
  6
CONTINUOUS
 62
     1
 10
82.77616
 20
39.49644
 30
0.0
 11
82.81
 21
39.68796
 31
0.0
  0
LINE
  8
0
  6
CONTINUOUS
 62
     1
 10
82.81
 20
39.68796
 30
0.0
 11
82.86904
 21
39.79452
 31
0.0
  0
LINE
  8
0
  6
CONTINUOUS
 62
     1
 10
82.86904
 20
39.79452
 30
0.0
 11
82.93672
 21
39.88164
 31
0.0
  0
LINE
  8
0
  6
CONTINUOUS
 62
     1
 10
82.93672
 20
39.88164
 30
0.0
 11
83.01088
 21
39.95148
 31
0.0
  0
LINE
  8
0
  6
CONTINUOUS
 62
     1
 10
83.01088
 20
39.95148
 30
0.0
 11
83.08936
 21
40.0062
 31
0.0
  0
LINE
  8
0
  6
CONTINUOUS
 62
     1
 10
83.08936
 20
40.0062
 30
0.0
 11
83.17
 21
40.04796
 31
0.0
  0
LINE
  8
0
  6
CONTINUOUS
 62
     1
 10
83.17
 20
40.04796
 30
0.0
 11
83.242
 21
40.08468
 31
0.0
  0
LINE
  8
0
  6
CONTINUOUS
 62
     1
 10
83.242
 20
40.08468
 30
0.0
 11
83.314
 21
40.11132
 31
0.0
  0
LINE
  8
0
  6
CONTINUOUS
 62
     1
 10
83.314
 20
40.11132
 30
0.0
 11
83.386
 21
40.1286
 31
0.0
  0
LINE
  8
0
  6
CONTINUOUS
 62
     1
 10
83.386
 20
40.1286
 30
0.0
 11
83.458
 21
40.13724
 31
0.0
  0
LINE
  8
0
  6
CONTINUOUS
 62
     1
 10
83.458
 20
40.13724
 30
0.0
 11
83.53
 21
40.13796
 31
0.0
  0
LINE
  8
0
  6
CONTINUOUS
 62
     1
 10
83.53
 20
40.13796
 30
0.0
 11
83.61352
 21
40.14012
 31
0.0
  0
LINE
  8
0
  6
CONTINUOUS
 62
     1
 10
83.61352
 20
40.14012
 30
0.0
 11
83.69416
 21
40.13364
 31
0.0
  0
LINE
  8
0
  6
CONTINUOUS
 62
     1
 10
83.69416
 20
40.13364
 30
0.0
 11
83.76904
 21
40.11708
 31
0.0
  0
LINE
  8
0
  6
CONTINUOUS
 62
     1
 10
83.76904
 20
40.11708
 30
0.0
 11
83.83528
 21
40.089
 31
0.0
  0
LINE
  8
0
  6
CONTINUOUS
 62
     1
 10
83.83528
 20
40.089
 30
0.0
 11
83.89
 21
40.04796
 31
0.0
  0
LINE
  8
0
  6
CONTINUOUS
 62
     1
 10
83.89
 20
40.04796
 30
0.0
 11
83.91592
 21
39.9666
 31
0.0
  0
LINE
  8
0
  6
CONTINUOUS
 62
     1
 10
83.91592
 20
39.9666
 30
0.0
 11
83.92816
 21
39.87588
 31
0.0
  0
LINE
  8
0
  6
CONTINUOUS
 62
     1
 10
83.92816
 20
39.87588
 30
0.0
 11
83.92744
 21
39.78084
 31
0.0
  0
LINE
  8
0
  6
CONTINUOUS
 62
     1
 10
83.92744
 20
39.78084
 30
0.0
 11
83.91448
 21
39.68652
 31
0.0
  0
LINE
  8
0
  6
CONTINUOUS
 62
     1
 10
83.91448
 20
39.68652
 30
0.0
 11
83.89
 21
39.59796
 31
0.0
  0
LINE
  8
0
  6
CONTINUOUS
 62
     1
 10
83.89
 20
39.59796
 30
0.0
 11
83.84896
 21
39.54036
 31
0.0
  0
LINE
  8
0
  6
CONTINUOUS
 62
     1
 10
83.84896
 20
39.54036
 30
0.0
 11
83.79928
 21
39.49356
 31
0.0
  0
LINE
  8
0
  6
CONTINUOUS
 62
     1
 10
83.79928
 20
39.49356
 30
0.0
 11
83.74312
 21
39.45756
 31
0.0
  0
LINE
  8
0
  6
CONTINUOUS
 62
     1
 10
83.74312
 20
39.45756
 30
0.0
 11
83.68264
 21
39.43236
 31
0.0
  0
LINE
  8
0
  6
CONTINUOUS
 62
     1
 10
83.68264
 20
39.43236
 30
0.0
 11
83.62
 21
39.41796
 31
0.0
  0
LINE
  8
0
  6
CONTINUOUS
 62
     1
 10
83.62
 20
39.41796
 30
0.0
 11
83.55736
 21
39.42012
 31
0.0
  0
LINE
  8
0
  6
CONTINUOUS
 62
     1
 10
83.55736
 20
39.42012
 30
0.0
 11
83.49688
 21
39.43164
 31
0.0
  0
LINE
  8
0
  6
CONTINUOUS
 62
     1
 10
83.49688
 20
39.43164
 30
0.0
 11
83.44072
 21
39.45108
 31
0.0
  0
LINE
  8
0
  6
CONTINUOUS
 62
     1
 10
83.44072
 20
39.45108
 30
0.0
 11
83.39104
 21
39.477
 31
0.0
  0
LINE
  8
0
  6
CONTINUOUS
 62
     1
 10
83.39104
 20
39.477
 30
0.0
 11
83.35
 21
39.50796
 31
0.0
  0
LINE
  8
0
  6
CONTINUOUS
 62
     1
 10
83.35
 20
39.50796
 30
0.0
 11
83.33704
 21
39.56268
 31
0.0
  0
LINE
  8
0
  6
CONTINUOUS
 62
     1
 10
83.33704
 20
39.56268
 30
0.0
 11
83.33272
 21
39.61452
 31
0.0
  0
LINE
  8
0
  6
CONTINUOUS
 62
     1
 10
83.33272
 20
39.61452
 30
0.0
 11
83.33488
 21
39.657
 31
0.0
  0
LINE
  8
0
  6
CONTINUOUS
 62
     1
 10
83.33488
 20
39.657
 30
0.0
 11
83.34136
 21
39.68364
 31
0.0
  0
LINE
  8
0
  6
CONTINUOUS
 62
     1
 10
83.34136
 20
39.68364
 30
0.0
 11
83.35
 21
39.68796
 31
0.0
  0
LINE
  8
0
  6
CONTINUOUS
 62
     1
 10
83.35
 20
39.68796
 30
0.0
 11
83.34424
 21
39.60876
 31
0.0
  0
LINE
  8
0
  6
CONTINUOUS
 62
     1
 10
83.34424
 20
39.60876
 30
0.0
 11
83.33992
 21
39.50796
 31
0.0
  0
LINE
  8
0
  6
CONTINUOUS
 62
     1
 10
83.33992
 20
39.50796
 30
0.0
 11
83.33848
 21
39.39276
 31
0.0
  0
LINE
  8
0
  6
CONTINUOUS
 62
     1
 10
83.33848
 20
39.39276
 30
0.0
 11
83.34136
 21
39.27036
 31
0.0
  0
LINE
  8
0
  6
CONTINUOUS
 62
     1
 10
83.34136
 20
39.27036
 30
0.0
 11
83.35
 21
39.14796
 31
0.0
  0
LINE
  8
0
  6
CONTINUOUS
 62
     1
 10
83.35
 20
39.14796
 30
0.0
 11
83.37448
 21
39.0558
 31
0.0
  0
LINE
  8
0
  6
CONTINUOUS
 62
     1
 10
83.37448
 20
39.0558
 30
0.0
 11
83.40544
 21
38.97228
 31
0.0
  0
LINE
  8
0
  6
CONTINUOUS
 62
     1
 10
83.40544
 20
38.97228
 30
0.0
 11
83.44216
 21
38.89884
 31
0.0
  0
LINE
  8
0
  6
CONTINUOUS
 62
     1
 10
83.44216
 20
38.89884
 30
0.0
 11
83.48392
 21
38.83692
 31
0.0
  0
LINE
  8
0
  6
CONTINUOUS
 62
     1
 10
83.48392
 20
38.83692
 30
0.0
 11
83.53
 21
38.78796
 31
0.0
  0
LINE
  8
0
  6
CONTINUOUS
 62
     1
 10
83.53
 20
38.78796
 30
0.0
 11
83.58256
 21
38.77068
 31
0.0
  0
LINE
  8
0
  6
CONTINUOUS
 62
     1
 10
83.58256
 20
38.77068
 30
0.0
 11
83.63728
 21
38.76492
 31
0.0
  0
LINE
  8
0
  6
CONTINUOUS
 62
     1
 10
83.63728
 20
38.76492
 30
0.0
 11
83.69272
 21
38.7678
 31
0.0
  0
LINE
  8
0
  6
CONTINUOUS
 62
     1
 10
83.69272
 20
38.7678
 30
0.0
 11
83.74744
 21
38.77644
 31
0.0
  0
LINE
  8
0
  6
CONTINUOUS
 62
     1
 10
83.74744
 20
38.77644
 30
0.0
 11
83.8
 21
38.78796
 31
0.0
  0
LINE
  8
0
  6
CONTINUOUS
 62
     1
 10
83.8
 20
38.78796
 30
0.0
 11
83.84032
 21
38.78796
 31
0.0
  0
LINE
  8
0
  6
CONTINUOUS
 62
     1
 10
83.84032
 20
38.78796
 30
0.0
 11
83.87776
 21
38.78796
 31
0.0
  0
LINE
  8
0
  6
CONTINUOUS
 62
     1
 10
83.87776
 20
38.78796
 30
0.0
 11
83.91304
 21
38.78796
 31
0.0
  0
LINE
  8
0
  6
CONTINUOUS
 62
     1
 10
83.91304
 20
38.78796
 30
0.0
 11
83.94688
 21
38.78796
 31
0.0
  0
LINE
  8
0
  6
CONTINUOUS
 62
     1
 10
83.94688
 20
38.78796
 30
0.0
 11
83.98
 21
38.78796
 31
0.0
  0
LINE
  8
0
  6
LTYPE3
 62
     5
 10
45.697876862
 20
26.587
 30
0.0
 11
45.697876862
 21
21.456
 31
0.0
  0
LINE
  8
0
  6
CONTINUOUS
 62
     2
 10
66.267481556
 20
24.779
 30
0.0
 11
70.372585022
 21
24.779
 31
0.0
  0
LINE
  8
0
  6
CONTINUOUS
 62
     1
 10
77.028
 20
23.879
 30
0.0
 11
61.265
 21
23.879
 31
0.0
  0
LINE
  8
0
  6
CONTINUOUS
 62
     1
 10
77.028
 20
24.779
 30
0.0
 11
58.478
 21
24.779
 31
0.0
  0
LINE
  8
0
  6
CONTINUOUS
 62
     1
 10
57.985
 20
23.879
 30
0.0
 11
73.203
 21
23.879
 31
0.0
  0
LINE
  8
0
  6
LTYPE3
 62
     5
 10
70.108123138
 20
26.587
 30
0.0
 11
70.108123138
 21
21.456
 31
0.0
  0
LINE
  8
0
  6
CONTINUOUS
 62
     5
 10
38.328
 20
53.679
 30
0.0
 11
38.328
 21
63.985
 31
0.0
  0
LINE
  8
0
  6
CONTINUOUS
 62
     5
 10
38.328
 20
62.985
 30
0.0
 11
40.259851653
 21
62.46736191
 31
0.0
  0
LINE
  8
0
  6
CONTINUOUS
 62
     5
 10
38.328
 20
62.985
 30
0.0
 11
40.259851653
 21
63.50263809
 31
0.0
  0
LINE
  8
0
  6
CONTINUOUS
 62
     5
 10
38.328
 20
62.985
 30
0.0
 11
77.478
 21
62.985
 31
0.0
  0
LINE
  8
0
  6
CONTINUOUS
 62
     5
 10
77.478
 20
62.985
 30
0.0
 11
75.546148347
 21
63.50263809
 31
0.0
  0
LINE
  8
0
  6
CONTINUOUS
 62
     5
 10
77.478
 20
62.985
 30
0.0
 11
75.546148347
 21
62.46736191
 31
0.0
  0
LINE
  8
0
  6
CONTINUOUS
 62
     5
 10
77.478
 20
53.679
 30
0.0
 11
77.478
 21
63.985
 31
0.0
  0
TEXT
  8
0
  6
CONTINUOUS
 62
     2
 10
57.003
 20
63.985
 30
0.3
 40
3.0
  1
イ
 50
0.0
 41
0.6
 51
0.0
  7
KANJI7
  0
LINE
  8
0
  6
CONTINUOUS
 62
     5
 10
45.697876862
 20
20.456
 30
0.0
 11
45.697876862
 21
17.681
 31
0.0
  0
LINE
  8
0
  6
CONTINUOUS
 62
     5
 10
45.697876862
 20
18.681
 30
0.0
 11
47.629728515
 21
18.16336191
 31
0.0
  0
LINE
  8
0
  6
CONTINUOUS
 62
     5
 10
45.697876862
 20
18.681
 30
0.0
 11
47.629728515
 21
19.19863809
 31
0.0
  0
LINE
  8
0
  6
CONTINUOUS
 62
     5
 10
45.697876862
 20
18.681
 30
0.0
 11
70.108123138
 21
18.681
 31
0.0
  0
LINE
  8
0
  6
CONTINUOUS
 62
     5
 10
70.108123138
 20
18.681
 30
0.0
 11
68.176271485
 21
19.19863809
 31
0.0
  0
LINE
  8
0
  6
CONTINUOUS
 62
     5
 10
70.108123138
 20
18.681
 30
0.0
 11
68.176271485
 21
18.16336191
 31
0.0
  0
LINE
  8
0
  6
CONTINUOUS
 62
     5
 10
70.108123138
 20
20.456
 30
0.0
 11
70.108123138
 21
17.681
 31
0.0
  0
TEXT
  8
0
  6
CONTINUOUS
 62
     2
 10
57.003
 20
19.681
 30
0.3
 40
3.0
  1
Ｊ
 50
0.0
 41
0.6
 51
0.0
  7
KANJI7
  0
LINE
  8
0
  6
CONTINUOUS
 62
     5
 10
70.319563528
 20
23.026959016
 30
0.0
 11
70.828641886
 21
21.092834091
 31
0.0
  0
LINE
  8
0
  6
CONTINUOUS
 62
     5
 10
70.319563528
 20
23.026959016
 30
0.0
 11
71.727500781
 21
21.606496876
 31
0.0
  0
LINE
  8
0
  6
CONTINUOUS
 62
     5
 10
70.319563528
 20
23.026959016
 30
0.0
 11
72.838563528
 21
18.618959016
 31
0.0
  0
LINE
  8
0
  6
LTYPE1
 62
     5
 10
79.548
 20
29.260618312
 30
0.0
 11
75.408
 21
29.260618312
 31
0.0
  0
CIRCLE
  8
0
  6
CONTINUOUS
 62
     1
 10
77.478
 20
29.260618312
 30
0.0
 40
2.025
  0
LINE
  8
0
  6
CONTINUOUS
 62
     2
 10
77.77788
 20
28.082518312
 30
0.0
 11
77.17812
 21
28.082518312
 31
0.0
  0
LINE
  8
0
  6
CONTINUOUS
 62
     2
 10
77.17812
 20
30.438718312
 30
0.0
 11
77.77788
 21
30.438718312
 31
0.0
  0
LINE
  8
0
  6
CONTINUOUS
 62
     2
 10
77.17812
 20
28.082518312
 30
0.0
 11
77.17812
 21
28.318138312
 31
0.0
  0
ARC
  8
0
  6
CONTINUOUS
 62
     2
 10
76.53552
 20
28.318138312
 30
0.0
 40
0.6426
 50
0.0
 51
90.0
  0
LINE
  8
0
  6
CONTINUOUS
 62
     2
 10
77.77788
 20
28.318138312
 30
0.0
 11
77.77788
 21
28.082518312
 31
0.0
  0
ARC
  8
0
  6
CONTINUOUS
 62
     2
 10
78.42048
 20
28.318138312
 30
0.0
 40
0.6426
 50
90.0
 51
180.0
  0
LINE
  8
0
  6
CONTINUOUS
 62
     2
 10
77.77788
 20
30.438718312
 30
0.0
 11
77.77788
 21
30.203098312
 31
0.0
  0
ARC
  8
0
  6
CONTINUOUS
 62
     2
 10
78.42048
 20
30.203098312
 30
0.0
 40
0.6426
 50
180.0
 51
270.0
  0
LINE
  8
0
  6
CONTINUOUS
 62
     2
 10
77.17812
 20
30.203098312
 30
0.0
 11
77.17812
 21
30.438718312
 31
0.0
  0
ARC
  8
0
  6
CONTINUOUS
 62
     2
 10
76.53552
 20
30.203098312
 30
0.0
 40
0.6426
 50
270.0
 51
0.0
  0
LINE
  8
0
  6
CONTINUOUS
 62
     2
 10
76.2999
 20
28.960738312
 30
0.0
 11
76.2999
 21
29.560498312
 31
0.0
  0
LINE
  8
0
  6
CONTINUOUS
 62
     2
 10
78.6561
 20
29.560498312
 30
0.0
 11
78.6561
 21
28.960738312
 31
0.0
  0
LINE
  8
0
  6
CONTINUOUS
 62
     2
 10
76.2999
 20
29.560498312
 30
0.0
 11
76.53552
 21
29.560498312
 31
0.0
  0
ARC
  8
0
  6
CONTINUOUS
 62
     2
 10
76.53552
 20
30.203098312
 30
0.0
 40
0.6426
 50
270.0
 51
0.0
  0
LINE
  8
0
  6
CONTINUOUS
 62
     2
 10
76.53552
 20
28.960738312
 30
0.0
 11
76.2999
 21
28.960738312
 31
0.0
  0
ARC
  8
0
  6
CONTINUOUS
 62
     2
 10
76.53552
 20
28.318138312
 30
0.0
 40
0.6426
 50
0.0
 51
90.0
  0
LINE
  8
0
  6
CONTINUOUS
 62
     2
 10
78.6561
 20
28.960738312
 30
0.0
 11
78.42048
 21
28.960738312
 31
0.0
  0
ARC
  8
0
  6
CONTINUOUS
 62
     2
 10
78.42048
 20
28.318138312
 30
0.0
 40
0.6426
 50
90.0
 51
180.0
  0
LINE
  8
0
  6
CONTINUOUS
 62
     2
 10
78.42048
 20
29.560498312
 30
0.0
 11
78.6561
 21
29.560498312
 31
0.0
  0
ARC
  8
0
  6
CONTINUOUS
 62
     2
 10
78.42048
 20
30.203098312
 30
0.0
 40
0.6426
 50
180.0
 51
270.0
  0
LINE
  8
0
  6
CONTINUOUS
 62
     2
 10
78.42048
 20
29.560498312
 30
0.0
 11
78.6561
 21
29.560498312
 31
0.0
  0
LINE
  8
0
  6
CONTINUOUS
 62
     2
 10
78.6561
 20
28.960738312
 30
0.0
 11
78.42048
 21
28.960738312
 31
0.0
  0
LINE
  8
0
  6
CONTINUOUS
 62
     2
 10
76.53552
 20
28.960738312
 30
0.0
 11
76.2999
 21
28.960738312
 31
0.0
  0
LINE
  8
0
  6
CONTINUOUS
 62
     2
 10
76.2999
 20
29.560498312
 30
0.0
 11
76.53552
 21
29.560498312
 31
0.0
  0
LINE
  8
0
  6
LTYPE1
 62
     5
 10
40.398
 20
29.260618312
 30
0.0
 11
36.258
 21
29.260618312
 31
0.0
  0
LINE
  8
0
  6
LTYPE1
 62
     5
 10
40.398
 20
29.260618312
 30
0.0
 11
36.258
 21
29.260618312
 31
0.0
  0
CIRCLE
  8
0
  6
CONTINUOUS
 62
     1
 10
38.328
 20
29.260618312
 30
0.0
 40
2.025
  0
LINE
  8
0
  6
CONTINUOUS
 62
     2
 10
38.62788
 20
28.082518312
 30
0.0
 11
38.02812
 21
28.082518312
 31
0.0
  0
LINE
  8
0
  6
CONTINUOUS
 62
     2
 10
38.02812
 20
30.438718312
 30
0.0
 11
38.62788
 21
30.438718312
 31
0.0
  0
LINE
  8
0
  6
CONTINUOUS
 62
     2
 10
38.02812
 20
28.082518312
 30
0.0
 11
38.02812
 21
28.318138312
 31
0.0
  0
ARC
  8
0
  6
CONTINUOUS
 62
     2
 10
37.38552
 20
28.318138312
 30
0.0
 40
0.6426
 50
0.0
 51
90.0
  0
LINE
  8
0
  6
CONTINUOUS
 62
     2
 10
38.62788
 20
28.318138312
 30
0.0
 11
38.62788
 21
28.082518312
 31
0.0
  0
ARC
  8
0
  6
CONTINUOUS
 62
     2
 10
39.27048
 20
28.318138312
 30
0.0
 40
0.6426
 50
90.0
 51
180.0
  0
LINE
  8
0
  6
CONTINUOUS
 62
     2
 10
38.62788
 20
30.438718312
 30
0.0
 11
38.62788
 21
30.203098312
 31
0.0
  0
ARC
  8
0
  6
CONTINUOUS
 62
     2
 10
39.27048
 20
30.203098312
 30
0.0
 40
0.6426
 50
180.0
 51
270.0
  0
LINE
  8
0
  6
CONTINUOUS
 62
     2
 10
38.02812
 20
30.203098312
 30
0.0
 11
38.02812
 21
30.438718312
 31
0.0
  0
ARC
  8
0
  6
CONTINUOUS
 62
     2
 10
37.38552
 20
30.203098312
 30
0.0
 40
0.6426
 50
270.0
 51
0.0
  0
LINE
  8
0
  6
CONTINUOUS
 62
     2
 10
37.1499
 20
28.960738312
 30
0.0
 11
37.1499
 21
29.560498312
 31
0.0
  0
LINE
  8
0
  6
CONTINUOUS
 62
     2
 10
39.5061
 20
29.560498312
 30
0.0
 11
39.5061
 21
28.960738312
 31
0.0
  0
LINE
  8
0
  6
CONTINUOUS
 62
     2
 10
37.1499
 20
29.560498312
 30
0.0
 11
37.38552
 21
29.560498312
 31
0.0
  0
ARC
  8
0
  6
CONTINUOUS
 62
     2
 10
37.38552
 20
30.203098312
 30
0.0
 40
0.6426
 50
270.0
 51
0.0
  0
LINE
  8
0
  6
CONTINUOUS
 62
     2
 10
37.38552
 20
28.960738312
 30
0.0
 11
37.1499
 21
28.960738312
 31
0.0
  0
ARC
  8
0
  6
CONTINUOUS
 62
     2
 10
37.38552
 20
28.318138312
 30
0.0
 40
0.6426
 50
0.0
 51
90.0
  0
LINE
  8
0
  6
CONTINUOUS
 62
     2
 10
39.5061
 20
28.960738312
 30
0.0
 11
39.27048
 21
28.960738312
 31
0.0
  0
ARC
  8
0
  6
CONTINUOUS
 62
     2
 10
39.27048
 20
28.318138312
 30
0.0
 40
0.6426
 50
90.0
 51
180.0
  0
LINE
  8
0
  6
CONTINUOUS
 62
     2
 10
39.27048
 20
29.560498312
 30
0.0
 11
39.5061
 21
29.560498312
 31
0.0
  0
ARC
  8
0
  6
CONTINUOUS
 62
     2
 10
39.27048
 20
30.203098312
 30
0.0
 40
0.6426
 50
180.0
 51
270.0
  0
LINE
  8
0
  6
CONTINUOUS
 62
     2
 10
39.27048
 20
29.560498312
 30
0.0
 11
39.5061
 21
29.560498312
 31
0.0
  0
LINE
  8
0
  6
CONTINUOUS
 62
     2
 10
39.5061
 20
28.960738312
 30
0.0
 11
39.27048
 21
28.960738312
 31
0.0
  0
LINE
  8
0
  6
CONTINUOUS
 62
     2
 10
37.38552
 20
28.960738312
 30
0.0
 11
37.1499
 21
28.960738312
 31
0.0
  0
LINE
  8
0
  6
CONTINUOUS
 62
     2
 10
37.1499
 20
29.560498312
 30
0.0
 11
37.38552
 21
29.560498312
 31
0.0
  0
LINE
  8
0
  6
LTYPE1
 62
     5
 10
38.328
 20
31.780618312
 30
0.0
 11
38.328
 21
26.876618312
 31
0.0
  0
LINE
  8
0
  6
LTYPE2
 62
     5
 10
77.478
 20
32.410618312
 30
0.0
 11
77.478
 21
26.802618312
 31
0.0
  0
LINE
  8
0
  6
LTYPE1
 62
     5
 10
77.478
 20
31.312236623
 30
0.0
 11
77.478
 21
27.172236623
 31
0.0
  0
LINE
  8
0
  6
LTYPE1
 62
     5
 10
32.743
 20
40.079
 30
0.0
 11
33.162
 21
40.079
 31
0.0
  0
LINE
  8
0
  6
CONTINUOUS
 62
     5
 10
34.909
 20
49.979
 30
0.0
 11
28.84
 21
49.979
 31
0.0
  0
LINE
  8
0
  6
CONTINUOUS
 62
     5
 10
29.84
 20
49.979
 30
0.0
 11
29.32236191
 21
48.047148347
 31
0.0
  0
LINE
  8
0
  6
CONTINUOUS
 62
     5
 10
29.84
 20
49.979
 30
0.0
 11
30.35763809
 21
48.047148347
 31
0.0
  0
LINE
  8
0
  6
CONTINUOUS
 62
     5
 10
29.84
 20
49.979
 30
0.0
 11
29.84
 21
29.260618312
 31
0.0
  0
LINE
  8
0
  6
CONTINUOUS
 62
     5
 10
29.84
 20
29.260618312
 30
0.0
 11
30.35763809
 21
31.192469964
 31
0.0
  0
LINE
  8
0
  6
CONTINUOUS
 62
     5
 10
29.84
 20
29.260618312
 30
0.0
 11
29.32236191
 21
31.192469964
 31
0.0
  0
LINE
  8
0
  6
CONTINUOUS
 62
     5
 10
35.258
 20
29.260618312
 30
0.0
 11
28.84
 21
29.260618312
 31
0.0
  0
LINE
  8
0
  6
CONTINUOUS
 62
     5
 10
35.528
 20
53.579
 30
0.0
 11
22.334
 21
53.579
 31
0.0
  0
LINE
  8
0
  6
CONTINUOUS
 62
     5
 10
23.334
 20
53.579
 30
0.0
 11
22.81636191
 21
51.647148347
 31
0.0
  0
LINE
  8
0
  6
CONTINUOUS
 62
     5
 10
23.334
 20
53.579
 30
0.0
 11
23.85163809
 21
51.647148347
 31
0.0
  0
LINE
  8
0
  6
CONTINUOUS
 62
     5
 10
23.334
 20
53.579
 30
0.0
 11
23.334
 21
26.579
 31
0.0
  0
LINE
  8
0
  6
CONTINUOUS
 62
     5
 10
23.334
 20
26.579
 30
0.0
 11
23.85163809
 21
28.510851653
 31
0.0
  0
LINE
  8
0
  6
CONTINUOUS
 62
     5
 10
23.334
 20
26.579
 30
0.0
 11
22.81636191
 21
28.510851653
 31
0.0
  0
LINE
  8
0
  6
CONTINUOUS
 62
     5
 10
34.628
 20
26.579
 30
0.0
 11
22.334
 21
26.579
 31
0.0
  0
TEXT
  8
0
  6
CONTINUOUS
 62
     2
 10
22.334
 20
39.179
 30
0.3
 40
3.0
  1
Ｇ
 50
90.0
 41
0.6
 51
0.0
  7
KANJI7
  0
TEXT
  8
0
  6
CONTINUOUS
 62
     2
 10
28.84
 20
38.719809156
 30
0.3
 40
3.0
  1
ロ
 50
90.0
 41
0.833333333
 51
0.0
  7
KANJI12
  0
LINE
  8
0
  6
CONTINUOUS
 62
     5
 10
22.334
 20
53.579
 30
0.0
 11
15.795
 21
53.579
 31
0.0
  0
LINE
  8
0
  6
CONTINUOUS
 62
     5
 10
16.795
 20
53.579
 30
0.0
 11
16.27736191
 21
51.647148347
 31
0.0
  0
LINE
  8
0
  6
CONTINUOUS
 62
     5
 10
16.795
 20
53.579
 30
0.0
 11
17.31263809
 21
51.647148347
 31
0.0
  0
LINE
  8
0
  6
CONTINUOUS
 62
     5
 10
16.795
 20
53.579
 30
0.0
 11
16.795
 21
23.879
 31
0.0
  0
LINE
  8
0
  6
CONTINUOUS
 62
     5
 10
16.795
 20
23.879
 30
0.0
 11
17.31263809
 21
25.810851653
 31
0.0
  0
LINE
  8
0
  6
CONTINUOUS
 62
     5
 10
16.795
 20
23.879
 30
0.0
 11
16.27736191
 21
25.810851653
 31
0.0
  0
LINE
  8
0
  6
CONTINUOUS
 62
     5
 10
37.778
 20
23.879
 30
0.0
 11
15.795
 21
23.879
 31
0.0
  0
ARC
  8
0
  6
CONTINUOUS
 62
     1
 10
107.5
 20
52.579
 30
0.0
 40
1.0
 50
90.0
 51
180.0
  0
LINE
  8
0
  6
CONTINUOUS
 62
     1
 10
132.5
 20
53.579
 30
0.0
 11
107.5
 21
53.579
 31
0.0
  0
ARC
  8
0
  6
CONTINUOUS
 62
     1
 10
132.5
 20
52.579
 30
0.0
 40
1.0
 50
0.0
 51
90.0
  0
LINE
  8
0
  6
CONTINUOUS
 62
     1
 10
133.5
 20
27.579
 30
0.0
 11
133.5
 21
52.579
 31
0.0
  0
ARC
  8
0
  6
CONTINUOUS
 62
     1
 10
132.5
 20
27.579
 30
0.0
 40
1.0
 50
270.0
 51
0.0
  0
LINE
  8
0
  6
CONTINUOUS
 62
     1
 10
106.5
 20
52.579
 30
0.0
 11
106.5
 21
27.579
 31
0.0
  0
LINE
  8
0
  6
CONTINUOUS
 62
     1
 10
107.5
 20
26.579
 30
0.0
 11
132.5
 21
26.579
 31
0.0
  0
ARC
  8
0
  6
CONTINUOUS
 62
     1
 10
107.5
 20
27.579
 30
0.0
 40
1.0
 50
180.0
 51
270.0
  0
LINE
  8
0
  6
CONTINUOUS
 62
     1
 10
118.65
 20
44.579
 30
0.0
 11
118.65
 21
35.579
 31
0.0
  0
LINE
  8
0
  6
CONTINUOUS
 62
     1
 10
121.35
 20
44.579
 30
0.0
 11
121.35
 21
35.579
 31
0.0
  0
LINE
  8
0
  6
CONTINUOUS
 62
     2
 10
122.25
 20
44.579
 30
0.0
 11
122.25
 21
35.579
 31
0.0
  0
LINE
  8
0
  6
CONTINUOUS
 62
     2
 10
117.75
 20
35.579
 30
0.0
 11
117.75
 21
44.579
 31
0.0
  0
LINE
  8
0
  6
CONTINUOUS
 62
     2
 10
115.05
 20
42.104572062
 30
0.0
 11
113.295803137
 21
41.091786031
 31
0.0
  0
LINE
  8
0
  6
CONTINUOUS
 62
     2
 10
113.295803137
 20
41.091786031
 30
0.0
 11
113.295803137
 21
39.066213969
 31
0.0
  0
LINE
  8
0
  6
CONTINUOUS
 62
     2
 10
113.295803137
 20
39.066213969
 30
0.0
 11
115.05
 21
38.053427937
 31
0.0
  0
LINE
  8
0
  6
CONTINUOUS
 62
     2
 10
115.05
 20
38.053427937
 30
0.0
 11
116.804196863
 21
39.066213969
 31
0.0
  0
LINE
  8
0
  6
CONTINUOUS
 62
     2
 10
116.804196863
 20
39.066213969
 30
0.0
 11
116.804196863
 21
41.091786031
 31
0.0
  0
LINE
  8
0
  6
CONTINUOUS
 62
     2
 10
116.804196863
 20
41.091786031
 30
0.0
 11
115.05
 21
42.104572062
 31
0.0
  0
LINE
  8
0
  6
CONTINUOUS
 62
     2
 10
113.295803137
 20
40.319975
 30
0.0
 11
116.804196863
 21
40.319975
 31
0.0
  0
LINE
  8
0
  6
CONTINUOUS
 62
     2
 10
113.295803137
 20
39.838025
 30
0.0
 11
116.804196863
 21
39.838025
 31
0.0
  0
CIRCLE
  8
0
  6
CONTINUOUS
 62
     2
 10
115.05
 20
40.079
 30
0.0
 40
1.71
  0
LINE
  8
0
  6
CONTINUOUS
 62
     2
 10
124.95
 20
42.104572062
 30
0.0
 11
123.195803137
 21
41.091786031
 31
0.0
  0
LINE
  8
0
  6
CONTINUOUS
 62
     2
 10
123.195803137
 20
41.091786031
 30
0.0
 11
123.195803137
 21
39.066213969
 31
0.0
  0
LINE
  8
0
  6
CONTINUOUS
 62
     2
 10
123.195803137
 20
39.066213969
 30
0.0
 11
124.95
 21
38.053427937
 31
0.0
  0
LINE
  8
0
  6
CONTINUOUS
 62
     2
 10
124.95
 20
38.053427937
 30
0.0
 11
126.704196863
 21
39.066213969
 31
0.0
  0
LINE
  8
0
  6
CONTINUOUS
 62
     2
 10
126.704196863
 20
39.066213969
 30
0.0
 11
126.704196863
 21
41.091786031
 31
0.0
  0
LINE
  8
0
  6
CONTINUOUS
 62
     2
 10
126.704196863
 20
41.091786031
 30
0.0
 11
124.95
 21
42.104572062
 31
0.0
  0
LINE
  8
0
  6
CONTINUOUS
 62
     2
 10
123.195803137
 20
40.319975
 30
0.0
 11
126.704196863
 21
40.319975
 31
0.0
  0
LINE
  8
0
  6
CONTINUOUS
 62
     2
 10
123.195803137
 20
39.838025
 30
0.0
 11
126.704196863
 21
39.838025
 31
0.0
  0
CIRCLE
  8
0
  6
CONTINUOUS
 62
     2
 10
124.95
 20
40.079
 30
0.0
 40
1.71
  0
LINE
  8
0
  6
LTYPE2
 62
     5
 10
124.95
 20
37.379
 30
0.0
 11
124.95
 21
42.779
 31
0.0
  0
LINE
  8
0
  6
LTYPE2
 62
     5
 10
115.05
 20
37.379
 30
0.0
 11
115.05
 21
42.779
 31
0.0
  0
ARC
  8
0
  6
CONTINUOUS
 62
     1
 10
111.5
 20
44.079
 30
0.0
 40
0.5
 50
90.0
 51
180.0
  0
LINE
  8
0
  6
CONTINUOUS
 62
     1
 10
111.5
 20
44.579
 30
0.0
 11
128.5
 21
44.579
 31
0.0
  0
ARC
  8
0
  6
CONTINUOUS
 62
     1
 10
128.5
 20
44.079
 30
0.0
 40
0.5
 50
0.0
 51
90.0
  0
LINE
  8
0
  6
CONTINUOUS
 62
     1
 10
111.0
 20
44.079
 30
0.0
 11
111.0
 21
36.079
 31
0.0
  0
ARC
  8
0
  6
CONTINUOUS
 62
     1
 10
111.5
 20
36.079
 30
0.0
 40
0.5
 50
180.0
 51
270.0
  0
LINE
  8
0
  6
CONTINUOUS
 62
     1
 10
129.0
 20
44.079
 30
0.0
 11
129.0
 21
36.079
 31
0.0
  0
LINE
  8
0
  6
CONTINUOUS
 62
     1
 10
111.5
 20
35.579
 30
0.0
 11
128.5
 21
35.579
 31
0.0
  0
ARC
  8
0
  6
CONTINUOUS
 62
     1
 10
128.5
 20
36.079
 30
0.0
 40
0.5
 50
270.0
 51
0.0
  0
ARC
  8
0
  6
CONTINUOUS
 62
     1
 10
104.535384462
 20
28.338639069
 30
0.0
 40
1.157190802
 50
180.0
 51
271.527525441
  0
ARC
  8
0
  6
CONTINUOUS
 62
     1
 10
104.535384462
 20
30.12842751
 30
0.0
 40
1.157190802
 50
90.0
 51
180.0
  0
LINE
  8
0
  6
CONTINUOUS
 62
     1
 10
103.37819366
 20
30.12842751
 30
0.0
 11
103.37819366
 21
28.338639069
 31
0.0
  0
LINE
  8
0
  6
CONTINUOUS
 62
     1
 10
103.486198135
 20
29.572975925
 30
0.0
 11
103.486198135
 21
28.986665918
 31
0.0
  0
LINE
  8
0
  6
CONTINUOUS
 62
     1
 10
104.998260783
 20
31.285618312
 30
0.0
 11
104.519955251
 21
31.285618312
 31
0.0
  0
LINE
  8
0
  6
CONTINUOUS
 62
     1
 10
104.519955251
 20
27.212306688
 30
0.0
 11
104.998260783
 21
27.181448267
 31
0.0
  0
LINE
  8
0
  6
CONTINUOUS
 62
     1
 10
104.998260783
 20
31.285618312
 30
0.0
 11
104.998260783
 21
27.181448267
 31
0.0
  0
LINE
  8
0
  6
CONTINUOUS
 62
     2
 10
105.6
 20
27.181448267
 30
0.0
 11
105.013689994
 21
27.181448267
 31
0.0
  0
LINE
  8
0
  6
CONTINUOUS
 62
     2
 10
105.6
 20
29.048382761
 30
0.0
 11
105.013689994
 21
29.526688293
 31
0.0
  0
LINE
  8
0
  6
CONTINUOUS
 62
     2
 10
105.6
 20
28.678081704
 30
0.0
 11
104.998260783
 21
29.125528814
 31
0.0
  0
LINE
  8
0
  6
CONTINUOUS
 62
     2
 10
103.37819366
 20
29.557546714
 30
0.0
 11
103.486198135
 21
29.557546714
 31
0.0
  0
LINE
  8
0
  6
CONTINUOUS
 62
     2
 10
103.486198135
 20
28.986665918
 30
0.0
 11
103.393622871
 21
28.986665918
 31
0.0
  0
LINE
  8
0
  6
CONTINUOUS
 62
     2
 10
105.596760783
 20
31.285618312
 30
0.0
 11
104.998260783
 21
31.285618312
 31
0.0
  0
LINE
  8
0
  6
CONTINUOUS
 62
     2
 10
105.6
 20
31.286551733
 30
0.0
 11
105.6
 21
27.181448267
 31
0.0
  0
LINE
  8
0
  6
CONTINUOUS
 62
     1
 10
105.6
 20
32.429
 30
0.0
 11
106.5
 21
32.429
 31
0.0
  0
LINE
  8
0
  6
LTYPE1
 62
     5
 10
106.798260783
 20
29.233533289
 30
0.0
 11
101.398260783
 21
29.233533289
 31
0.0
  0
LINE
  8
0
  6
CONTINUOUS
 62
     1
 10
105.6
 20
24.779
 30
0.0
 11
105.6
 21
32.429
 31
0.0
  0
LINE
  8
0
  6
CONTINUOUS
 62
     1
 10
106.5
 20
23.879
 30
0.0
 11
97.95
 21
23.879
 31
0.0
  0
LINE
  8
0
  6
CONTINUOUS
 62
     1
 10
97.95
 20
23.879
 30
0.0
 11
97.95
 21
24.779
 31
0.0
  0
LINE
  8
0
  6
CONTINUOUS
 62
     1
 10
106.5
 20
24.779
 30
0.0
 11
106.5
 21
23.879
 31
0.0
  0
LINE
  8
0
  6
LTYPE1
 62
     5
 10
100.2
 20
28.267
 30
0.0
 11
100.2
 21
22.079
 31
0.0
  0
LINE
  8
0
  6
CONTINUOUS
 62
     1
 10
97.95
 20
24.779
 30
0.0
 11
105.6
 21
24.779
 31
0.0
  0
LINE
  8
0
  6
CONTINUOUS
 62
     1
 10
106.5
 20
32.429
 30
0.0
 11
106.5
 21
24.439
 31
0.0
  0
ARC
  8
0
  6
CONTINUOUS
 62
     1
 10
132.5
 20
27.579
 30
0.0
 40
1.0
 50
270.0
 51
0.0
  0
ARC
  8
0
  6
CONTINUOUS
 62
     1
 10
135.464615538
 20
28.338639069
 30
0.0
 40
1.157190802
 50
268.472474559
 51
0.0
  0
ARC
  8
0
  6
CONTINUOUS
 62
     1
 10
135.464615538
 20
30.12842751
 30
0.0
 40
1.157190802
 50
0.0
 51
90.0
  0
LINE
  8
0
  6
CONTINUOUS
 62
     1
 10
136.62180634
 20
30.12842751
 30
0.0
 11
136.62180634
 21
28.338639069
 31
0.0
  0
LINE
  8
0
  6
CONTINUOUS
 62
     1
 10
136.513801865
 20
29.572975925
 30
0.0
 11
136.513801865
 21
28.986665918
 31
0.0
  0
LINE
  8
0
  6
CONTINUOUS
 62
     1
 10
135.001739217
 20
31.285618312
 30
0.0
 11
135.480044749
 21
31.285618312
 31
0.0
  0
LINE
  8
0
  6
CONTINUOUS
 62
     1
 10
135.480044749
 20
27.212306688
 30
0.0
 11
135.001739217
 21
27.181448267
 31
0.0
  0
LINE
  8
0
  6
CONTINUOUS
 62
     1
 10
135.001739217
 20
31.285618312
 30
0.0
 11
135.001739217
 21
27.181448267
 31
0.0
  0
LINE
  8
0
  6
CONTINUOUS
 62
     2
 10
134.4
 20
27.181448267
 30
0.0
 11
134.986310006
 21
27.181448267
 31
0.0
  0
LINE
  8
0
  6
CONTINUOUS
 62
     2
 10
134.4
 20
29.048382761
 30
0.0
 11
134.986310006
 21
29.526688293
 31
0.0
  0
LINE
  8
0
  6
CONTINUOUS
 62
     2
 10
134.4
 20
28.678081704
 30
0.0
 11
135.001739217
 21
29.125528814
 31
0.0
  0
LINE
  8
0
  6
CONTINUOUS
 62
     2
 10
136.62180634
 20
29.557546714
 30
0.0
 11
136.513801865
 21
29.557546714
 31
0.0
  0
LINE
  8
0
  6
CONTINUOUS
 62
     2
 10
136.513801865
 20
28.986665918
 30
0.0
 11
136.606377129
 21
28.986665918
 31
0.0
  0
LINE
  8
0
  6
CONTINUOUS
 62
     2
 10
134.403239217
 20
31.285618312
 30
0.0
 11
135.001739217
 21
31.285618312
 31
0.0
  0
LINE
  8
0
  6
CONTINUOUS
 62
     2
 10
134.4
 20
31.286551733
 30
0.0
 11
134.4
 21
27.181448267
 31
0.0
  0
LINE
  8
0
  6
CONTINUOUS
 62
     1
 10
134.4
 20
32.429
 30
0.0
 11
133.5
 21
32.429
 31
0.0
  0
LINE
  8
0
  6
LTYPE1
 62
     5
 10
133.201739217
 20
29.233533289
 30
0.0
 11
138.601739217
 21
29.233533289
 31
0.0
  0
LINE
  8
0
  6
CONTINUOUS
 62
     1
 10
134.4
 20
24.779
 30
0.0
 11
134.4
 21
32.429
 31
0.0
  0
LINE
  8
0
  6
CONTINUOUS
 62
     1
 10
133.5
 20
23.879
 30
0.0
 11
142.05
 21
23.879
 31
0.0
  0
LINE
  8
0
  6
CONTINUOUS
 62
     1
 10
142.05
 20
23.879
 30
0.0
 11
142.05
 21
24.779
 31
0.0
  0
LINE
  8
0
  6
CONTINUOUS
 62
     1
 10
133.5
 20
24.779
 30
0.0
 11
133.5
 21
23.879
 31
0.0
  0
LINE
  8
0
  6
LTYPE1
 62
     5
 10
139.8
 20
28.267
 30
0.0
 11
139.8
 21
22.079
 31
0.0
  0
LINE
  8
0
  6
CONTINUOUS
 62
     1
 10
142.05
 20
24.779
 30
0.0
 11
134.4
 21
24.779
 31
0.0
  0
LINE
  8
0
  6
CONTINUOUS
 62
     1
 10
133.5
 20
32.429
 30
0.0
 11
133.5
 21
24.439
 31
0.0
  0
LINE
  8
0
  6
CONTINUOUS
 62
     5
 10
88.828
 20
40.079
 30
0.0
 11
92.91
 21
40.079
 31
0.0
  0
LINE
  8
0
  6
CONTINUOUS
 62
     5
 10
91.91
 20
40.079
 30
0.0
 11
91.39236191
 21
38.147148347
 31
0.0
  0
LINE
  8
0
  6
CONTINUOUS
 62
     5
 10
91.91
 20
40.079
 30
0.0
 11
92.42763809
 21
38.147148347
 31
0.0
  0
LINE
  8
0
  6
CONTINUOUS
 62
     5
 10
91.91
 20
40.079
 30
0.0
 11
91.91
 21
23.879
 31
0.0
  0
LINE
  8
0
  6
CONTINUOUS
 62
     5
 10
91.91
 20
23.879
 30
0.0
 11
92.42763809
 21
25.810851653
 31
0.0
  0
LINE
  8
0
  6
CONTINUOUS
 62
     5
 10
91.91
 20
23.879
 30
0.0
 11
91.39236191
 21
25.810851653
 31
0.0
  0
LINE
  8
0
  6
CONTINUOUS
 62
     5
 10
78.028
 20
23.879
 30
0.0
 11
92.91
 21
23.879
 31
0.0
  0
TEXT
  8
0
  6
CONTINUOUS
 62
     2
 10
90.91
 20
31.079
 30
0.3
 40
3.0
  1
ｈ
 50
90.0
 41
0.6
 51
0.0
  7
KANJI7
  0
TEXT
  8
0
  6
CONTINUOUS
 62
     2
 10
89.623376862
 20
33.07
 30
0.0
 40
2.0
  1
±２
 50
90.0
 41
0.9
 51
0.0
  7
KANJI9
  0
TEXT
  8
0
  6
CONTINUOUS
 62
     2
 10
15.795
 20
39.219
 30
0.3
 40
3.0
  1
Ｈ
 50
90.0
 41
0.6
 51
0.0
  7
KANJI7
  0
LINE
  8
0
  6
CONTINUOUS
 62
     5
 10
100.2
 20
21.079
 30
0.0
 11
100.2
 21
17.681
 31
0.0
  0
LINE
  8
0
  6
CONTINUOUS
 62
     5
 10
100.2
 20
18.681
 30
0.0
 11
102.131851653
 21
18.16336191
 31
0.0
  0
LINE
  8
0
  6
CONTINUOUS
 62
     5
 10
100.2
 20
18.681
 30
0.0
 11
102.131851653
 21
19.19863809
 31
0.0
  0
LINE
  8
0
  6
CONTINUOUS
 62
     5
 10
100.2
 20
18.681
 30
0.0
 11
139.8
 21
18.681
 31
0.0
  0
LINE
  8
0
  6
CONTINUOUS
 62
     5
 10
139.8
 20
18.681
 30
0.0
 11
137.868148347
 21
19.19863809
 31
0.0
  0
LINE
  8
0
  6
CONTINUOUS
 62
     5
 10
139.8
 20
18.681
 30
0.0
 11
137.868148347
 21
18.16336191
 31
0.0
  0
LINE
  8
0
  6
CONTINUOUS
 62
     5
 10
139.8
 20
21.079
 30
0.0
 11
139.8
 21
17.681
 31
0.0
  0
TEXT
  8
0
  6
CONTINUOUS
 62
     2
 10
119.1
 20
19.681
 30
0.3
 40
3.0
  1
Ｃ
 50
0.0
 41
0.6
 51
0.0
  7
KANJI7
  0
LINE
  8
0
  6
LTYPE1
 62
     5
 10
120.0
 20
57.091
 30
0.0
 11
120.0
 21
23.879
 31
0.0
  0
LINE
  8
2
  6
CONTINUOUS
 62
     5
 10
142.95
 20
23.879
 30
0.0
 11
149.25
 21
23.879
 31
0.0
  0
LINE
  8
2
  6
CONTINUOUS
 62
     5
 10
147.45
 20
23.879
 30
0.0
 11
147.45
 21
24.779
 31
0.0
  0
LINE
  8
2
  6
CONTINUOUS
 62
     5
 10
142.95
 20
24.779
 30
0.0
 11
149.25
 21
24.779
 31
0.0
  0
LINE
  8
2
  6
CONTINUOUS
 62
     5
 10
147.45
 20
23.879
 30
0.0
 11
147.08826859
 21
22.529
 31
0.0
  0
LINE
  8
2
  6
CONTINUOUS
 62
     5
 10
147.45
 20
23.879
 30
0.0
 11
147.81173141
 21
22.529
 31
0.0
  0
LINE
  8
2
  6
CONTINUOUS
 62
     5
 10
147.45
 20
22.214
 30
0.0
 11
147.45
 21
23.879
 31
0.0
  0
LINE
  8
2
  6
CONTINUOUS
 62
     5
 10
147.45
 20
24.779
 30
0.0
 11
147.45
 21
27.254
 31
0.0
  0
LINE
  8
2
  6
CONTINUOUS
 62
     5
 10
147.45
 20
24.779
 30
0.0
 11
147.08826859
 21
26.129
 31
0.0
  0
LINE
  8
2
  6
CONTINUOUS
 62
     5
 10
147.45
 20
24.779
 30
0.0
 11
147.81173141
 21
26.129
 31
0.0
  0
TEXT
  8
0
  6
CONTINUOUS
 62
     2
 10
72.838563528
 20
19.618959016
 30
0.3
 40
2.8
  1
４－ｄ
 50
0.0
 41
0.892857143
 51
0.0
  7
KANJI13
  0
TEXT
  8
0
  6
CONTINUOUS
 62
     2
 10
80.687563528
 20
21.496959016
 30
0.0
 40
2.0
  1
φ
 50
0.0
 41
0.9
 51
0.0
  7
KANJI9
  0
LINE
  8
0
  6
CONTINUOUS
 62
     5
 10
137.69
 20
25.817
 30
0.0
 11
139.016939906
 21
27.313405856
 31
0.0
  0
LINE
  8
0
  6
CONTINUOUS
 62
     5
 10
137.69
 20
25.817
 30
0.0
 11
138.090960741
 21
27.776395439
 31
0.0
  0
LINE
  8
0
  6
CONTINUOUS
 62
     5
 10
137.69
 20
25.817
 30
0.0
 11
141.678
 21
33.793
 31
0.0
  0
LINE
  8
0
  6
CONTINUOUS
 62
     5
 10
141.678
 20
33.793
 30
0.0
 11
147.578
 21
33.793
 31
0.0
  0
TEXT
  8
0
  6
CONTINUOUS
 62
     2
 10
141.678
 20
34.793
 30
0.3
 40
3.0
  1
鉄板
 50
0.0
 41
0.933333333
 51
0.0
  7
KANJI14
  0
LINE
  8
0
  6
CONTINUOUS
 62
     5
 10
72.838563528
 20
18.618959016
 30
0.0
 11
82.488
 21
18.618959016
 31
0.0
  0
TEXT
  8
0
  6
CONTINUOUS
 62
     2
 10
121.58
 20
21.240623138
 30
0.0
 40
2.0
  1
±２
 50
0.0
 41
0.9
 51
0.0
  7
KANJI9
  0
LINE
  8
0
  6
CONTINUOUS
 62
     5
 10
114.117
 20
42.608
 30
0.0
 11
115.095777349
 21
44.352131561
 31
0.0
  0
LINE
  8
0
  6
CONTINUOUS
 62
     5
 10
114.117
 20
42.608
 30
0.0
 11
114.092580269
 21
44.607850914
 31
0.0
  0
LINE
  8
0
  6
CONTINUOUS
 62
     5
 10
114.117
 20
42.608
 30
0.0
 11
118.21
 21
58.665
 31
0.0
  0
LINE
  8
0
  6
CONTINUOUS
 62
     5
 10
118.21
 20
58.665
 30
0.0
 11
136.51
 21
58.665
 31
0.0
  0
TEXT
  8
0
  6
CONTINUOUS
 62
     2
 10
118.21
 20
59.665
 30
0.3
 40
3.0
  1
Ｍ５六角ネジ
 50
0.0
 41
0.933333333
 51
0.0
  7
KANJI14
  0
TEXT
  8
0
  6
CONTINUOUS
 62
     2
 10
124.192
 20
55.13
 30
0.8
 40
2.8
  1
（黄銅）
 50
0.0
 41
0.892857143
 51
0.0
  7
KANJI15
  0
LINE
  8
0
  6
CONTINUOUS
 62
     5
 10
123.982
 20
42.188
 30
0.0
 11
123.83184453
 21
44.182355368
 31
0.0
  0
LINE
  8
0
  6
CONTINUOUS
 62
     5
 10
123.982
 20
42.188
 30
0.0
 11
122.854783864
 21
43.840084678
 31
0.0
  0
LINE
  8
0
  6
CONTINUOUS
 62
     5
 10
123.982
 20
42.188
 30
0.0
 11
118.21
 21
58.665
 31
0.0
  0
LINE
  8
0
  6
CONTINUOUS
 62
     5
 10
118.21
 20
58.665
 30
0.0
 11
118.51
 21
58.665
 31
0.0
  0
POINT
  8
0
  6
CONTINUOUS
 62
     2
 10
70.108123747
 20
29.387463769
 30
0.0
  0
LINE
  8
0
  6
CONTINUOUS
 62
     5
 10
68.232373934
 20
38.210487655
 30
0.0
 11
72.09859374
 21
39.806070432
 31
0.0
  0
LINE
  8
0
  6
CONTINUOUS
 62
     5
 10
71.174219806
 20
39.424582777
 30
0.0
 11
71.432706206
 21
37.441356925
 31
0.0
  0
LINE
  8
0
  6
CONTINUOUS
 62
     5
 10
71.174219806
 20
39.424582777
 30
0.0
 11
72.389688521
 21
37.836302007
 31
0.0
  0
LINE
  8
0
  6
CONTINUOUS
 62
     5
 10
71.174219806
 20
39.424582777
 30
0.0
 11
74.558529817
 21
31.22413929
 31
0.0
  0
LINE
  8
0
  6
CONTINUOUS
 62
     5
 10
74.558529817
 20
31.22413929
 30
0.0
 11
74.300043418
 21
33.207365142
 31
0.0
  0
LINE
  8
0
  6
CONTINUOUS
 62
     5
 10
74.558529817
 20
31.22413929
 30
0.0
 11
73.343061102
 21
32.812420059
 31
0.0
  0
TEXT
  8
0
  6
CONTINUOUS
 62
     2
 10
73.447409856
 20
36.537785229
 30
0.3
 40
3.0
  1
ｇ
 50
292.425861921
 41
0.6
 51
0.0
  7
KANJI7
  0
LINE
  8
0
  6
CONTINUOUS
 62
     5
 10
73.599903751
 20
30.828515834
 30
0.0
 11
75.482903751
 21
31.605626945
 31
0.0
  0
LINE
  8
0
  6
CONTINUOUS
 62
     5
 10
72.471683944
 20
30.36290131
 30
0.0
 11
72.602903751
 21
30.417055516
 31
0.0
  0
LINE
  8
0
  6
LTYPE1
 62
     5
 10
136.431683944
 20
40.079
 30
0.0
 11
101.625
 21
40.079
 31
0.0
  0
LINE
  8
0
  6
CONTINUOUS
 62
     6
 10
55.258623747
 20
115.476
 30
0.0
 11
60.547376253
 21
115.476
 31
0.0
  0
LINE
  8
2
  6
CONTINUOUS
 62
     2
 10
219.069
 20
179.85035
 30
0.0
 11
219.069
 21
133.26535
 31
0.0
  0
LINE
  8
2
  6
CONTINUOUS
 62
     2
 10
212.421
 20
179.85035
 30
0.0
 11
212.421
 21
133.26535
 31
0.0
  0
LINE
  8
2
  6
CONTINUOUS
 62
     2
 10
219.069
 20
179.85035
 30
0.0
 11
167.227
 21
179.85035
 31
0.0
  0
LINE
  8
2
  6
CONTINUOUS
 62
     2
 10
167.227
 20
175.61535
 30
0.0
 11
219.069
 21
175.61535
 31
0.0
  0
LINE
  8
0
  6
CONTINUOUS
 62
     2
 10
197.26
 20
171.38035
 30
0.0
 11
219.069
 21
171.38035
 31
0.0
  0
LINE
  8
2
  6
CONTINUOUS
 62
     2
 10
184.555
 20
167.14535
 30
0.0
 11
219.069
 21
167.14535
 31
0.0
  0
LINE
  8
0
  6
CONTINUOUS
 62
     2
 10
197.26
 20
162.91035
 30
0.0
 11
219.069
 21
162.91035
 31
0.0
  0
LINE
  8
2
  6
CONTINUOUS
 62
     2
 10
167.227
 20
158.67535
 30
0.0
 11
219.069
 21
158.67535
 31
0.0
  0
LINE
  8
2
  6
CONTINUOUS
 62
     2
 10
184.555
 20
154.44035
 30
0.0
 11
219.069
 21
154.44035
 31
0.0
  0
LINE
  8
2
  6
CONTINUOUS
 62
     2
 10
184.555
 20
150.20535
 30
0.0
 11
219.069
 21
150.20535
 31
0.0
  0
LINE
  8
2
  6
CONTINUOUS
 62
     2
 10
184.555
 20
145.97035
 30
0.0
 11
219.069
 21
145.97035
 31
0.0
  0
LINE
  8
2
  6
CONTINUOUS
 62
     2
 10
184.555
 20
141.73535
 30
0.0
 11
219.069
 21
141.73535
 31
0.0
  0
LINE
  8
2
  6
CONTINUOUS
 62
     2
 10
184.555
 20
137.50035
 30
0.0
 11
219.069
 21
137.50035
 31
0.0
  0
LINE
  8
2
  6
CONTINUOUS
 62
     2
 10
167.227
 20
133.26535
 30
0.0
 11
219.069
 21
133.26535
 31
0.0
  0
TEXT
  8
2
  6
CONTINUOUS
 62
     2
 10
214.725
 20
176.51085
 30
1.694
 40
2.541
  1
ハ
 50
0.0
 41
0.833333333
 51
0.0
  7
KANJI2
  0
TEXT
  8
2
  6
CONTINUOUS
 62
     2
 10
93.5571
 20
159.52235
 30
0.0847
 40
2.541
  1
９９
 50
0.0
 41
0.733333333
 51
0.0
  7
KANJI0
  0
TEXT
  8
2
  6
CONTINUOUS
 62
     2
 10
132.265
 20
155.28735
 30
0.0847
 40
2.541
  1
１００
 50
0.0
 41
0.733333333
 51
0.0
  7
KANJI0
  0
TEXT
  8
2
  6
CONTINUOUS
 62
     2
 10
132.265
 20
151.05235
 30
0.0847
 40
2.541
  1
１２０
 50
0.0
 41
0.733333333
 51
0.0
  7
KANJI0
  0
TEXT
  8
2
  6
CONTINUOUS
 62
     2
 10
134.2131
 20
146.81735
 30
0.0847
 40
2.541
  1
９１
 50
0.0
 41
0.733333333
 51
0.0
  7
KANJI0
  0
TEXT
  8
2
  6
CONTINUOUS
 62
     2
 10
134.2131
 20
142.58235
 30
0.0847
 40
2.541
  1
８０
 50
0.0
 41
0.733333333
 51
0.0
  7
KANJI0
  0
TEXT
  8
2
  6
CONTINUOUS
 62
     2
 10
132.265
 20
138.34735
 30
0.0847
 40
2.541
  1
１００
 50
0.0
 41
0.733333333
 51
0.0
  7
KANJI0
  0
TEXT
  8
2
  6
CONTINUOUS
 62
     2
 10
132.265
 20
134.11235
 30
0.0847
 40
2.541
  1
１２０
 50
0.0
 41
0.733333333
 51
0.0
  7
KANJI0
  0
TEXT
  8
2
  6
CONTINUOUS
 62
     2
 10
151.44
 20
165.87485
 30
0.0847
 40
2.541
  1
５２　
 50
0.0
 41
0.733333333
 51
0.0
  7
KANJI0
  0
TEXT
  8
2
  6
CONTINUOUS
 62
     2
 10
151.44
 20
153.16985
 30
0.0847
 40
2.541
  1
７３　
 50
0.0
 41
0.733333333
 51
0.0
  7
KANJI0
  0
TEXT
  8
2
  6
CONTINUOUS
 62
     2
 10
151.44
 20
144.69985
 30
0.0847
 40
2.541
  1
５２　
 50
0.0
 41
0.733333333
 51
0.0
  7
KANJI0
  0
TEXT
  8
2
  6
CONTINUOUS
 62
     2
 10
151.44
 20
136.22985
 30
0.0847
 40
2.541
  1
７３　
 50
0.0
 41
0.733333333
 51
0.0
  7
KANJI0
  0
LINE
  8
0
  6
CONTINUOUS
 62
     2
 10
159.063
 20
154.44035
 30
0.0
 11
167.227
 21
154.44035
 31
0.0
  0
LINE
  8
0
  6
CONTINUOUS
 62
     2
 10
159.063
 20
137.50035
 30
0.0
 11
167.227
 21
137.50035
 31
0.0
  0
TEXT
  8
2
  6
CONTINUOUS
 62
     2
 10
161.0275
 20
155.28735
 30
0.0847
 40
2.541
  1
５８
 50
0.0
 41
0.733333333
 51
0.0
  7
KANJI0
  0
TEXT
  8
2
  6
CONTINUOUS
 62
     2
 10
161.0275
 20
151.05235
 30
0.0847
 40
2.541
  1
６６
 50
0.0
 41
0.733333333
 51
0.0
  7
KANJI0
  0
TEXT
  8
2
  6
CONTINUOUS
 62
     2
 10
161.451
 20
144.69985
 30
0.0847
 40
2.541
  1
４３
 50
0.0
 41
0.733333333
 51
0.0
  7
KANJI0
  0
TEXT
  8
2
  6
CONTINUOUS
 62
     2
 10
161.0275
 20
138.34735
 30
0.0847
 40
2.541
  1
５８
 50
0.0
 41
0.733333333
 51
0.0
  7
KANJI0
  0
TEXT
  8
2
  6
CONTINUOUS
 62
     2
 10
161.0275
 20
134.11235
 30
0.0847
 40
2.541
  1
６６
 50
0.0
 41
0.733333333
 51
0.0
  7
KANJI0
  0
LINE
  8
2
  6
CONTINUOUS
 62
     2
 10
100.079
 20
150.20535
 30
0.0
 11
167.227
 21
150.20535
 31
0.0
  0
LINE
  8
2
  6
CONTINUOUS
 62
     2
 10
15.297
 20
150.20535
 30
0.0
 11
89.915
 21
150.20535
 31
0.0
  0
TEXT
  8
2
  6
CONTINUOUS
 62
     2
 10
91.998
 20
146.88435
 30
0.0847
 40
2.541
  1
１１０
 50
0.0
 41
0.733333333
 51
0.0
  7
KANJI0
  0
TEXT
  8
2
  6
CONTINUOUS
 62
     2
 10
62.5529
 20
170.10985
 30
0.0847
 40
2.541
  1
５ＶＡ
 50
0.0
 41
0.733333333
 51
0.0
  7
KANJI0
  0
TEXT
  8
2
  6
CONTINUOUS
 62
     2
 10
199.662
 20
172.25635
 30
0.0847
 40
2.541
  1
８４
 50
0.0
 41
0.733333333
 51
0.0
  7
KANJI0
  0
TEXT
  8
2
  6
CONTINUOUS
 62
     2
 10
199.662
 20
168.02135
 30
0.0847
 40
2.541
  1
８４
 50
0.0
 41
0.733333333
 51
0.0
  7
KANJI0
  0
TEXT
  8
2
  6
CONTINUOUS
 62
     2
 10
199.662
 20
163.78635
 30
0.0847
 40
2.541
  1
８４
 50
0.0
 41
0.733333333
 51
0.0
  7
KANJI0
  0
TEXT
  8
2
  6
CONTINUOUS
 62
     2
 10
199.662
 20
159.55135
 30
0.0847
 40
2.541
  1
８４
 50
0.0
 41
0.733333333
 51
0.0
  7
KANJI0
  0
TEXT
  8
2
  6
CONTINUOUS
 62
     2
 10
198.662
 20
155.31635
 30
0.0847
 40
2.541
  1
１３０
 50
0.0
 41
0.733333333
 51
0.0
  7
KANJI0
  0
TEXT
  8
2
  6
CONTINUOUS
 62
     2
 10
198.662
 20
151.08135
 30
0.0847
 40
2.541
  1
１３０
 50
0.0
 41
0.733333333
 51
0.0
  7
KANJI0
  0
TEXT
  8
2
  6
CONTINUOUS
 62
     2
 10
199.662
 20
146.84635
 30
0.0847
 40
2.541
  1
８４
 50
0.0
 41
0.733333333
 51
0.0
  7
KANJI0
  0
TEXT
  8
2
  6
CONTINUOUS
 62
     2
 10
199.662
 20
142.61135
 30
0.0847
 40
2.541
  1
８４
 50
0.0
 41
0.733333333
 51
0.0
  7
KANJI0
  0
TEXT
  8
2
  6
CONTINUOUS
 62
     2
 10
198.662
 20
138.37635
 30
0.0847
 40
2.541
  1
１３０
 50
0.0
 41
0.733333333
 51
0.0
  7
KANJI0
  0
TEXT
  8
2
  6
CONTINUOUS
 62
     2
 10
198.662
 20
134.14135
 30
0.0847
 40
2.541
  1
１３０
 50
0.0
 41
0.733333333
 51
0.0
  7
KANJI0
  0
TEXT
  8
2
  6
CONTINUOUS
 62
     2
 10
200.356
 20
176.49135
 30
1.694
 40
2.541
  1
イ
 50
0.0
 41
0.833333333
 51
0.0
  7
KANJI2
  0
TEXT
  8
2
  6
CONTINUOUS
 62
     2
 10
207.419
 20
172.22735
 30
0.0847
 40
2.541
  1
４４
 50
0.0
 41
0.733333333
 51
0.0
  7
KANJI0
  0
TEXT
  8
2
  6
CONTINUOUS
 62
     2
 10
207.419
 20
167.99235
 30
0.0847
 40
2.541
  1
４４
 50
0.0
 41
0.733333333
 51
0.0
  7
KANJI0
  0
TEXT
  8
2
  6
CONTINUOUS
 62
     2
 10
207.419
 20
163.75735
 30
0.0847
 40
2.541
  1
４４
 50
0.0
 41
0.733333333
 51
0.0
  7
KANJI0
  0
TEXT
  8
2
  6
CONTINUOUS
 62
     2
 10
207.419
 20
159.52235
 30
0.0847
 40
2.541
  1
４４
 50
0.0
 41
0.733333333
 51
0.0
  7
KANJI0
  0
TEXT
  8
2
  6
CONTINUOUS
 62
     2
 10
207.419
 20
155.28735
 30
0.0847
 40
2.541
  1
６５
 50
0.0
 41
0.733333333
 51
0.0
  7
KANJI0
  0
TEXT
  8
2
  6
CONTINUOUS
 62
     2
 10
207.419
 20
151.05235
 30
0.0847
 40
2.541
  1
８０
 50
0.0
 41
0.733333333
 51
0.0
  7
KANJI0
  0
TEXT
  8
2
  6
CONTINUOUS
 62
     2
 10
207.419
 20
146.81735
 30
0.0847
 40
2.541
  1
６０
 50
0.0
 41
0.733333333
 51
0.0
  7
KANJI0
  0
TEXT
  8
2
  6
CONTINUOUS
 62
     2
 10
207.419
 20
142.58235
 30
0.0847
 40
2.541
  1
５８
 50
0.0
 41
0.733333333
 51
0.0
  7
KANJI0
  0
TEXT
  8
2
  6
CONTINUOUS
 62
     2
 10
207.419
 20
138.34735
 30
0.0847
 40
2.541
  1
６５
 50
0.0
 41
0.733333333
 51
0.0
  7
KANJI0
  0
TEXT
  8
2
  6
CONTINUOUS
 62
     2
 10
207.419
 20
134.11235
 30
0.0847
 40
2.541
  1
８０
 50
0.0
 41
0.733333333
 51
0.0
  7
KANJI0
  0
TEXT
  8
2
  6
CONTINUOUS
 62
     2
 10
208.113
 20
176.46235
 30
1.694
 40
2.541
  1
ロ
 50
0.0
 41
0.833333333
 51
0.0
  7
KANJI2
  0
TEXT
  8
2
  6
CONTINUOUS
 62
     2
 10
214.8055
 20
172.25685
 30
0.0847
 40
2.541
  1
５
 50
0.0
 41
0.733333333
 51
0.0
  7
KANJI0
  0
TEXT
  8
2
  6
CONTINUOUS
 62
     2
 10
214.8055
 20
168.02185
 30
0.0847
 40
2.541
  1
５
 50
0.0
 41
0.733333333
 51
0.0
  7
KANJI0
  0
TEXT
  8
2
  6
CONTINUOUS
 62
     2
 10
214.8055
 20
163.78685
 30
0.0847
 40
2.541
  1
５
 50
0.0
 41
0.733333333
 51
0.0
  7
KANJI0
  0
TEXT
  8
2
  6
CONTINUOUS
 62
     2
 10
214.8055
 20
159.55185
 30
0.0847
 40
2.541
  1
５
 50
0.0
 41
0.733333333
 51
0.0
  7
KANJI0
  0
TEXT
  8
2
  6
CONTINUOUS
 62
     2
 10
214.8055
 20
155.31685
 30
0.0847
 40
2.541
  1
６
 50
0.0
 41
0.733333333
 51
0.0
  7
KANJI0
  0
TEXT
  8
2
  6
CONTINUOUS
 62
     2
 10
214.8055
 20
151.08185
 30
0.0847
 40
2.541
  1
６
 50
0.0
 41
0.733333333
 51
0.0
  7
KANJI0
  0
TEXT
  8
2
  6
CONTINUOUS
 62
     2
 10
214.8055
 20
146.84685
 30
0.0847
 40
2.541
  1
５
 50
0.0
 41
0.733333333
 51
0.0
  7
KANJI0
  0
TEXT
  8
2
  6
CONTINUOUS
 62
     2
 10
214.8055
 20
142.61185
 30
0.0847
 40
2.541
  1
５
 50
0.0
 41
0.733333333
 51
0.0
  7
KANJI0
  0
TEXT
  8
2
  6
CONTINUOUS
 62
     2
 10
214.8055
 20
138.37685
 30
0.0847
 40
2.541
  1
６
 50
0.0
 41
0.733333333
 51
0.0
  7
KANJI0
  0
TEXT
  8
2
  6
CONTINUOUS
 62
     2
 10
214.8055
 20
134.14185
 30
0.0847
 40
2.541
  1
６
 50
0.0
 41
0.733333333
 51
0.0
  7
KANJI0
  0
LINE
  8
0
  6
LTYPE1
 62
     5
 10
32.743
 20
40.079
 30
0.0
 11
84.62
 21
40.079
 31
0.0
  0
LINE
  8
0
  6
LTYPE1
 62
     5
 10
89.957
 20
40.079
 30
0.0
 11
32.743
 21
40.079
 31
0.0
  0
LINE
  8
0
  6
LTYPE1
 62
     5
 10
57.903
 20
123.833
 30
0.0
 11
57.903
 21
79.013
 31
0.0
  0
TEXT
  8
2
  6
CONTINUOUS
 62
     2
 10
183.069
 20
106.655024941
 30
0.45
 40
2.7
  1
１Ａ　ｏｒ　５Ａ
 50
0.0
 41
0.833333333
 51
0.0
  7
KANJI16
  0
TEXT
  8
2
  6
CONTINUOUS
 62
     2
 10
183.069
 20
79.655024941
 30
0.45
 40
2.7
  1
ＪＩＳ　Ｃ　１７３１
 50
0.0
 41
0.833333333
 51
0.0
  7
KANJI16
  0
TEXT
  8
2
  6
CONTINUOUS
 62
     2
 10
183.069
 20
97.655024941
 30
0.45
 40
2.7
  1
１．０　
 50
0.0
 41
0.833333333
 51
0.0
  7
KANJI16
  0
LINE
  8
2
  6
CONTINUOUS
 62
     2
 10
142.569
 20
123.755024941
 30
0.0
 11
142.569
 21
78.755024941
 31
0.0
  0
LINE
  8
2
  6
CONTINUOUS
 62
     2
 10
178.569
 20
123.755024941
 30
0.0
 11
178.569
 21
78.755024941
 31
0.0
  0
LINE
  8
2
  6
CONTINUOUS
 62
     2
 10
219.069
 20
78.755024941
 30
0.0
 11
219.069
 21
123.755024941
 31
0.0
  0
TEXT
  8
2
  6
CONTINUOUS
 62
     2
 10
181.269
 20
120.155024941
 30
0.27
 40
2.7
  1
ＣＢＭ－５
 50
0.0
 41
0.45
 51
0.0
  7
KANJI17
  0
TEXT
  8
2
  6
CONTINUOUS
 62
     2
 10
194.769
 20
120.155024941
 30
0.27
 40
2.7
  1
ＣＢＭ－１５
 50
0.0
 41
0.45
 51
0.0
  7
KANJI17
  0
TEXT
  8
2
  6
CONTINUOUS
 62
     2
 10
208.269
 20
120.155024941
 30
0.27
 40
2.7
  1
ＣＢＭ－４０
 50
0.0
 41
0.45
 51
0.0
  7
KANJI17
  0
LINE
  8
2
  6
CONTINUOUS
 62
     2
 10
219.069
 20
119.255024941
 30
0.0
 11
142.569
 21
119.255024941
 31
0.0
  0
LINE
  8
2
  6
CONTINUOUS
 62
     2
 10
142.569
 20
114.755024941
 30
0.0
 11
219.069
 21
114.755024941
 31
0.0
  0
LINE
  8
2
  6
CONTINUOUS
 62
     2
 10
142.569
 20
110.255024941
 30
0.0
 11
219.069
 21
110.255024941
 31
0.0
  0
LINE
  8
2
  6
CONTINUOUS
 62
     2
 10
219.069
 20
123.755024941
 30
0.0
 11
142.569
 21
123.755024941
 31
0.0
  0
LINE
  8
2
  6
CONTINUOUS
 62
     2
 10
142.569
 20
105.755024941
 30
0.0
 11
219.069
 21
105.755024941
 31
0.0
  0
LINE
  8
2
  6
CONTINUOUS
 62
     2
 10
142.569
 20
101.255024941
 30
0.0
 11
219.069
 21
101.255024941
 31
0.0
  0
LINE
  8
2
  6
CONTINUOUS
 62
     2
 10
142.569
 20
96.755024941
 30
0.0
 11
219.069
 21
96.755024941
 31
0.0
  0
LINE
  8
2
  6
CONTINUOUS
 62
     2
 10
142.569
 20
92.255024941
 30
0.0
 11
219.069
 21
92.255024941
 31
0.0
  0
LINE
  8
2
  6
CONTINUOUS
 62
     2
 10
142.569
 20
87.755024941
 30
0.0
 11
219.069
 21
87.755024941
 31
0.0
  0
LINE
  8
2
  6
CONTINUOUS
 62
     2
 10
142.569
 20
83.255024941
 30
0.0
 11
219.069
 21
83.255024941
 31
0.0
  0
LINE
  8
2
  6
CONTINUOUS
 62
     2
 10
142.569
 20
78.755024941
 30
0.0
 11
219.069
 21
78.755024941
 31
0.0
  0
LINE
  8
2
  6
CONTINUOUS
 62
     2
 10
192.069
 20
123.755024941
 30
0.0
 11
192.069
 21
119.255024941
 31
0.0
  0
LINE
  8
2
  6
CONTINUOUS
 62
     2
 10
205.569
 20
123.755024941
 30
0.0
 11
205.569
 21
119.255024941
 31
0.0
  0
TEXT
  8
2
  6
CONTINUOUS
 62
     2
 10
179.469
 20
111.155024941
 30
0.27
 40
2.7
  1
１５０～６００Ａ
 50
0.0
 41
0.833333333
 51
0.0
  7
KANJI18
  0
LINE
  8
2
  6
CONTINUOUS
 62
     2
 10
192.069
 20
114.755024941
 30
0.0
 11
192.069
 21
110.255024941
 31
0.0
  0
LINE
  8
2
  6
CONTINUOUS
 62
     2
 10
192.069
 20
105.755024941
 30
0.0
 11
192.069
 21
101.255024941
 31
0.0
  0
LINE
  8
2
  6
CONTINUOUS
 62
     2
 10
205.569
 20
105.755024941
 30
0.0
 11
205.569
 21
101.255024941
 31
0.0
  0
TEXT
  8
2
  6
CONTINUOUS
 62
     2
 10
197.469
 20
111.155024941
 30
0.27
 40
2.7
  1
２００～２０００Ａ
 50
0.0
 41
0.833333333
 51
0.0
  7
KANJI18
  0
TEXT
  8
2
  6
CONTINUOUS
 62
     2
 10
181.269
 20
102.155024941
 30
0.27
 40
2.7
  1
５ＶＡ
 50
0.0
 41
0.833333333
 51
0.0
  7
KANJI18
  0
TEXT
  8
2
  6
CONTINUOUS
 62
     2
 10
193.869
 20
102.155024941
 30
0.27
 40
2.7
  1
１５ＶＡ
 50
0.0
 41
0.833333333
 51
0.0
  7
KANJI18
  0
TEXT
  8
2
  6
CONTINUOUS
 62
     2
 10
207.369
 20
102.155024941
 30
0.27
 40
2.7
  1
４０ＶＡ
 50
0.0
 41
0.833333333
 51
0.0
  7
KANJI18
  0
TEXT
  8
2
  6
CONTINUOUS
 62
     2
 10
183.069
 20
88.655024941
 30
0.45
 40
2.7
  1
４６０Ｖ
 50
0.0
 41
0.833333333
 51
0.0
  7
KANJI16
  0
TEXT
  8
2
  6
CONTINUOUS
 62
     2
 10
183.069
 20
115.655024941
 30
0.27
 40
2.7
  1
ポリエステル樹脂全モールド
 50
0.0
 41
0.9
 51
0.0
  7
KANJI6
  0
TEXT
  8
2
  6
CONTINUOUS
 62
     2
 10
149.919
 20
115.655024941
 30
0.27
 40
2.7
  1
構　　　　　造
 50
0.0
 41
0.9
 51
0.0
  7
KANJI6
  0
TEXT
  8
2
  6
CONTINUOUS
 62
     2
 10
149.919
 20
111.155024941
 30
0.27
 40
2.7
  1
一　次　電　流
 50
0.0
 41
0.9
 51
0.0
  7
KANJI6
  0
TEXT
  8
2
  6
CONTINUOUS
 62
     2
 10
149.919
 20
106.655024941
 30
0.27
 40
2.7
  1
二　次　電　流
 50
0.0
 41
0.9
 51
0.0
  7
KANJI6
  0
TEXT
  8
2
  6
CONTINUOUS
 62
     2
 10
149.419
 20
102.155024941
 30
0.27
 40
2.7
  1
定　格　負　担
 50
0.0
 41
0.9
 51
0.0
  7
KANJI6
  0
TEXT
  8
2
  6
CONTINUOUS
 62
     2
 10
149.919
 20
97.655024941
 30
0.27
 40
2.7
  1
階　　　　　級
 50
0.0
 41
0.9
 51
0.0
  7
KANJI6
  0
TEXT
  8
2
  6
CONTINUOUS
 62
     2
 10
149.919
 20
93.155024941
 30
0.27
 40
2.7
  1
周　　波　　数
 50
0.0
 41
0.9
 51
0.0
  7
KANJI6
  0
TEXT
  8
2
  6
CONTINUOUS
 62
     2
 10
149.919
 20
88.655024941
 30
0.27
 40
2.7
  1
最　高　電　圧
 50
0.0
 41
0.9
 51
0.0
  7
KANJI6
  0
TEXT
  8
2
  6
CONTINUOUS
 62
     2
 10
149.919
 20
84.155024941
 30
0.27
 40
2.7
  1
過　電　流　強　度
 50
0.0
 41
0.9
 51
0.0
  7
KANJI6
  0
TEXT
  8
2
  6
CONTINUOUS
 62
     2
 10
149.919
 20
79.655024941
 30
0.27
 40
2.7
  1
規　　　　　格
 50
0.0
 41
0.9
 51
0.0
  7
KANJI6
  0
TEXT
  8
2
  6
CONTINUOUS
 62
     2
 10
183.069
 20
84.155024941
 30
0.45
 40
2.7
  1
４０（注１）
 50
0.0
 41
0.833333333
 51
0.0
  7
KANJI16
  0
TEXT
  8
2
  6
CONTINUOUS
 62
     2
 10
149.919
 20
120.155024941
 30
0.27
 40
2.7
  1
形　　　　　式
 50
0.0
 41
0.9
 51
0.0
  7
KANJI6
  0
LINE
  8
2
  6
CONTINUOUS
 62
     2
 10
142.569
 20
74.255024941
 30
0.0
 11
219.069
 21
74.255024941
 31
0.0
  0
LINE
  8
0
  6
CONTINUOUS
 62
     2
 10
142.569
 20
78.755024941
 30
0.0
 11
142.569
 21
74.248024941
 31
0.0
  0
LINE
  8
0
  6
CONTINUOUS
 62
     2
 10
178.569
 20
78.755024941
 30
0.0
 11
178.569
 21
74.248024941
 31
0.0
  0
LINE
  8
0
  6
CONTINUOUS
 62
     2
 10
219.069
 20
78.755024941
 30
0.0
 11
219.069
 21
74.255024941
 31
0.0
  0
TEXT
  8
2
  6
CONTINUOUS
 62
     2
 10
149.919
 20
75.155024941
 30
0.8
 40
2.7
  1
二次巻線線種
 50
0.0
 41
0.9
 51
0.0
  7
KANJI19
  0
TEXT
  8
2
  6
CONTINUOUS
 62
     2
 10
183.069
 20
75.155024941
 30
0.45
 40
2.7
  1
ＰＥＷ　１種
 50
0.0
 41
0.833333333
 51
0.0
  7
KANJI16
  0
LINE
  8
2
  6
CONTINUOUS
 62
     2
 10
146.4815
 20
64.355024941
 30
0.0
 11
153.6815
 21
64.355024941
 31
0.0
  0
TEXT
  8
2
  6
CONTINUOUS
 62
     2
 10
147.3815
 20
65.255024941
 30
0.27
 40
2.7
  1
注１）
 50
0.0
 41
0.9
 51
0.0
  7
KANJI6
  0
TEXT
  8
2
  6
CONTINUOUS
 62
     2
 10
155.4815
 20
65.255024941
 30
0.27
 40
2.7
  1
過電流強度は，一次導体の定格電流密度が
 50
0.0
 41
0.9
 51
0.0
  7
KANJI6
  0
TEXT
  8
2
  6
CONTINUOUS
 62
     2
 10
169.5665
 20
60.655024941
 30
0.27
 40
2.7
  1
以下の場合。
 50
0.0
 41
0.9
 51
0.0
  7
KANJI6
  0
LINE
  8
2
  6
CONTINUOUS
 62
     2
 10
154.5815
 20
64.355024941
 30
0.0
 11
207.0565
 21
64.355024941
 31
0.0
  0
LINE
  8
2
  6
CONTINUOUS
 62
     2
 10
154.5815
 20
59.855024941
 30
0.0
 11
207.0565
 21
59.855024941
 31
0.0
  0
TEXT
  8
2
  6
CONTINUOUS
 62
     2
 10
166.054
 20
62.155024941
 30
0.27
 40
1.8
  1
２
 50
0.0
 41
0.45
 51
0.0
  7
KANJI20
  0
TEXT
  8
2
  6
CONTINUOUS
 62
     2
 10
155.4815
 20
60.255024941
 30
0.27
 40
2.7
  1
３．３Ａ／ｍｍ　
 50
0.0
 41
0.45
 51
0.0
  7
KANJI17
  0
TEXT
  8
2
  6
CONTINUOUS
 62
     2
 10
185.0632
 20
176.46235
 30
0.1694
 40
2.541
  1
質　量（ｋｇ）
 50
0.0
 41
0.833333333
 51
0.0
  7
KANJI21
  0
TEXT
  8
2
  6
CONTINUOUS
 62
     2
 10
183.069
 20
93.155024941
 30
0.45
 40
2.7
  1
５０／６０Ｈｚ
 50
0.0
 41
0.833333333
 51
0.0
  7
KANJI16
  0
TEXT
  8
2
  6
CONTINUOUS
 62
     2
 10
146.529
 20
25.448
 30
0.27
 40
2.7
  1
ｔ
 50
90.0
 41
0.6
 51
0.0
  7
KANJI22
  0
LINE
  8
0
  6
CONTINUOUS
 62
     5
 10
48.498
 20
58.079
 30
0.0
 11
50.671333109
 21
57.496657149
 31
0.0
  0
LINE
  8
0
  6
CONTINUOUS
 62
     5
 10
48.498
 20
58.079
 30
0.0
 11
50.671333109
 21
58.661342851
 31
0.0
  0
LINE
  8
0
  6
CONTINUOUS
 62
     5
 10
48.498
 20
58.079
 30
0.0
 11
67.308
 21
58.079
 31
0.0
  0
LINE
  8
0
  6
CONTINUOUS
 62
     5
 10
67.308
 20
58.079
 30
0.0
 11
65.134666891
 21
58.661342851
 31
0.0
  0
LINE
  8
0
  6
CONTINUOUS
 62
     5
 10
67.308
 20
58.079
 30
0.0
 11
65.134666891
 21
57.496657149
 31
0.0
  0
TEXT
  8
0
  6
CONTINUOUS
 62
     2
 10
57.093
 20
58.979
 30
0.27
 40
2.7
  1
Ｅ
 50
0.0
 41
0.6
 51
0.0
  7
KANJI22
  0
TEXT
  8
0
  6
CONTINUOUS
 62
     2
 10
43.098
 20
40.359
 30
0.27
 40
2.7
  1
Ⅰ
 50
90.0
 41
0.6
 51
0.0
  7
KANJI22
  0
LINE
  8
2
  6
CONTINUOUS
 62
     2
 10
205.922
 20
179.85035
 30
0.0
 11
205.922
 21
133.26535
 31
0.0
  0
TEXT
  8
0
  6
CONTINUOUS
 62
     1
 10
235.0
 20
22.9
 30
0.4
 40
4.0
  1
変流器　外形図
 50
0.0
 41
0.9
 51
0.0
  7
KANJI23
  0
TEXT
  8
0
  6
CONTINUOUS
 62
     2
 10
235.0
 20
27.9
 30
0.3
 40
3.0
  1
角窓貫通形　横形
 50
0.0
 41
0.9
 51
0.0
  7
KANJI11
  0
TEXT
  8
0
  6
CONTINUOUS
 62
     2
 10
236.6225
 20
44.185
 30
0.315
 40
3.15
  1
ＣＢＭ－５　　１５０～６００Ａ
 50
0.0
 41
0.9
 51
0.0
  7
KANJI24
  0
TEXT
  8
0
  6
CONTINUOUS
 62
     2
 10
236.6225
 20
39.985
 30
0.315
 40
3.15
  1
ＣＢＭ－１５　２００～２０００Ａ
 50
0.0
 41
0.9
 51
0.0
  7
KANJI24
  0
TEXT
  8
0
  6
CONTINUOUS
 62
     2
 10
236.6225
 20
35.785
 30
0.315
 40
3.15
  1
ＣＢＭ－４０　２００～２０００Ａ
 50
0.0
 41
0.9
 51
0.0
  7
KANJI24
  0
ENDSEC
  0
EOF
