  0
SECTION
  2
HEADER
  9
$ACADVER
  1
AC1009
  9
$DWGCODEPAGE
  3
dos932
  9
$EXTMIN
 10
0.0
 20
0.0
 30
0.0
  9
$EXTMAX
 10
297.0
 20
210.0
 30
0.0
  9
$LIMMIN
 10
0.0
 20
0.0
  9
$LIMMAX
 10
297.0
 20
210.0
  9
$LTSCALE
 40
1.0
  9
$PDMODE
 70
     0
  0
ENDSEC
  0
SECTION
  2
TABLES
  0
TABLE
  2
VPORT
 70
     1
  0
VPORT
  2
*ACTIVE
 70
     0
 10
0.0
 20
0.0
 11
1.0
 21
1.0
 12
148.5
 22
105.0
 13
0.0
 23
0.0
 14
10.0
 24
10.0
 15
10.0
 25
10.0
 16
0.0
 26
0.0
 36
1.0
 17
0.0
 27
0.0
 37
0.0
 40
297.0
 41
1.414285714
 42
50.0
 43
0.0
 44
0.0
 50
0.0
 51
0.0
 71
     0
 72
  1000
 73
     1
 74
     3
 75
     0
 76
     0
 77
     0
 78
     0
  0
ENDTAB
  0
TABLE
  2
LTYPE
 70
     3
  0
LTYPE
  2
CONTINUOUS
 70
    64
  3
Solid line
 72
    65
 73
     0
 40
0.0
  0
LTYPE
  2
LTYPE1
 70
    64
  3
CENTER
 72
    65
 73
     4
 40
0.5
 49
0.35
 49
-0.05
 49
0.05
 49
-0.05
  0
LTYPE
  2
LTYPE2
 70
    64
  3
CENTER
 72
    65
 73
     4
 40
8.0
 49
5.6
 49
-0.8
 49
0.8
 49
-0.8
  0
ENDTAB
  0
TABLE
  2
LAYER
 70
   128
  0
LAYER
  2
0
 70
     0
 62
     7
  6
CONTINUOUS
  0
LAYER
  2
2
 70
     0
 62
     7
  6
CONTINUOUS
  0
LAYER
  2
3
 70
     0
 62
     7
  6
CONTINUOUS
  0
LAYER
  2
4
 70
     0
 62
     7
  6
CONTINUOUS
  0
LAYER
  2
5
 70
     0
 62
     7
  6
CONTINUOUS
  0
LAYER
  2
6
 70
     0
 62
     7
  6
CONTINUOUS
  0
LAYER
  2
7
 70
     0
 62
     7
  6
CONTINUOUS
  0
LAYER
  2
8
 70
     0
 62
     7
  6
CONTINUOUS
  0
LAYER
  2
9
 70
     0
 62
     7
  6
CONTINUOUS
  0
LAYER
  2
10
 70
     0
 62
     7
  6
CONTINUOUS
  0
LAYER
  2
11
 70
     0
 62
     7
  6
CONTINUOUS
  0
LAYER
  2
12
 70
     0
 62
     7
  6
CONTINUOUS
  0
LAYER
  2
13
 70
     0
 62
     7
  6
CONTINUOUS
  0
LAYER
  2
14
 70
     0
 62
     7
  6
CONTINUOUS
  0
LAYER
  2
15
 70
     0
 62
     7
  6
CONTINUOUS
  0
LAYER
  2
16
 70
     0
 62
     7
  6
CONTINUOUS
  0
LAYER
  2
17
 70
     0
 62
     7
  6
CONTINUOUS
  0
LAYER
  2
18
 70
     0
 62
     7
  6
CONTINUOUS
  0
LAYER
  2
19
 70
     0
 62
     7
  6
CONTINUOUS
  0
LAYER
  2
20
 70
     0
 62
     7
  6
CONTINUOUS
  0
LAYER
  2
21
 70
     0
 62
     7
  6
CONTINUOUS
  0
LAYER
  2
22
 70
     0
 62
     7
  6
CONTINUOUS
  0
LAYER
  2
23
 70
     0
 62
     7
  6
CONTINUOUS
  0
LAYER
  2
24
 70
     0
 62
     7
  6
CONTINUOUS
  0
LAYER
  2
25
 70
     0
 62
     7
  6
CONTINUOUS
  0
LAYER
  2
26
 70
     0
 62
     7
  6
CONTINUOUS
  0
LAYER
  2
27
 70
     0
 62
     7
  6
CONTINUOUS
  0
LAYER
  2
28
 70
     0
 62
     7
  6
CONTINUOUS
  0
LAYER
  2
29
 70
     0
 62
     7
  6
CONTINUOUS
  0
LAYER
  2
30
 70
     0
 62
     7
  6
CONTINUOUS
  0
LAYER
  2
31
 70
     0
 62
     7
  6
CONTINUOUS
  0
LAYER
  2
32
 70
     0
 62
     7
  6
CONTINUOUS
  0
LAYER
  2
33
 70
     0
 62
     7
  6
CONTINUOUS
  0
LAYER
  2
34
 70
     0
 62
     7
  6
CONTINUOUS
  0
LAYER
  2
35
 70
     0
 62
     7
  6
CONTINUOUS
  0
LAYER
  2
36
 70
     0
 62
     7
  6
CONTINUOUS
  0
LAYER
  2
37
 70
     0
 62
     7
  6
CONTINUOUS
  0
LAYER
  2
38
 70
     0
 62
     7
  6
CONTINUOUS
  0
LAYER
  2
39
 70
     0
 62
     7
  6
CONTINUOUS
  0
LAYER
  2
40
 70
     0
 62
     7
  6
CONTINUOUS
  0
LAYER
  2
41
 70
     0
 62
     7
  6
CONTINUOUS
  0
LAYER
  2
42
 70
     0
 62
     7
  6
CONTINUOUS
  0
LAYER
  2
43
 70
     0
 62
     7
  6
CONTINUOUS
  0
LAYER
  2
44
 70
     0
 62
     7
  6
CONTINUOUS
  0
LAYER
  2
45
 70
     0
 62
     7
  6
CONTINUOUS
  0
LAYER
  2
46
 70
     0
 62
     7
  6
CONTINUOUS
  0
LAYER
  2
47
 70
     0
 62
     7
  6
CONTINUOUS
  0
LAYER
  2
48
 70
     0
 62
     7
  6
CONTINUOUS
  0
LAYER
  2
49
 70
     0
 62
     7
  6
CONTINUOUS
  0
LAYER
  2
50
 70
     0
 62
     7
  6
CONTINUOUS
  0
LAYER
  2
51
 70
     0
 62
     7
  6
CONTINUOUS
  0
LAYER
  2
52
 70
     0
 62
     7
  6
CONTINUOUS
  0
LAYER
  2
53
 70
     0
 62
     7
  6
CONTINUOUS
  0
LAYER
  2
54
 70
     0
 62
     7
  6
CONTINUOUS
  0
LAYER
  2
55
 70
     0
 62
     7
  6
CONTINUOUS
  0
LAYER
  2
56
 70
     0
 62
     7
  6
CONTINUOUS
  0
LAYER
  2
57
 70
     0
 62
     7
  6
CONTINUOUS
  0
LAYER
  2
58
 70
     0
 62
     7
  6
CONTINUOUS
  0
LAYER
  2
59
 70
     0
 62
     7
  6
CONTINUOUS
  0
LAYER
  2
60
 70
     0
 62
     7
  6
CONTINUOUS
  0
LAYER
  2
61
 70
     0
 62
     7
  6
CONTINUOUS
  0
LAYER
  2
62
 70
     0
 62
     7
  6
CONTINUOUS
  0
LAYER
  2
63
 70
     0
 62
     7
  6
CONTINUOUS
  0
LAYER
  2
64
 70
     0
 62
     7
  6
CONTINUOUS
  0
LAYER
  2
65
 70
     0
 62
     7
  6
CONTINUOUS
  0
LAYER
  2
66
 70
     0
 62
     7
  6
CONTINUOUS
  0
LAYER
  2
67
 70
     0
 62
     7
  6
CONTINUOUS
  0
LAYER
  2
68
 70
     0
 62
     7
  6
CONTINUOUS
  0
LAYER
  2
69
 70
     0
 62
     7
  6
CONTINUOUS
  0
LAYER
  2
70
 70
     0
 62
     7
  6
CONTINUOUS
  0
LAYER
  2
71
 70
     0
 62
     7
  6
CONTINUOUS
  0
LAYER
  2
72
 70
     0
 62
     7
  6
CONTINUOUS
  0
LAYER
  2
73
 70
     0
 62
     7
  6
CONTINUOUS
  0
LAYER
  2
74
 70
     0
 62
     7
  6
CONTINUOUS
  0
LAYER
  2
75
 70
     0
 62
     7
  6
CONTINUOUS
  0
LAYER
  2
76
 70
     0
 62
     7
  6
CONTINUOUS
  0
LAYER
  2
77
 70
     0
 62
     7
  6
CONTINUOUS
  0
LAYER
  2
78
 70
     0
 62
     7
  6
CONTINUOUS
  0
LAYER
  2
79
 70
     0
 62
     7
  6
CONTINUOUS
  0
LAYER
  2
80
 70
     0
 62
     7
  6
CONTINUOUS
  0
LAYER
  2
81
 70
     0
 62
     7
  6
CONTINUOUS
  0
LAYER
  2
82
 70
     0
 62
     7
  6
CONTINUOUS
  0
LAYER
  2
83
 70
     0
 62
     7
  6
CONTINUOUS
  0
LAYER
  2
84
 70
     0
 62
     7
  6
CONTINUOUS
  0
LAYER
  2
85
 70
     0
 62
     7
  6
CONTINUOUS
  0
LAYER
  2
86
 70
     0
 62
     7
  6
CONTINUOUS
  0
LAYER
  2
87
 70
     0
 62
     7
  6
CONTINUOUS
  0
LAYER
  2
88
 70
     0
 62
     7
  6
CONTINUOUS
  0
LAYER
  2
89
 70
     0
 62
     7
  6
CONTINUOUS
  0
LAYER
  2
90
 70
     0
 62
     7
  6
CONTINUOUS
  0
LAYER
  2
91
 70
     0
 62
     7
  6
CONTINUOUS
  0
LAYER
  2
92
 70
     0
 62
     7
  6
CONTINUOUS
  0
LAYER
  2
93
 70
     0
 62
     7
  6
CONTINUOUS
  0
LAYER
  2
94
 70
     0
 62
     7
  6
CONTINUOUS
  0
LAYER
  2
95
 70
     0
 62
     7
  6
CONTINUOUS
  0
LAYER
  2
96
 70
     0
 62
     7
  6
CONTINUOUS
  0
LAYER
  2
97
 70
     0
 62
     7
  6
CONTINUOUS
  0
LAYER
  2
98
 70
     0
 62
     7
  6
CONTINUOUS
  0
LAYER
  2
99
 70
     0
 62
     7
  6
CONTINUOUS
  0
LAYER
  2
100
 70
     0
 62
     7
  6
CONTINUOUS
  0
LAYER
  2
101
 70
     0
 62
     7
  6
CONTINUOUS
  0
LAYER
  2
102
 70
     0
 62
     7
  6
CONTINUOUS
  0
LAYER
  2
103
 70
     0
 62
     7
  6
CONTINUOUS
  0
LAYER
  2
104
 70
     0
 62
     7
  6
CONTINUOUS
  0
LAYER
  2
105
 70
     0
 62
     7
  6
CONTINUOUS
  0
LAYER
  2
106
 70
     0
 62
     7
  6
CONTINUOUS
  0
LAYER
  2
107
 70
     0
 62
     7
  6
CONTINUOUS
  0
LAYER
  2
108
 70
     0
 62
     7
  6
CONTINUOUS
  0
LAYER
  2
109
 70
     0
 62
     7
  6
CONTINUOUS
  0
LAYER
  2
110
 70
     0
 62
     7
  6
CONTINUOUS
  0
LAYER
  2
111
 70
     0
 62
     7
  6
CONTINUOUS
  0
LAYER
  2
112
 70
     0
 62
     7
  6
CONTINUOUS
  0
LAYER
  2
113
 70
     0
 62
     7
  6
CONTINUOUS
  0
LAYER
  2
114
 70
     0
 62
     7
  6
CONTINUOUS
  0
LAYER
  2
115
 70
     0
 62
     7
  6
CONTINUOUS
  0
LAYER
  2
116
 70
     0
 62
     7
  6
CONTINUOUS
  0
LAYER
  2
117
 70
     0
 62
     7
  6
CONTINUOUS
  0
LAYER
  2
118
 70
     0
 62
     7
  6
CONTINUOUS
  0
LAYER
  2
119
 70
     0
 62
     7
  6
CONTINUOUS
  0
LAYER
  2
120
 70
     0
 62
     7
  6
CONTINUOUS
  0
LAYER
  2
121
 70
     0
 62
     7
  6
CONTINUOUS
  0
LAYER
  2
122
 70
     0
 62
     7
  6
CONTINUOUS
  0
LAYER
  2
123
 70
     0
 62
     7
  6
CONTINUOUS
  0
LAYER
  2
124
 70
     0
 62
     7
  6
CONTINUOUS
  0
LAYER
  2
125
 70
     0
 62
     7
  6
CONTINUOUS
  0
LAYER
  2
126
 70
     0
 62
     7
  6
CONTINUOUS
  0
LAYER
  2
127
 70
     0
 62
     7
  6
CONTINUOUS
  0
LAYER
  2
128
 70
     0
 62
     7
  6
CONTINUOUS
  0
ENDTAB
  0
TABLE
  2
STYLE
 70
    19
  0
STYLE
  2
STANDARD
 70
     0
 40
0.0
 41
1.0
 50
0.0
 71
     0
 42
0.2
  3
txt.shx
  4
extfont.shx
  0
STYLE
  2
KANJI0
 70
     0
 40
2.541
 41
0.733333333
 50
0.0
 71
     0
 42
2.541
  3
txt.shx
  4
extfont.shx
  0
STYLE
  2
KANJI1
 70
     0
 40
2.541
 41
0.9
 50
0.0
 71
     0
 42
2.541
  3
txt.shx
  4
extfont.shx
  0
STYLE
  2
KANJI2
 70
     0
 40
2.541
 41
0.833333333
 50
0.0
 71
     0
 42
2.541
  3
txt.shx
  4
extfont.shx
  0
STYLE
  2
KANJI3
 70
     0
 40
2.541
 41
0.833333333
 50
0.0
 71
     0
 42
2.541
  3
txt.shx
  4
extfont.shx
  0
STYLE
  2
KANJI4
 70
     0
 40
2.541
 41
0.666666667
 50
0.0
 71
     0
 42
2.541
  3
txt.shx
  4
extfont.shx
  0
STYLE
  2
KANJI5
 70
     0
 40
2.541
 41
0.833333333
 50
0.0
 71
     0
 42
2.541
  3
txt.shx
  4
extfont.shx
  0
STYLE
  2
KANJI6
 70
     0
 40
3.6
 41
1.0
 50
0.0
 71
     0
 42
3.6
  3
txt.shx
  4
extfont.shx
  0
STYLE
  2
KANJI7
 70
     0
 40
2.7
 41
0.6
 50
0.0
 71
     0
 42
2.7
  3
txt.shx
  4
extfont.shx
  0
STYLE
  2
KANJI8
 70
     0
 40
1.62
 41
0.6
 50
0.0
 71
     0
 42
1.62
  3
txt.shx
  4
extfont.shx
  0
STYLE
  2
KANJI9
 70
     0
 40
2.7
 41
0.9
 50
0.0
 71
     0
 42
2.7
  3
txt.shx
  4
extfont.shx
  0
STYLE
  2
KANJI10
 70
     0
 40
3.0
 41
0.9
 50
0.0
 71
     0
 42
3.0
  3
txt.shx
  4
extfont.shx
  0
STYLE
  2
KANJI11
 70
     0
 40
2.7
 41
0.833333333
 50
0.0
 71
     0
 42
2.7
  3
txt.shx
  4
extfont.shx
  0
STYLE
  2
KANJI12
 70
     0
 40
2.7
 41
0.45
 50
0.0
 71
     0
 42
2.7
  3
txt.shx
  4
extfont.shx
  0
STYLE
  2
KANJI13
 70
     0
 40
2.7
 41
0.833333333
 50
0.0
 71
     0
 42
2.7
  3
txt.shx
  4
extfont.shx
  0
STYLE
  2
KANJI14
 70
     0
 40
1.8
 41
0.45
 50
0.0
 71
     0
 42
1.8
  3
txt.shx
  4
extfont.shx
  0
STYLE
  2
KANJI15
 70
     0
 40
6.0
 41
0.9
 50
0.0
 71
     0
 42
6.0
  3
txt.shx
  4
extfont.shx
  0
STYLE
  2
KANJI16
 70
     0
 40
4.0
 41
0.9
 50
0.0
 71
     0
 42
4.0
  3
txt.shx
  4
extfont.shx
  0
STYLE
  2
KANJI17
 70
     0
 40
3.15
 41
0.9
 50
0.0
 71
     0
 42
3.15
  3
txt.shx
  4
extfont.shx
  0
ENDTAB
  0
TABLE
  2
VIEW
 70
     0
  0
ENDTAB
  0
ENDSEC
  0
SECTION
  2
BLOCKS
  0
ENDSEC
  0
SECTION
  2
ENTITIES
  0
LINE
  8
2
  6
CONTINUOUS
 62
     2
 10
57.647
 20
171.38035
 30
0.0
 11
15.297
 21
171.38035
 31
0.0
  0
LINE
  8
2
  6
CONTINUOUS
 62
     2
 10
15.297
 20
179.85035
 30
0.0
 11
15.297
 21
133.26535
 31
0.0
  0
LINE
  8
2
  6
CONTINUOUS
 62
     2
 10
36.472
 20
179.85035
 30
0.0
 11
36.472
 21
133.26535
 31
0.0
  0
LINE
  8
2
  6
CONTINUOUS
 62
     2
 10
57.647
 20
179.85035
 30
0.0
 11
57.647
 21
133.26535
 31
0.0
  0
TEXT
  8
2
  6
CONTINUOUS
 62
     2
 10
16.144
 20
172.22735
 30
0.0847
 40
2.541
  1
ＣＢＭ－５－４０
 50
0.0
 41
0.733333333
 51
0.0
  7
KANJI0
  0
TEXT
  8
2
  6
CONTINUOUS
 62
     2
 10
16.144
 20
167.99235
 30
0.0847
 40
2.541
  1
ＣＢＭ－５－５０
 50
0.0
 41
0.733333333
 51
0.0
  7
KANJI0
  0
TEXT
  8
2
  6
CONTINUOUS
 62
     2
 10
16.144
 20
163.75735
 30
0.0847
 40
2.541
  1
ＣＢＭ－１５－４０
 50
0.0
 41
0.733333333
 51
0.0
  7
KANJI0
  0
TEXT
  8
2
  6
CONTINUOUS
 62
     2
 10
16.144
 20
159.52235
 30
0.0847
 40
2.541
  1
ＣＢＭ－１５－５０
 50
0.0
 41
0.733333333
 51
0.0
  7
KANJI0
  0
TEXT
  8
2
  6
CONTINUOUS
 62
     2
 10
16.144
 20
155.28735
 30
0.0847
 40
2.541
  1
ＣＢＭ－１５－７５
 50
0.0
 41
0.733333333
 51
0.0
  7
KANJI0
  0
TEXT
  8
2
  6
CONTINUOUS
 62
     2
 10
16.144
 20
151.05235
 30
0.0847
 40
2.541
  1
ＣＢＭ－１５－１００
 50
0.0
 41
0.733333333
 51
0.0
  7
KANJI0
  0
TEXT
  8
2
  6
CONTINUOUS
 62
     2
 10
16.144
 20
146.81735
 30
0.0847
 40
2.541
  1
ＣＢＭ－４０－４０
 50
0.0
 41
0.733333333
 51
0.0
  7
KANJI0
  0
TEXT
  8
2
  6
CONTINUOUS
 62
     2
 10
16.144
 20
142.58235
 30
0.0847
 40
2.541
  1
ＣＢＭ－４０－５０
 50
0.0
 41
0.733333333
 51
0.0
  7
KANJI0
  0
TEXT
  8
2
  6
CONTINUOUS
 62
     2
 10
16.144
 20
138.34735
 30
0.0847
 40
2.541
  1
ＣＢＭ－４０－７５
 50
0.0
 41
0.733333333
 51
0.0
  7
KANJI0
  0
TEXT
  8
2
  6
CONTINUOUS
 62
     2
 10
16.144
 20
134.11235
 30
0.0847
 40
2.541
  1
ＣＢＭ－４０－１００
 50
0.0
 41
0.733333333
 51
0.0
  7
KANJI0
  0
TEXT
  8
2
  6
CONTINUOUS
 62
     2
 10
37.319
 20
172.22735
 30
0.0847
 40
2.541
  1
１５０～３００Ａ
 50
0.0
 41
0.733333333
 51
0.0
  7
KANJI0
  0
TEXT
  8
2
  6
CONTINUOUS
 62
     2
 10
37.319
 20
167.99235
 30
0.0847
 40
2.541
  1
４００～６００Ａ
 50
0.0
 41
0.733333333
 51
0.0
  7
KANJI0
  0
TEXT
  8
2
  6
CONTINUOUS
 62
     2
 10
37.319
 20
163.75735
 30
0.0847
 40
2.541
  1
２００～３００Ａ
 50
0.0
 41
0.733333333
 51
0.0
  7
KANJI0
  0
TEXT
  8
2
  6
CONTINUOUS
 62
     2
 10
37.319
 20
159.52235
 30
0.0847
 40
2.541
  1
４００～６００Ａ
 50
0.0
 41
0.733333333
 51
0.0
  7
KANJI0
  0
TEXT
  8
2
  6
CONTINUOUS
 62
     2
 10
37.319
 20
155.28735
 30
0.0847
 40
2.541
  1
６００～１０００Ａ
 50
0.0
 41
0.733333333
 51
0.0
  7
KANJI0
  0
TEXT
  8
2
  6
CONTINUOUS
 62
     2
 10
37.319
 20
151.05235
 30
0.0847
 40
2.541
  1
１０００～２０００Ａ
 50
0.0
 41
0.733333333
 51
0.0
  7
KANJI0
  0
TEXT
  8
2
  6
CONTINUOUS
 62
     2
 10
37.319
 20
146.81735
 30
0.0847
 40
2.541
  1
２００～３００Ａ
 50
0.0
 41
0.733333333
 51
0.0
  7
KANJI0
  0
TEXT
  8
2
  6
CONTINUOUS
 62
     2
 10
37.319
 20
142.58235
 30
0.0847
 40
2.541
  1
４００～６００Ａ
 50
0.0
 41
0.733333333
 51
0.0
  7
KANJI0
  0
TEXT
  8
2
  6
CONTINUOUS
 62
     2
 10
37.319
 20
138.34735
 30
0.0847
 40
2.541
  1
６００～１０００Ａ
 50
0.0
 41
0.733333333
 51
0.0
  7
KANJI0
  0
TEXT
  8
2
  6
CONTINUOUS
 62
     2
 10
37.319
 20
134.11235
 30
0.0847
 40
2.541
  1
１０００～２０００Ａ
 50
0.0
 41
0.733333333
 51
0.0
  7
KANJI0
  0
LINE
  8
2
  6
CONTINUOUS
 62
     2
 10
15.297
 20
162.91035
 30
0.0
 11
57.647
 21
162.91035
 31
0.0
  0
LINE
  8
2
  6
CONTINUOUS
 62
     2
 10
15.297
 20
158.67535
 30
0.0
 11
57.647
 21
158.67535
 31
0.0
  0
LINE
  8
2
  6
CONTINUOUS
 62
     2
 10
15.297
 20
154.44035
 30
0.0
 11
57.647
 21
154.44035
 31
0.0
  0
LINE
  8
2
  6
CONTINUOUS
 62
     2
 10
15.297
 20
145.97035
 30
0.0
 11
57.647
 21
145.97035
 31
0.0
  0
LINE
  8
2
  6
CONTINUOUS
 62
     2
 10
15.297
 20
141.73535
 30
0.0
 11
57.647
 21
141.73535
 31
0.0
  0
LINE
  8
2
  6
CONTINUOUS
 62
     2
 10
15.297
 20
137.50035
 30
0.0
 11
57.647
 21
137.50035
 31
0.0
  0
TEXT
  8
2
  6
CONTINUOUS
 62
     2
 10
20.379
 20
176.46235
 30
0.2541
 40
2.541
  1
形　　式
 50
0.0
 41
0.9
 51
0.0
  7
KANJI1
  0
TEXT
  8
2
  6
CONTINUOUS
 62
     2
 10
39.013
 20
176.46235
 30
0.2541
 40
2.541
  1
一　次　電　流
 50
0.0
 41
0.9
 51
0.0
  7
KANJI1
  0
TEXT
  8
2
  6
CONTINUOUS
 62
     2
 10
60.4749
 20
170.10985
 30
0.0847
 40
2.541
  1
５ＶＡ
 50
0.0
 41
0.733333333
 51
0.0
  7
KANJI0
  0
TEXT
  8
2
  6
CONTINUOUS
 62
     2
 10
60.4749
 20
157.40485
 30
0.0847
 40
2.541
  1
１５ＶＡ
 50
0.0
 41
0.733333333
 51
0.0
  7
KANJI0
  0
TEXT
  8
2
  6
CONTINUOUS
 62
     2
 10
60.4749
 20
140.46485
 30
0.0847
 40
2.541
  1
４０ＶＡ
 50
0.0
 41
0.733333333
 51
0.0
  7
KANJI0
  0
TEXT
  8
2
  6
CONTINUOUS
 62
     2
 10
59.1361
 20
176.46235
 30
0.2541
 40
2.541
  1
定格負担
 50
0.0
 41
0.9
 51
0.0
  7
KANJI1
  0
LINE
  8
2
  6
CONTINUOUS
 62
     2
 10
70.587
 20
179.85035
 30
0.0
 11
70.587
 21
133.26535
 31
0.0
  0
LINE
  8
2
  6
CONTINUOUS
 62
     2
 10
15.297
 20
167.14535
 30
0.0
 11
70.587
 21
167.14535
 31
0.0
  0
TEXT
  8
2
  6
CONTINUOUS
 62
     2
 10
73.822
 20
176.46235
 30
1.694
 40
2.541
  1
Ａ
 50
0.0
 41
0.833333333
 51
0.0
  7
KANJI2
  0
TEXT
  8
2
  6
CONTINUOUS
 62
     2
 10
83.986
 20
176.46235
 30
1.694
 40
2.541
  1
Ｂ
 50
0.0
 41
0.833333333
 51
0.0
  7
KANJI2
  0
TEXT
  8
2
  6
CONTINUOUS
 62
     2
 10
94.15
 20
176.46235
 30
1.694
 40
2.541
  1
Ｃ
 50
0.0
 41
0.833333333
 51
0.0
  7
KANJI2
  0
TEXT
  8
2
  6
CONTINUOUS
 62
     2
 10
104.314
 20
176.46235
 30
1.694
 40
2.541
  1
Ｄ
 50
0.0
 41
0.833333333
 51
0.0
  7
KANJI2
  0
TEXT
  8
2
  6
CONTINUOUS
 62
     2
 10
114.478
 20
176.46235
 30
1.694
 40
2.541
  1
Ｅ
 50
0.0
 41
0.833333333
 51
0.0
  7
KANJI2
  0
TEXT
  8
2
  6
CONTINUOUS
 62
     2
 10
134.806
 20
176.46235
 30
1.694
 40
2.541
  1
Ｈ
 50
0.0
 41
0.833333333
 51
0.0
  7
KANJI2
  0
TEXT
  8
2
  6
CONTINUOUS
 62
     2
 10
124.642
 20
176.46235
 30
1.694
 40
2.541
  1
Ｇ
 50
0.0
 41
0.833333333
 51
0.0
  7
KANJI2
  0
LINE
  8
2
  6
CONTINUOUS
 62
     2
 10
79.751
 20
179.85035
 30
0.0
 11
79.751
 21
133.26535
 31
0.0
  0
LINE
  8
2
  6
CONTINUOUS
 62
     2
 10
89.915
 20
133.26535
 30
0.0
 11
89.915
 21
179.85035
 31
0.0
  0
LINE
  8
2
  6
CONTINUOUS
 62
     2
 10
100.079
 20
179.85035
 30
0.0
 11
100.079
 21
133.26535
 31
0.0
  0
LINE
  8
2
  6
CONTINUOUS
 62
     2
 10
110.243
 20
133.26535
 30
0.0
 11
110.243
 21
179.85035
 31
0.0
  0
LINE
  8
2
  6
CONTINUOUS
 62
     2
 10
120.407
 20
179.85035
 30
0.0
 11
120.407
 21
133.26535
 31
0.0
  0
LINE
  8
2
  6
CONTINUOUS
 62
     2
 10
130.571
 20
133.26535
 30
0.0
 11
130.571
 21
179.85035
 31
0.0
  0
LINE
  8
2
  6
CONTINUOUS
 62
     2
 10
140.735
 20
179.85035
 30
0.0
 11
140.735
 21
133.26535
 31
0.0
  0
TEXT
  8
2
  6
CONTINUOUS
 62
     2
 10
81.445
 20
159.52235
 30
0.0847
 40
2.541
  1
１０３
 50
0.0
 41
0.733333333
 51
0.0
  7
KANJI0
  0
TEXT
  8
2
  6
CONTINUOUS
 62
     2
 10
81.445
 20
155.28735
 30
0.0847
 40
2.541
  1
１２１
 50
0.0
 41
0.733333333
 51
0.0
  7
KANJI0
  0
TEXT
  8
2
  6
CONTINUOUS
 62
     2
 10
81.445
 20
151.05235
 30
0.0847
 40
2.541
  1
１２６
 50
0.0
 41
0.733333333
 51
0.0
  7
KANJI0
  0
TEXT
  8
2
  6
CONTINUOUS
 62
     2
 10
81.445
 20
144.69985
 30
0.0847
 40
2.541
  1
１１４
 50
0.0
 41
0.733333333
 51
0.0
  7
KANJI0
  0
TEXT
  8
2
  6
CONTINUOUS
 62
     2
 10
81.445
 20
138.34735
 30
0.0847
 40
2.541
  1
１４２
 50
0.0
 41
0.733333333
 51
0.0
  7
KANJI0
  0
TEXT
  8
2
  6
CONTINUOUS
 62
     2
 10
81.445
 20
134.11235
 30
0.0847
 40
2.541
  1
１２６
 50
0.0
 41
0.733333333
 51
0.0
  7
KANJI0
  0
TEXT
  8
2
  6
CONTINUOUS
 62
     2
 10
91.609
 20
155.28735
 30
0.0847
 40
2.541
  1
１０５
 50
0.0
 41
0.733333333
 51
0.0
  7
KANJI0
  0
TEXT
  8
2
  6
CONTINUOUS
 62
     2
 10
91.609
 20
151.05235
 30
0.0847
 40
2.541
  1
１１０
 50
0.0
 41
0.733333333
 51
0.0
  7
KANJI0
  0
TEXT
  8
2
  6
CONTINUOUS
 62
     2
 10
91.609
 20
144.69985
 30
0.0847
 40
2.541
  1
１０４
 50
0.0
 41
0.733333333
 51
0.0
  7
KANJI0
  0
TEXT
  8
2
  6
CONTINUOUS
 62
     2
 10
91.609
 20
138.34735
 30
0.0847
 40
2.541
  1
１２６
 50
0.0
 41
0.733333333
 51
0.0
  7
KANJI0
  0
TEXT
  8
2
  6
CONTINUOUS
 62
     2
 10
91.609
 20
134.11235
 30
0.0847
 40
2.541
  1
１１０
 50
0.0
 41
0.733333333
 51
0.0
  7
KANJI0
  0
TEXT
  8
2
  6
CONTINUOUS
 62
     2
 10
83.3931
 20
170.10985
 30
0.0847
 40
2.541
  1
７８
 50
0.0
 41
0.733333333
 51
0.0
  7
KANJI0
  0
TEXT
  8
2
  6
CONTINUOUS
 62
     2
 10
83.3931
 20
163.75735
 30
0.0847
 40
2.541
  1
９８
 50
0.0
 41
0.733333333
 51
0.0
  7
KANJI0
  0
TEXT
  8
2
  6
CONTINUOUS
 62
     2
 10
93.5571
 20
170.10985
 30
0.0847
 40
2.541
  1
６８
 50
0.0
 41
0.733333333
 51
0.0
  7
KANJI0
  0
TEXT
  8
2
  6
CONTINUOUS
 62
     2
 10
93.5571
 20
163.75735
 30
0.0847
 40
2.541
  1
８８
 50
0.0
 41
0.733333333
 51
0.0
  7
KANJI0
  0
TEXT
  8
2
  6
CONTINUOUS
 62
     2
 10
93.5571
 20
159.52235
 30
0.0847
 40
2.541
  1
９３
 50
0.0
 41
0.733333333
 51
0.0
  7
KANJI0
  0
TEXT
  8
2
  6
CONTINUOUS
 62
     2
 10
103.7211
 20
170.10985
 30
0.0847
 40
2.541
  1
４０
 50
0.0
 41
0.733333333
 51
0.0
  7
KANJI0
  0
TEXT
  8
2
  6
CONTINUOUS
 62
     2
 10
103.7211
 20
163.75735
 30
0.0847
 40
2.541
  1
６０
 50
0.0
 41
0.733333333
 51
0.0
  7
KANJI0
  0
TEXT
  8
2
  6
CONTINUOUS
 62
     2
 10
103.7211
 20
159.52235
 30
0.0847
 40
2.541
  1
６５
 50
0.0
 41
0.733333333
 51
0.0
  7
KANJI0
  0
TEXT
  8
2
  6
CONTINUOUS
 62
     2
 10
103.7211
 20
155.28735
 30
0.0847
 40
2.541
  1
５５
 50
0.0
 41
0.733333333
 51
0.0
  7
KANJI0
  0
TEXT
  8
2
  6
CONTINUOUS
 62
     2
 10
103.7211
 20
151.05235
 30
0.0847
 40
2.541
  1
６０
 50
0.0
 41
0.733333333
 51
0.0
  7
KANJI0
  0
TEXT
  8
2
  6
CONTINUOUS
 62
     2
 10
103.7211
 20
142.58235
 30
0.0847
 40
2.541
  1
７６
 50
0.0
 41
0.733333333
 51
0.0
  7
KANJI0
  0
TEXT
  8
2
  6
CONTINUOUS
 62
     2
 10
103.7211
 20
134.11235
 30
0.0847
 40
2.541
  1
６０
 50
0.0
 41
0.733333333
 51
0.0
  7
KANJI0
  0
TEXT
  8
2
  6
CONTINUOUS
 62
     2
 10
113.631
 20
172.22735
 30
0.0847
 40
2.541
  1
４２
 50
0.0
 41
0.733333333
 51
0.0
  7
KANJI0
  0
TEXT
  8
2
  6
CONTINUOUS
 62
     2
 10
113.631
 20
167.99235
 30
0.0847
 40
2.541
  1
５２
 50
0.0
 41
0.733333333
 51
0.0
  7
KANJI0
  0
TEXT
  8
2
  6
CONTINUOUS
 62
     2
 10
113.631
 20
163.75735
 30
0.0847
 40
2.541
  1
４２
 50
0.0
 41
0.733333333
 51
0.0
  7
KANJI0
  0
TEXT
  8
2
  6
CONTINUOUS
 62
     2
 10
113.631
 20
155.28735
 30
0.0847
 40
2.541
  1
８２
 50
0.0
 41
0.733333333
 51
0.0
  7
KANJI0
  0
TEXT
  8
2
  6
CONTINUOUS
 62
     2
 10
113.631
 20
159.52235
 30
0.0847
 40
2.541
  1
５２
 50
0.0
 41
0.733333333
 51
0.0
  7
KANJI0
  0
TEXT
  8
2
  6
CONTINUOUS
 62
     2
 10
113.631
 20
146.81735
 30
0.0847
 40
2.541
  1
４２
 50
0.0
 41
0.733333333
 51
0.0
  7
KANJI0
  0
TEXT
  8
2
  6
CONTINUOUS
 62
     2
 10
113.631
 20
142.58235
 30
0.0847
 40
2.541
  1
５２
 50
0.0
 41
0.733333333
 51
0.0
  7
KANJI0
  0
TEXT
  8
2
  6
CONTINUOUS
 62
     2
 10
113.631
 20
138.34735
 30
0.0847
 40
2.541
  1
８２
 50
0.0
 41
0.733333333
 51
0.0
  7
KANJI0
  0
TEXT
  8
2
  6
CONTINUOUS
 62
     2
 10
111.6829
 20
134.11235
 30
0.0847
 40
2.541
  1
１０５
 50
0.0
 41
0.733333333
 51
0.0
  7
KANJI0
  0
TEXT
  8
2
  6
CONTINUOUS
 62
     2
 10
111.6829
 20
151.05235
 30
0.0847
 40
2.541
  1
１０５
 50
0.0
 41
0.733333333
 51
0.0
  7
KANJI0
  0
LINE
  8
2
  6
CONTINUOUS
 62
     2
 10
120.407
 20
171.38035
 30
0.0
 11
110.243
 21
171.38035
 31
0.0
  0
LINE
  8
2
  6
CONTINUOUS
 62
     2
 10
79.751
 20
167.14535
 30
0.0
 11
120.407
 21
167.14535
 31
0.0
  0
LINE
  8
2
  6
CONTINUOUS
 62
     2
 10
79.751
 20
162.91035
 30
0.0
 11
120.407
 21
162.91035
 31
0.0
  0
TEXT
  8
2
  6
CONTINUOUS
 62
     2
 10
122.101
 20
151.05235
 30
0.0847
 40
2.541
  1
１１０
 50
0.0
 41
0.733333333
 51
0.0
  7
KANJI0
  0
TEXT
  8
2
  6
CONTINUOUS
 62
     2
 10
122.101
 20
134.11235
 30
0.0847
 40
2.541
  1
１１０
 50
0.0
 41
0.733333333
 51
0.0
  7
KANJI0
  0
TEXT
  8
2
  6
CONTINUOUS
 62
     2
 10
124.0491
 20
165.87485
 30
0.0847
 40
2.541
  1
６０
 50
0.0
 41
0.733333333
 51
0.0
  7
KANJI0
  0
TEXT
  8
2
  6
CONTINUOUS
 62
     2
 10
124.0491
 20
155.28735
 30
0.0847
 40
2.541
  1
８６
 50
0.0
 41
0.733333333
 51
0.0
  7
KANJI0
  0
TEXT
  8
2
  6
CONTINUOUS
 62
     2
 10
124.0491
 20
146.81735
 30
0.0847
 40
2.541
  1
７６
 50
0.0
 41
0.733333333
 51
0.0
  7
KANJI0
  0
TEXT
  8
2
  6
CONTINUOUS
 62
     2
 10
124.0491
 20
142.58235
 30
0.0847
 40
2.541
  1
７４
 50
0.0
 41
0.733333333
 51
0.0
  7
KANJI0
  0
TEXT
  8
2
  6
CONTINUOUS
 62
     2
 10
124.0491
 20
138.34735
 30
0.0847
 40
2.541
  1
８６
 50
0.0
 41
0.733333333
 51
0.0
  7
KANJI0
  0
TEXT
  8
2
  6
CONTINUOUS
 62
     2
 10
132.265
 20
165.87485
 30
0.0847
 40
2.541
  1
１２６
 50
0.0
 41
0.733333333
 51
0.0
  7
KANJI0
  0
TEXT
  8
2
  6
CONTINUOUS
 62
     2
 10
132.265
 20
155.28735
 30
0.0847
 40
2.541
  1
１８４
 50
0.0
 41
0.733333333
 51
0.0
  7
KANJI0
  0
TEXT
  8
2
  6
CONTINUOUS
 62
     2
 10
132.265
 20
151.05235
 30
0.0847
 40
2.541
  1
１９２
 50
0.0
 41
0.733333333
 51
0.0
  7
KANJI0
  0
TEXT
  8
2
  6
CONTINUOUS
 62
     2
 10
132.265
 20
146.81735
 30
0.0847
 40
2.541
  1
１３１
 50
0.0
 41
0.733333333
 51
0.0
  7
KANJI0
  0
TEXT
  8
2
  6
CONTINUOUS
 62
     2
 10
132.265
 20
142.58235
 30
0.0847
 40
2.541
  1
１３０
 50
0.0
 41
0.733333333
 51
0.0
  7
KANJI0
  0
TEXT
  8
2
  6
CONTINUOUS
 62
     2
 10
132.265
 20
138.34735
 30
0.0847
 40
2.541
  1
１８４
 50
0.0
 41
0.733333333
 51
0.0
  7
KANJI0
  0
TEXT
  8
2
  6
CONTINUOUS
 62
     2
 10
132.265
 20
134.11235
 30
0.0847
 40
2.541
  1
１９２
 50
0.0
 41
0.733333333
 51
0.0
  7
KANJI0
  0
LINE
  8
2
  6
CONTINUOUS
 62
     2
 10
110.243
 20
141.73535
 30
0.0
 11
140.735
 21
141.73535
 31
0.0
  0
TEXT
  8
2
  6
CONTINUOUS
 62
     2
 10
71.781
 20
165.87485
 30
0.0847
 40
2.541
  1
１１５
 50
0.0
 41
0.733333333
 51
0.0
  7
KANJI0
  0
TEXT
  8
2
  6
CONTINUOUS
 62
     2
 10
71.781
 20
155.28735
 30
0.0847
 40
2.541
  1
１６７
 50
0.0
 41
0.733333333
 51
0.0
  7
KANJI0
  0
TEXT
  8
2
  6
CONTINUOUS
 62
     2
 10
71.781
 20
151.05235
 30
0.0847
 40
2.541
  1
１８８
 50
0.0
 41
0.733333333
 51
0.0
  7
KANJI0
  0
TEXT
  8
2
  6
CONTINUOUS
 62
     2
 10
71.781
 20
138.34735
 30
0.0847
 40
2.541
  1
１６７
 50
0.0
 41
0.733333333
 51
0.0
  7
KANJI0
  0
TEXT
  8
2
  6
CONTINUOUS
 62
     2
 10
71.781
 20
134.11235
 30
0.0847
 40
2.541
  1
１８８
 50
0.0
 41
0.733333333
 51
0.0
  7
KANJI0
  0
TEXT
  8
2
  6
CONTINUOUS
 62
     2
 10
71.781
 20
144.69985
 30
0.0847
 40
2.541
  1
１２４
 50
0.0
 41
0.733333333
 51
0.0
  7
KANJI0
  0
LINE
  8
2
  6
CONTINUOUS
 62
     2
 10
70.587
 20
141.73535
 30
0.0
 11
100.079
 21
141.73535
 31
0.0
  0
TEXT
  8
2
  6
CONTINUOUS
 62
     2
 10
143.97
 20
176.46235
 30
1.694
 40
2.541
  1
Ⅰ
 50
0.0
 41
0.833333333
 51
0.0
  7
KANJI2
  0
TEXT
  8
2
  6
CONTINUOUS
 62
     2
 10
142.6995
 20
165.87485
 30
0.0847
 40
2.541
  1
１０
 50
0.0
 41
0.733333333
 51
0.0
  7
KANJI0
  0
TEXT
  8
2
  6
CONTINUOUS
 62
     2
 10
142.6995
 20
155.28735
 30
0.0847
 40
2.541
  1
１２
 50
0.0
 41
0.733333333
 51
0.0
  7
KANJI0
  0
TEXT
  8
2
  6
CONTINUOUS
 62
     2
 10
142.6995
 20
151.05235
 30
0.0847
 40
2.541
  1
２３
 50
0.0
 41
0.733333333
 51
0.0
  7
KANJI0
  0
TEXT
  8
2
  6
CONTINUOUS
 62
     2
 10
142.6995
 20
146.81735
 30
0.0847
 40
2.541
  1
１０
 50
0.0
 41
0.733333333
 51
0.0
  7
KANJI0
  0
TEXT
  8
2
  6
CONTINUOUS
 62
     2
 10
142.6995
 20
134.11235
 30
0.0847
 40
2.541
  1
２３
 50
0.0
 41
0.733333333
 51
0.0
  7
KANJI0
  0
TEXT
  8
2
  6
CONTINUOUS
 62
     2
 10
142.6995
 20
140.46485
 30
0.0847
 40
2.541
  1
１２
 50
0.0
 41
0.733333333
 51
0.0
  7
KANJI0
  0
LINE
  8
2
  6
CONTINUOUS
 62
     2
 10
148.899
 20
133.26535
 30
0.0
 11
148.899
 21
179.85035
 31
0.0
  0
LINE
  8
2
  6
CONTINUOUS
 62
     2
 10
159.063
 20
179.85035
 30
0.0
 11
159.063
 21
133.26535
 31
0.0
  0
TEXT
  8
2
  6
CONTINUOUS
 62
     2
 10
151.44
 20
153.16985
 30
0.0847
 40
2.541
  1
１３０
 50
0.0
 41
0.733333333
 51
0.0
  7
KANJI0
  0
TEXT
  8
2
  6
CONTINUOUS
 62
     2
 10
151.44
 20
136.22985
 30
0.0847
 40
2.541
  1
１３０
 50
0.0
 41
0.733333333
 51
0.0
  7
KANJI0
  0
TEXT
  8
2
  6
CONTINUOUS
 62
     2
 10
153.3881
 20
165.87485
 30
0.0847
 40
2.541
  1
８３
 50
0.0
 41
0.733333333
 51
0.0
  7
KANJI0
  0
TEXT
  8
2
  6
CONTINUOUS
 62
     2
 10
153.3881
 20
144.69985
 30
0.0847
 40
2.541
  1
８３
 50
0.0
 41
0.733333333
 51
0.0
  7
KANJI0
  0
TEXT
  8
2
  6
CONTINUOUS
 62
     2
 10
152.80367
 20
176.424235
 30
0.2541
 40
2.541
  1
Ｊ
 50
0.0
 41
0.833333333
 51
0.0
  7
KANJI3
  0
LINE
  8
2
  6
CONTINUOUS
 62
     2
 10
70.587
 20
154.44035
 30
0.0
 11
148.899
 21
154.44035
 31
0.0
  0
LINE
  8
2
  6
CONTINUOUS
 62
     2
 10
110.243
 20
145.97035
 30
0.0
 11
148.899
 21
145.97035
 31
0.0
  0
LINE
  8
2
  6
CONTINUOUS
 62
     2
 10
70.587
 20
137.50035
 30
0.0
 11
148.899
 21
137.50035
 31
0.0
  0
TEXT
  8
2
  6
CONTINUOUS
 62
     2
 10
162.298
 20
176.46235
 30
1.694
 40
2.541
  1
ｈ
 50
0.0
 41
0.833333333
 51
0.0
  7
KANJI2
  0
TEXT
  8
2
  6
CONTINUOUS
 62
     2
 10
161.451
 20
165.87485
 30
0.0847
 40
2.541
  1
６０
 50
0.0
 41
0.733333333
 51
0.0
  7
KANJI0
  0
TEXT
  8
2
  6
CONTINUOUS
 62
     2
 10
161.451
 20
153.16985
 30
0.0847
 40
2.541
  1
９０
 50
0.0
 41
0.733333333
 51
0.0
  7
KANJI0
  0
TEXT
  8
2
  6
CONTINUOUS
 62
     2
 10
161.451
 20
144.69985
 30
0.0847
 40
2.541
  1
６０
 50
0.0
 41
0.733333333
 51
0.0
  7
KANJI0
  0
TEXT
  8
2
  6
CONTINUOUS
 62
     2
 10
161.451
 20
136.22985
 30
0.0847
 40
2.541
  1
９０
 50
0.0
 41
0.733333333
 51
0.0
  7
KANJI0
  0
LINE
  8
2
  6
CONTINUOUS
 62
     2
 10
167.227
 20
179.85035
 30
0.0
 11
167.227
 21
133.26535
 31
0.0
  0
TEXT
  8
2
  6
CONTINUOUS
 62
     2
 10
170.462
 20
176.46235
 30
1.694
 40
2.541
  1
Ｌ
 50
0.0
 41
0.833333333
 51
0.0
  7
KANJI2
  0
TEXT
  8
2
  6
CONTINUOUS
 62
     2
 10
167.921
 20
153.16985
 30
0.0847
 40
2.541
  1
１５０
 50
0.0
 41
0.733333333
 51
0.0
  7
KANJI0
  0
TEXT
  8
2
  6
CONTINUOUS
 62
     2
 10
167.921
 20
136.22985
 30
0.0847
 40
2.541
  1
１５０
 50
0.0
 41
0.733333333
 51
0.0
  7
KANJI0
  0
TEXT
  8
2
  6
CONTINUOUS
 62
     2
 10
169.8691
 20
165.87485
 30
0.0847
 40
2.541
  1
９５
 50
0.0
 41
0.733333333
 51
0.0
  7
KANJI0
  0
TEXT
  8
2
  6
CONTINUOUS
 62
     2
 10
169.8691
 20
144.69985
 30
0.0847
 40
2.541
  1
９５
 50
0.0
 41
0.733333333
 51
0.0
  7
KANJI0
  0
LINE
  8
2
  6
CONTINUOUS
 62
     2
 10
175.391
 20
179.85035
 30
0.0
 11
175.391
 21
133.26535
 31
0.0
  0
TEXT
  8
2
  6
CONTINUOUS
 62
     2
 10
177.085
 20
165.87485
 30
0.0847
 40
2.541
  1
６
 50
0.0
 41
0.733333333
 51
0.0
  7
KANJI0
  0
TEXT
  8
2
  6
CONTINUOUS
 62
     2
 10
177.085
 20
153.16985
 30
0.0847
 40
2.541
  1
７
 50
0.0
 41
0.733333333
 51
0.0
  7
KANJI0
  0
TEXT
  8
2
  6
CONTINUOUS
 62
     2
 10
177.085
 20
144.69985
 30
0.0847
 40
2.541
  1
６
 50
0.0
 41
0.733333333
 51
0.0
  7
KANJI0
  0
TEXT
  8
2
  6
CONTINUOUS
 62
     2
 10
177.085
 20
136.22985
 30
0.0847
 40
2.541
  1
７
 50
0.0
 41
0.733333333
 51
0.0
  7
KANJI0
  0
LINE
  8
2
  6
CONTINUOUS
 62
     2
 10
180.473
 20
179.85035
 30
0.0
 11
180.473
 21
133.26535
 31
0.0
  0
TEXT
  8
2
  6
CONTINUOUS
 62
     2
 10
182.167
 20
165.87485
 30
0.0847
 40
2.541
  1
２
 50
0.0
 41
0.733333333
 51
0.0
  7
KANJI0
  0
TEXT
  8
2
  6
CONTINUOUS
 62
     2
 10
182.167
 20
153.16985
 30
0.0847
 40
2.541
  1
２
 50
0.0
 41
0.733333333
 51
0.0
  7
KANJI0
  0
TEXT
  8
2
  6
CONTINUOUS
 62
     2
 10
182.167
 20
144.69985
 30
0.0847
 40
2.541
  1
２
 50
0.0
 41
0.733333333
 51
0.0
  7
KANJI0
  0
TEXT
  8
2
  6
CONTINUOUS
 62
     2
 10
182.167
 20
136.22985
 30
0.0847
 40
2.541
  1
２
 50
0.0
 41
0.733333333
 51
0.0
  7
KANJI0
  0
TEXT
  8
2
  6
CONTINUOUS
 62
     2
 10
176.6615
 20
176.46235
 30
1.694
 40
2.541
  1
ｄ
 50
0.0
 41
0.833333333
 51
0.0
  7
KANJI2
  0
TEXT
  8
2
  6
CONTINUOUS
 62
     2
 10
182.167
 20
176.46235
 30
1.694
 40
2.541
  1
ｔ
 50
0.0
 41
0.833333333
 51
0.0
  7
KANJI2
  0
LINE
  8
2
  6
CONTINUOUS
 62
     2
 10
185.555
 20
179.85035
 30
0.0
 11
185.555
 21
133.26535
 31
0.0
  0
TEXT
  8
2
  6
CONTINUOUS
 62
     2
 10
187.096
 20
172.22735
 30
0.0847
 40
2.541
  1
２０
 50
0.0
 41
0.733333333
 51
0.0
  7
KANJI0
  0
TEXT
  8
2
  6
CONTINUOUS
 62
     2
 10
187.096
 20
167.99235
 30
0.0847
 40
2.541
  1
１５
 50
0.0
 41
0.733333333
 51
0.0
  7
KANJI0
  0
TEXT
  8
2
  6
CONTINUOUS
 62
     2
 10
187.096
 20
163.75735
 30
0.0847
 40
2.541
  1
２０
 50
0.0
 41
0.733333333
 51
0.0
  7
KANJI0
  0
TEXT
  8
2
  6
CONTINUOUS
 62
     2
 10
187.096
 20
159.52235
 30
0.0847
 40
2.541
  1
１５
 50
0.0
 41
0.733333333
 51
0.0
  7
KANJI0
  0
TEXT
  8
2
  6
CONTINUOUS
 62
     2
 10
187.096
 20
153.16985
 30
0.0847
 40
2.541
  1
２０
 50
0.0
 41
0.733333333
 51
0.0
  7
KANJI0
  0
TEXT
  8
2
  6
CONTINUOUS
 62
     2
 10
187.096
 20
146.81735
 30
0.0847
 40
2.541
  1
２０
 50
0.0
 41
0.733333333
 51
0.0
  7
KANJI0
  0
TEXT
  8
2
  6
CONTINUOUS
 62
     2
 10
187.096
 20
142.58235
 30
0.0847
 40
2.541
  1
１５
 50
0.0
 41
0.733333333
 51
0.0
  7
KANJI0
  0
TEXT
  8
2
  6
CONTINUOUS
 62
     2
 10
187.096
 20
136.22985
 30
0.0847
 40
2.541
  1
２０
 50
0.0
 41
0.733333333
 51
0.0
  7
KANJI0
  0
LINE
  8
2
  6
CONTINUOUS
 62
     2
 10
192.719
 20
133.26535
 30
0.0
 11
192.719
 21
179.85035
 31
0.0
  0
LINE
  8
2
  6
CONTINUOUS
 62
     2
 10
205.424
 20
179.85035
 30
0.0
 11
205.424
 21
133.26535
 31
0.0
  0
TEXT
  8
2
  6
CONTINUOUS
 62
     2
 10
193.10015
 20
170.10985
 30
0.0
 40
2.541
  1
０．６５～０．８
 50
0.0
 41
0.666666667
 51
0.0
  7
KANJI4
  0
TEXT
  8
2
  6
CONTINUOUS
 62
     2
 10
193.10015
 20
161.63985
 30
0.0
 40
2.541
  1
１．２～１．２５
 50
0.0
 41
0.666666667
 51
0.0
  7
KANJI4
  0
TEXT
  8
2
  6
CONTINUOUS
 62
     2
 10
193.10015
 20
155.28735
 30
0.0
 40
2.541
  1
２．２～２．５
 50
0.0
 41
0.666666667
 51
0.0
  7
KANJI4
  0
TEXT
  8
2
  6
CONTINUOUS
 62
     2
 10
193.10015
 20
151.05235
 30
0.0
 40
2.541
  1
３．３～３．６
 50
0.0
 41
0.666666667
 51
0.0
  7
KANJI4
  0
TEXT
  8
2
  6
CONTINUOUS
 62
     2
 10
195.26
 20
146.81735
 30
0.0
 40
2.541
  1
２．４
 50
0.0
 41
0.666666667
 51
0.0
  7
KANJI4
  0
TEXT
  8
2
  6
CONTINUOUS
 62
     2
 10
193.10015
 20
142.58235
 30
0.0
 40
2.541
  1
１．８～１．８５
 50
0.0
 41
0.666666667
 51
0.0
  7
KANJI4
  0
TEXT
  8
2
  6
CONTINUOUS
 62
     2
 10
193.10015
 20
138.34735
 30
0.0
 40
2.541
  1
３．３～３．５
 50
0.0
 41
0.666666667
 51
0.0
  7
KANJI4
  0
TEXT
  8
2
  6
CONTINUOUS
 62
     2
 10
193.10015
 20
134.11235
 30
0.0
 40
2.541
  1
３．３～３．６
 50
0.0
 41
0.666666667
 51
0.0
  7
KANJI4
  0
TEXT
  8
2
  6
CONTINUOUS
 62
     2
 10
193.2272
 20
176.46235
 30
0.1694
 40
2.541
  1
重　量（ｋｇ）
 50
0.0
 41
0.833333333
 51
0.0
  7
KANJI5
  0
TEXT
  8
2
  6
CONTINUOUS
 62
     2
 10
187.79
 20
176.46235
 30
1.694
 40
2.541
  1
ｇ
 50
0.0
 41
0.833333333
 51
0.0
  7
KANJI2
  0
LINE
  8
2
  6
CONTINUOUS
 62
     2
 10
192.719
 20
171.38035
 30
0.0
 11
185.555
 21
171.38035
 31
0.0
  0
LINE
  8
2
  6
CONTINUOUS
 62
     2
 10
185.555
 20
162.91035
 30
0.0
 11
192.719
 21
162.91035
 31
0.0
  0
LINE
  8
2
  6
CONTINUOUS
 62
     2
 10
212.424
 20
179.85035
 30
0.0
 11
212.424
 21
133.26535
 31
0.0
  0
TEXT
  8
2
  6
CONTINUOUS
 62
     2
 10
206.965
 20
172.22735
 30
0.0847
 40
2.541
  1
８４
 50
0.0
 41
0.733333333
 51
0.0
  7
KANJI0
  0
TEXT
  8
2
  6
CONTINUOUS
 62
     2
 10
206.965
 20
167.99235
 30
0.0847
 40
2.541
  1
８４
 50
0.0
 41
0.733333333
 51
0.0
  7
KANJI0
  0
TEXT
  8
2
  6
CONTINUOUS
 62
     2
 10
206.965
 20
163.75735
 30
0.0847
 40
2.541
  1
８４
 50
0.0
 41
0.733333333
 51
0.0
  7
KANJI0
  0
TEXT
  8
2
  6
CONTINUOUS
 62
     2
 10
206.965
 20
159.52235
 30
0.0847
 40
2.541
  1
８４
 50
0.0
 41
0.733333333
 51
0.0
  7
KANJI0
  0
TEXT
  8
2
  6
CONTINUOUS
 62
     2
 10
205.965
 20
155.28735
 30
0.0847
 40
2.541
  1
１３０
 50
0.0
 41
0.733333333
 51
0.0
  7
KANJI0
  0
TEXT
  8
2
  6
CONTINUOUS
 62
     2
 10
205.965
 20
151.05235
 30
0.0847
 40
2.541
  1
１３０
 50
0.0
 41
0.733333333
 51
0.0
  7
KANJI0
  0
TEXT
  8
2
  6
CONTINUOUS
 62
     2
 10
206.965
 20
146.81735
 30
0.0847
 40
2.541
  1
８４
 50
0.0
 41
0.733333333
 51
0.0
  7
KANJI0
  0
TEXT
  8
2
  6
CONTINUOUS
 62
     2
 10
206.965
 20
142.58235
 30
0.0847
 40
2.541
  1
８４
 50
0.0
 41
0.733333333
 51
0.0
  7
KANJI0
  0
TEXT
  8
2
  6
CONTINUOUS
 62
     2
 10
205.965
 20
138.34735
 30
0.0847
 40
2.541
  1
１３０
 50
0.0
 41
0.733333333
 51
0.0
  7
KANJI0
  0
TEXT
  8
2
  6
CONTINUOUS
 62
     2
 10
205.965
 20
134.11235
 30
0.0847
 40
2.541
  1
１３０
 50
0.0
 41
0.733333333
 51
0.0
  7
KANJI0
  0
LINE
  8
2
  6
CONTINUOUS
 62
     2
 10
217.424
 20
179.85035
 30
0.0
 11
217.424
 21
133.26535
 31
0.0
  0
TEXT
  8
2
  6
CONTINUOUS
 62
     2
 10
212.965
 20
172.22735
 30
0.0847
 40
2.541
  1
４４
 50
0.0
 41
0.733333333
 51
0.0
  7
KANJI0
  0
TEXT
  8
2
  6
CONTINUOUS
 62
     2
 10
212.965
 20
167.99235
 30
0.0847
 40
2.541
  1
４４
 50
0.0
 41
0.733333333
 51
0.0
  7
KANJI0
  0
TEXT
  8
2
  6
CONTINUOUS
 62
     2
 10
212.965
 20
163.75735
 30
0.0847
 40
2.541
  1
４４
 50
0.0
 41
0.733333333
 51
0.0
  7
KANJI0
  0
TEXT
  8
2
  6
CONTINUOUS
 62
     2
 10
212.965
 20
159.52235
 30
0.0847
 40
2.541
  1
４４
 50
0.0
 41
0.733333333
 51
0.0
  7
KANJI0
  0
TEXT
  8
2
  6
CONTINUOUS
 62
     2
 10
212.965
 20
155.28735
 30
0.0847
 40
2.541
  1
６５
 50
0.0
 41
0.733333333
 51
0.0
  7
KANJI0
  0
TEXT
  8
2
  6
CONTINUOUS
 62
     2
 10
212.965
 20
151.05235
 30
0.0847
 40
2.541
  1
８０
 50
0.0
 41
0.733333333
 51
0.0
  7
KANJI0
  0
TEXT
  8
2
  6
CONTINUOUS
 62
     2
 10
212.965
 20
146.81735
 30
0.0847
 40
2.541
  1
６０
 50
0.0
 41
0.733333333
 51
0.0
  7
KANJI0
  0
TEXT
  8
2
  6
CONTINUOUS
 62
     2
 10
212.965
 20
142.58235
 30
0.0847
 40
2.541
  1
５８
 50
0.0
 41
0.733333333
 51
0.0
  7
KANJI0
  0
TEXT
  8
2
  6
CONTINUOUS
 62
     2
 10
212.965
 20
138.34735
 30
0.0847
 40
2.541
  1
６５
 50
0.0
 41
0.733333333
 51
0.0
  7
KANJI0
  0
TEXT
  8
2
  6
CONTINUOUS
 62
     2
 10
212.965
 20
134.11235
 30
0.0847
 40
2.541
  1
８０
 50
0.0
 41
0.733333333
 51
0.0
  7
KANJI0
  0
LINE
  8
2
  6
CONTINUOUS
 62
     2
 10
222.424
 20
179.85035
 30
0.0
 11
222.424
 21
133.26535
 31
0.0
  0
LINE
  8
2
  6
CONTINUOUS
 62
     2
 10
192.719
 20
137.50035
 30
0.0
 11
222.424
 21
137.50035
 31
0.0
  0
LINE
  8
2
  6
CONTINUOUS
 62
     2
 10
192.719
 20
154.44035
 30
0.0
 11
222.424
 21
154.44035
 31
0.0
  0
LINE
  8
2
  6
CONTINUOUS
 62
     2
 10
148.899
 20
141.73535
 30
0.0
 11
222.424
 21
141.73535
 31
0.0
  0
LINE
  8
2
  6
CONTINUOUS
 62
     2
 10
15.297
 20
175.61535
 30
0.0
 11
222.424
 21
175.61535
 31
0.0
  0
LINE
  8
2
  6
CONTINUOUS
 62
     2
 10
15.297
 20
150.20535
 30
0.0
 11
222.424
 21
150.20535
 31
0.0
  0
LINE
  8
2
  6
CONTINUOUS
 62
     2
 10
15.297
 20
133.26535
 30
0.0
 11
222.424
 21
133.26535
 31
0.0
  0
LINE
  8
2
  6
CONTINUOUS
 62
     2
 10
222.424
 20
179.85035
 30
0.0
 11
15.297
 21
179.85035
 31
0.0
  0
LINE
  8
2
  6
CONTINUOUS
 62
     2
 10
70.587
 20
158.67535
 30
0.0
 11
222.424
 21
158.67535
 31
0.0
  0
LINE
  8
2
  6
CONTINUOUS
 62
     2
 10
185.555
 20
167.14535
 30
0.0
 11
222.424
 21
167.14535
 31
0.0
  0
LINE
  8
2
  6
CONTINUOUS
 62
     2
 10
185.555
 20
145.97035
 30
0.0
 11
222.424
 21
145.97035
 31
0.0
  0
LINE
  8
0
  6
CONTINUOUS
 62
     2
 10
205.424
 20
171.38035
 30
0.0
 11
222.424
 21
171.38035
 31
0.0
  0
LINE
  8
0
  6
CONTINUOUS
 62
     2
 10
205.424
 20
162.91035
 30
0.0
 11
222.424
 21
162.91035
 31
0.0
  0
TEXT
  8
2
  6
CONTINUOUS
 62
     2
 10
218.965
 20
172.22735
 30
0.0847
 40
2.541
  1
５
 50
0.0
 41
0.733333333
 51
0.0
  7
KANJI0
  0
TEXT
  8
2
  6
CONTINUOUS
 62
     2
 10
218.965
 20
167.99235
 30
0.0847
 40
2.541
  1
５
 50
0.0
 41
0.733333333
 51
0.0
  7
KANJI0
  0
TEXT
  8
2
  6
CONTINUOUS
 62
     2
 10
218.965
 20
163.75735
 30
0.0847
 40
2.541
  1
５
 50
0.0
 41
0.733333333
 51
0.0
  7
KANJI0
  0
TEXT
  8
2
  6
CONTINUOUS
 62
     2
 10
218.965
 20
159.52235
 30
0.0847
 40
2.541
  1
５
 50
0.0
 41
0.733333333
 51
0.0
  7
KANJI0
  0
TEXT
  8
2
  6
CONTINUOUS
 62
     2
 10
218.965
 20
155.28735
 30
0.0847
 40
2.541
  1
６
 50
0.0
 41
0.733333333
 51
0.0
  7
KANJI0
  0
TEXT
  8
2
  6
CONTINUOUS
 62
     2
 10
218.965
 20
151.05235
 30
0.0847
 40
2.541
  1
６
 50
0.0
 41
0.733333333
 51
0.0
  7
KANJI0
  0
TEXT
  8
2
  6
CONTINUOUS
 62
     2
 10
218.965
 20
146.81735
 30
0.0847
 40
2.541
  1
５
 50
0.0
 41
0.733333333
 51
0.0
  7
KANJI0
  0
TEXT
  8
2
  6
CONTINUOUS
 62
     2
 10
218.965
 20
142.58235
 30
0.0847
 40
2.541
  1
５
 50
0.0
 41
0.733333333
 51
0.0
  7
KANJI0
  0
TEXT
  8
2
  6
CONTINUOUS
 62
     2
 10
218.965
 20
138.34735
 30
0.0847
 40
2.541
  1
６
 50
0.0
 41
0.733333333
 51
0.0
  7
KANJI0
  0
TEXT
  8
2
  6
CONTINUOUS
 62
     2
 10
218.965
 20
134.11235
 30
0.0847
 40
2.541
  1
６
 50
0.0
 41
0.733333333
 51
0.0
  7
KANJI0
  0
TEXT
  8
2
  6
CONTINUOUS
 62
     2
 10
207.659
 20
176.46235
 30
1.694
 40
2.541
  1
イ
 50
0.0
 41
0.833333333
 51
0.0
  7
KANJI2
  0
TEXT
  8
2
  6
CONTINUOUS
 62
     2
 10
213.659
 20
176.46235
 30
1.694
 40
2.541
  1
ロ
 50
0.0
 41
0.833333333
 51
0.0
  7
KANJI2
  0
TEXT
  8
2
  6
CONTINUOUS
 62
     2
 10
218.659
 20
176.46235
 30
1.694
 40
2.541
  1
ハ
 50
0.0
 41
0.833333333
 51
0.0
  7
KANJI2
  0
LINE
  8
0
  6
CONTINUOUS
 62
     1
 10
39.07
 20
37.21
 30
0.0
 11
39.07
 21
56.02
 31
0.0
  0
LINE
  8
0
  6
CONTINUOUS
 62
     1
 10
39.07
 20
56.02
 30
0.0
 11
34.57
 21
56.02
 31
0.0
  0
LINE
  8
0
  6
CONTINUOUS
 62
     1
 10
34.57
 20
56.02
 30
0.0
 11
34.57
 21
37.21
 31
0.0
  0
LINE
  8
0
  6
CONTINUOUS
 62
     1
 10
34.57
 20
37.21
 30
0.0
 11
39.07
 21
37.21
 31
0.0
  0
LINE
  8
0
  6
CONTINUOUS
 62
     1
 10
32.32
 20
73.57
 30
0.0
 11
41.32
 21
73.57
 31
0.0
  0
LINE
  8
0
  6
CONTINUOUS
 62
     1
 10
41.32
 20
73.57
 30
0.0
 11
41.32
 21
69.07
 31
0.0
  0
LINE
  8
0
  6
CONTINUOUS
 62
     1
 10
38.62
 20
74.2
 30
0.0
 11
38.62
 21
75.82
 31
0.0
  0
LINE
  8
0
  6
CONTINUOUS
 62
     1
 10
38.62
 20
75.82
 30
0.0
 11
35.02
 21
75.82
 31
0.0
  0
LINE
  8
0
  6
CONTINUOUS
 62
     1
 10
35.02
 20
75.82
 30
0.0
 11
35.02
 21
74.2
 31
0.0
  0
LINE
  8
0
  6
CONTINUOUS
 62
     1
 10
35.02
 20
74.2
 30
0.0
 11
38.62
 21
74.2
 31
0.0
  0
LINE
  8
0
  6
CONTINUOUS
 62
     1
 10
34.93
 20
74.2
 30
0.0
 11
38.71
 21
74.2
 31
0.0
  0
LINE
  8
0
  6
CONTINUOUS
 62
     1
 10
36.82
 20
75.82
 30
0.0
 11
36.82
 21
74.2
 31
0.0
  0
LINE
  8
0
  6
CONTINUOUS
 62
     1
 10
32.32
 20
69.07
 30
0.0
 11
32.32
 21
74.47
 31
0.0
  0
LINE
  8
0
  6
CONTINUOUS
 62
     1
 10
32.32
 20
74.47
 30
0.0
 11
35.02
 21
74.47
 31
0.0
  0
LINE
  8
0
  6
CONTINUOUS
 62
     1
 10
38.62
 20
74.47
 30
0.0
 11
41.32
 21
74.47
 31
0.0
  0
LINE
  8
0
  6
CONTINUOUS
 62
     1
 10
41.32
 20
74.47
 30
0.0
 11
41.32
 21
73.57
 31
0.0
  0
LINE
  8
0
  6
CONTINUOUS
 62
     2
 10
39.07
 20
73.57
 30
0.0
 11
39.07
 21
73.84
 31
0.0
  0
LINE
  8
0
  6
CONTINUOUS
 62
     2
 10
39.07
 20
73.84
 30
0.0
 11
34.57
 21
73.84
 31
0.0
  0
LINE
  8
0
  6
CONTINUOUS
 62
     2
 10
34.57
 20
73.84
 30
0.0
 11
34.57
 21
73.57
 31
0.0
  0
LINE
  8
0
  6
CONTINUOUS
 62
     2
 10
34.93
 20
73.84
 30
0.0
 11
34.93
 21
74.2
 31
0.0
  0
LINE
  8
0
  6
CONTINUOUS
 62
     2
 10
38.71
 20
74.2
 30
0.0
 11
38.71
 21
73.84
 31
0.0
  0
LINE
  8
0
  6
CONTINUOUS
 62
     2
 10
36.6175
 20
74.2
 30
0.0
 11
36.9775
 21
73.84
 31
0.0
  0
LINE
  8
0
  6
CONTINUOUS
 62
     2
 10
36.8875
 20
74.2
 30
0.0
 11
37.2475
 21
73.84
 31
0.0
  0
CIRCLE
  8
0
  6
CONTINUOUS
 62
     2
 10
26.92
 20
65.47
 30
0.0
 40
1.125
  0
LINE
  8
0
  6
LTYPE1
 62
     5
 10
29.62
 20
65.47
 30
0.0
 11
24.22
 21
65.47
 31
0.0
  0
LINE
  8
0
  6
LTYPE1
 62
     5
 10
26.92
 20
62.86
 30
0.0
 11
26.92
 21
68.17
 31
0.0
  0
CIRCLE
  8
0
  6
CONTINUOUS
 62
     2
 10
46.72
 20
65.47
 30
0.0
 40
1.125
  0
LINE
  8
0
  6
LTYPE1
 62
     5
 10
44.02
 20
65.47
 30
0.0
 11
49.42
 21
65.47
 31
0.0
  0
LINE
  8
0
  6
LTYPE1
 62
     5
 10
46.72
 20
62.86
 30
0.0
 11
46.72
 21
68.17
 31
0.0
  0
LINE
  8
0
  6
CONTINUOUS
 62
     2
 10
26.62012
 20
26.4919
 30
0.0
 11
27.21988
 21
26.4919
 31
0.0
  0
LINE
  8
0
  6
CONTINUOUS
 62
     2
 10
27.21988
 20
28.8481
 30
0.0
 11
26.62012
 21
28.8481
 31
0.0
  0
LINE
  8
0
  6
CONTINUOUS
 62
     2
 10
27.21988
 20
26.4919
 30
0.0
 11
27.21988
 21
26.72752
 31
0.0
  0
ARC
  8
0
  6
CONTINUOUS
 62
     2
 10
27.86248
 20
26.72752
 30
0.0
 40
0.6426
 50
90.0
 51
180.0
  0
LINE
  8
0
  6
CONTINUOUS
 62
     2
 10
26.62012
 20
26.72752
 30
0.0
 11
26.62012
 21
26.4919
 31
0.0
  0
ARC
  8
0
  6
CONTINUOUS
 62
     2
 10
25.97752
 20
26.72752
 30
0.0
 40
0.6426
 50
0.0
 51
90.0
  0
LINE
  8
0
  6
CONTINUOUS
 62
     2
 10
26.62012
 20
28.8481
 30
0.0
 11
26.62012
 21
28.61248
 31
0.0
  0
ARC
  8
0
  6
CONTINUOUS
 62
     2
 10
25.97752
 20
28.61248
 30
0.0
 40
0.6426
 50
270.0
 51
0.0
  0
LINE
  8
0
  6
CONTINUOUS
 62
     2
 10
27.21988
 20
28.61248
 30
0.0
 11
27.21988
 21
28.8481
 31
0.0
  0
ARC
  8
0
  6
CONTINUOUS
 62
     2
 10
27.86248
 20
28.61248
 30
0.0
 40
0.6426
 50
180.0
 51
270.0
  0
LINE
  8
0
  6
CONTINUOUS
 62
     2
 10
28.0981
 20
27.37012
 30
0.0
 11
28.0981
 21
27.96988
 31
0.0
  0
LINE
  8
0
  6
CONTINUOUS
 62
     2
 10
25.7419
 20
27.96988
 30
0.0
 11
25.7419
 21
27.37012
 31
0.0
  0
LINE
  8
0
  6
CONTINUOUS
 62
     2
 10
28.0981
 20
27.96988
 30
0.0
 11
27.86248
 21
27.96988
 31
0.0
  0
ARC
  8
0
  6
CONTINUOUS
 62
     2
 10
27.86248
 20
28.61248
 30
0.0
 40
0.6426
 50
180.0
 51
270.0
  0
LINE
  8
0
  6
CONTINUOUS
 62
     2
 10
27.86248
 20
27.37012
 30
0.0
 11
28.0981
 21
27.37012
 31
0.0
  0
ARC
  8
0
  6
CONTINUOUS
 62
     2
 10
27.86248
 20
26.72752
 30
0.0
 40
0.6426
 50
90.0
 51
180.0
  0
LINE
  8
0
  6
CONTINUOUS
 62
     2
 10
25.7419
 20
27.37012
 30
0.0
 11
25.97752
 21
27.37012
 31
0.0
  0
ARC
  8
0
  6
CONTINUOUS
 62
     2
 10
25.97752
 20
26.72752
 30
0.0
 40
0.6426
 50
0.0
 51
90.0
  0
LINE
  8
0
  6
CONTINUOUS
 62
     2
 10
25.97752
 20
27.96988
 30
0.0
 11
25.7419
 21
27.96988
 31
0.0
  0
ARC
  8
0
  6
CONTINUOUS
 62
     2
 10
25.97752
 20
28.61248
 30
0.0
 40
0.6426
 50
270.0
 51
0.0
  0
LINE
  8
0
  6
CONTINUOUS
 62
     2
 10
25.97752
 20
27.96988
 30
0.0
 11
25.7419
 21
27.96988
 31
0.0
  0
LINE
  8
0
  6
CONTINUOUS
 62
     2
 10
25.7419
 20
27.37012
 30
0.0
 11
25.97752
 21
27.37012
 31
0.0
  0
LINE
  8
0
  6
CONTINUOUS
 62
     2
 10
27.86248
 20
27.37012
 30
0.0
 11
28.0981
 21
27.37012
 31
0.0
  0
LINE
  8
0
  6
CONTINUOUS
 62
     2
 10
28.0981
 20
27.96988
 30
0.0
 11
27.86248
 21
27.96988
 31
0.0
  0
TEXT
  8
0
  6
CONTINUOUS
 62
     6
 10
43.03
 20
48.28
 30
0.0
 40
3.6
  1
Ｌ
 50
270.0
 41
1.0
 51
0.0
  7
KANJI6
  0
CIRCLE
  8
0
  6
CONTINUOUS
 62
     1
 10
46.72
 20
27.67
 30
0.0
 40
2.025
  0
LINE
  8
0
  6
CONTINUOUS
 62
     2
 10
47.01988
 20
26.4919
 30
0.0
 11
46.42012
 21
26.4919
 31
0.0
  0
LINE
  8
0
  6
CONTINUOUS
 62
     2
 10
46.42012
 20
28.8481
 30
0.0
 11
47.01988
 21
28.8481
 31
0.0
  0
LINE
  8
0
  6
CONTINUOUS
 62
     2
 10
46.42012
 20
26.4919
 30
0.0
 11
46.42012
 21
26.72752
 31
0.0
  0
ARC
  8
0
  6
CONTINUOUS
 62
     2
 10
45.77752
 20
26.72752
 30
0.0
 40
0.6426
 50
0.0
 51
90.0
  0
LINE
  8
0
  6
CONTINUOUS
 62
     2
 10
47.01988
 20
26.72752
 30
0.0
 11
47.01988
 21
26.4919
 31
0.0
  0
ARC
  8
0
  6
CONTINUOUS
 62
     2
 10
47.66248
 20
26.72752
 30
0.0
 40
0.6426
 50
90.0
 51
180.0
  0
LINE
  8
0
  6
CONTINUOUS
 62
     2
 10
47.01988
 20
28.8481
 30
0.0
 11
47.01988
 21
28.61248
 31
0.0
  0
ARC
  8
0
  6
CONTINUOUS
 62
     2
 10
47.66248
 20
28.61248
 30
0.0
 40
0.6426
 50
180.0
 51
270.0
  0
LINE
  8
0
  6
CONTINUOUS
 62
     2
 10
46.42012
 20
28.61248
 30
0.0
 11
46.42012
 21
28.8481
 31
0.0
  0
ARC
  8
0
  6
CONTINUOUS
 62
     2
 10
45.77752
 20
28.61248
 30
0.0
 40
0.6426
 50
270.0
 51
0.0
  0
LINE
  8
0
  6
CONTINUOUS
 62
     2
 10
45.5419
 20
27.37012
 30
0.0
 11
45.5419
 21
27.96988
 31
0.0
  0
LINE
  8
0
  6
CONTINUOUS
 62
     2
 10
47.8981
 20
27.96988
 30
0.0
 11
47.8981
 21
27.37012
 31
0.0
  0
LINE
  8
0
  6
CONTINUOUS
 62
     2
 10
45.5419
 20
27.96988
 30
0.0
 11
45.77752
 21
27.96988
 31
0.0
  0
ARC
  8
0
  6
CONTINUOUS
 62
     2
 10
45.77752
 20
28.61248
 30
0.0
 40
0.6426
 50
270.0
 51
0.0
  0
LINE
  8
0
  6
CONTINUOUS
 62
     2
 10
45.77752
 20
27.37012
 30
0.0
 11
45.5419
 21
27.37012
 31
0.0
  0
ARC
  8
0
  6
CONTINUOUS
 62
     2
 10
45.77752
 20
26.72752
 30
0.0
 40
0.6426
 50
0.0
 51
90.0
  0
LINE
  8
0
  6
CONTINUOUS
 62
     2
 10
47.8981
 20
27.37012
 30
0.0
 11
47.66248
 21
27.37012
 31
0.0
  0
ARC
  8
0
  6
CONTINUOUS
 62
     2
 10
47.66248
 20
26.72752
 30
0.0
 40
0.6426
 50
90.0
 51
180.0
  0
LINE
  8
0
  6
CONTINUOUS
 62
     2
 10
47.66248
 20
27.96988
 30
0.0
 11
47.8981
 21
27.96988
 31
0.0
  0
ARC
  8
0
  6
CONTINUOUS
 62
     2
 10
47.66248
 20
28.61248
 30
0.0
 40
0.6426
 50
180.0
 51
270.0
  0
LINE
  8
0
  6
CONTINUOUS
 62
     2
 10
47.66248
 20
27.96988
 30
0.0
 11
47.8981
 21
27.96988
 31
0.0
  0
LINE
  8
0
  6
CONTINUOUS
 62
     2
 10
47.8981
 20
27.37012
 30
0.0
 11
47.66248
 21
27.37012
 31
0.0
  0
LINE
  8
0
  6
CONTINUOUS
 62
     2
 10
45.77752
 20
27.37012
 30
0.0
 11
45.5419
 21
27.37012
 31
0.0
  0
LINE
  8
0
  6
CONTINUOUS
 62
     2
 10
45.5419
 20
27.96988
 30
0.0
 11
45.77752
 21
27.96988
 31
0.0
  0
ARC
  8
0
  6
CONTINUOUS
 62
     1
 10
23.32
 20
27.265
 30
0.0
 40
1.35
 50
90.000051715
 51
269.999948285
  0
ARC
  8
0
  6
CONTINUOUS
 62
     1
 10
19.495
 20
29.965
 30
0.0
 40
0.9
 50
90.0
 51
180.0
  0
LINE
  8
0
  6
CONTINUOUS
 62
     1
 10
23.32
 20
28.615
 30
0.0
 11
23.32
 21
25.915
 31
0.0
  0
LINE
  8
0
  6
CONTINUOUS
 62
     1
 10
25.129022613
 20
28.615
 30
0.0
 11
23.32
 21
28.615
 31
0.0
  0
LINE
  8
0
  6
CONTINUOUS
 62
     1
 10
23.32
 20
25.915
 30
0.0
 11
25.909752506
 21
25.915
 31
0.0
  0
ARC
  8
0
  6
CONTINUOUS
 62
     1
 10
27.097501926
 20
29.515
 30
0.0
 40
1.35
 50
33.690067526
 51
90.0
  0
LINE
  8
0
  6
CONTINUOUS
 62
     1
 10
27.097501926
 20
30.865
 30
0.0
 11
19.495
 21
30.865
 31
0.0
  0
ARC
  8
0
  6
CONTINUOUS
 62
     1
 10
32.801665383
 20
25.015
 30
0.0
 40
0.9
 50
213.690067526
 51
270.0
  0
LINE
  8
0
  6
CONTINUOUS
 62
     1
 10
40.838334617
 20
24.115
 30
0.0
 11
32.801665383
 21
24.115
 31
0.0
  0
CIRCLE
  8
0
  6
CONTINUOUS
 62
     1
 10
26.92
 20
27.67
 30
0.0
 40
2.025
  0
LINE
  8
0
  6
CONTINUOUS
 62
     1
 10
32.052820118
 20
24.515769823
 30
0.0
 11
28.220769823
 21
30.263845265
 31
0.0
  0
LINE
  8
0
  6
CONTINUOUS
 62
     1
 10
15.445
 20
20.515
 30
0.0
 11
15.445
 21
19.615
 31
0.0
  0
LINE
  8
0
  6
CONTINUOUS
 62
     1
 10
58.195
 20
19.615
 30
0.0
 11
58.195
 21
20.515
 31
0.0
  0
LINE
  8
0
  6
CONTINUOUS
 62
     1
 10
58.195
 20
20.515
 30
0.0
 11
15.445
 21
20.515
 31
0.0
  0
LINE
  8
0
  6
CONTINUOUS
 62
     1
 10
15.445
 20
19.615
 30
0.0
 11
58.195
 21
19.615
 31
0.0
  0
LINE
  8
0
  6
CONTINUOUS
 62
     1
 10
18.595
 20
20.515
 30
0.0
 11
18.595
 21
29.965
 31
0.0
  0
ARC
  8
0
  6
CONTINUOUS
 62
     1
 10
40.838334617
 20
25.015
 30
0.0
 40
0.9
 50
270.0
 51
326.309932474
  0
ARC
  8
0
  6
CONTINUOUS
 62
     1
 10
54.145
 20
29.965
 30
0.0
 40
0.9
 50
0.0
 51
90.0
  0
ARC
  8
0
  6
CONTINUOUS
 62
     1
 10
50.32
 20
27.265
 30
0.0
 40
1.35
 50
270.000051715
 51
89.999948285
  0
LINE
  8
0
  6
CONTINUOUS
 62
     1
 10
50.32
 20
28.615
 30
0.0
 11
50.32
 21
25.915
 31
0.0
  0
LINE
  8
0
  6
CONTINUOUS
 62
     1
 10
48.510977387
 20
28.615
 30
0.0
 11
50.32
 21
28.615
 31
0.0
  0
LINE
  8
0
  6
CONTINUOUS
 62
     1
 10
50.32
 20
25.915
 30
0.0
 11
47.730247494
 21
25.915
 31
0.0
  0
LINE
  8
0
  6
CONTINUOUS
 62
     1
 10
55.045
 20
20.515
 30
0.0
 11
55.045
 21
29.965
 31
0.0
  0
ARC
  8
0
  6
CONTINUOUS
 62
     1
 10
46.542498074
 20
29.515
 30
0.0
 40
1.35
 50
90.0
 51
146.309932474
  0
LINE
  8
0
  6
CONTINUOUS
 62
     1
 10
41.587179882
 20
24.515769823
 30
0.0
 11
45.419230177
 21
30.263845265
 31
0.0
  0
LINE
  8
0
  6
CONTINUOUS
 62
     1
 10
46.542498074
 20
30.865
 30
0.0
 11
54.145
 21
30.865
 31
0.0
  0
LINE
  8
0
  6
LTYPE2
 62
     5
 10
20.08
 20
46.615
 30
0.0
 11
53.56
 21
46.615
 31
0.0
  0
LINE
  8
0
  6
LTYPE2
 62
     5
 10
24.22
 20
27.67
 30
0.0
 11
29.62
 21
27.67
 31
0.0
  0
LINE
  8
0
  6
LTYPE2
 62
     5
 10
26.92
 20
30.37
 30
0.0
 11
26.92
 21
24.97
 31
0.0
  0
LINE
  8
0
  6
LTYPE2
 62
     5
 10
43.3
 20
27.67
 30
0.0
 11
50.14
 21
27.67
 31
0.0
  0
LINE
  8
0
  6
LTYPE2
 62
     5
 10
46.72
 20
30.73
 30
0.0
 11
46.72
 21
24.61
 31
0.0
  0
LINE
  8
0
  6
LTYPE2
 62
     5
 10
18.145
 20
17.815
 30
0.0
 11
18.145
 21
22.315
 31
0.0
  0
LINE
  8
0
  6
LTYPE2
 62
     5
 10
55.495
 20
17.815
 30
0.0
 11
55.495
 21
22.315
 31
0.0
  0
LINE
  8
0
  6
CONTINUOUS
 62
     1
 10
23.32
 20
67.27
 30
0.0
 11
23.32
 21
30.865
 31
0.0
  0
ARC
  8
0
  6
CONTINUOUS
 62
     1
 10
25.12
 20
67.27
 30
0.0
 40
1.8
 50
90.0
 51
180.0
  0
LINE
  8
0
  6
CONTINUOUS
 62
     1
 10
50.32
 20
67.27
 30
0.0
 11
50.32
 21
30.865
 31
0.0
  0
LINE
  8
0
  6
CONTINUOUS
 62
     1
 10
48.52
 20
69.07
 30
0.0
 11
25.12
 21
69.07
 31
0.0
  0
ARC
  8
0
  6
CONTINUOUS
 62
     1
 10
48.52
 20
67.27
 30
0.0
 40
1.8
 50
0.0
 51
90.0
  0
LINE
  8
0
  6
CONTINUOUS
 62
     5
 10
59.095
 20
19.615
 30
0.0
 11
62.695
 21
19.615
 31
0.0
  0
LINE
  8
0
  6
CONTINUOUS
 62
     5
 10
60.895
 20
19.615
 30
0.0
 11
61.477342851
 21
21.788333109
 31
0.0
  0
LINE
  8
0
  6
CONTINUOUS
 62
     5
 10
60.895
 20
19.615
 30
0.0
 11
60.312657149
 21
21.788333109
 31
0.0
  0
LINE
  8
0
  6
CONTINUOUS
 62
     5
 10
60.895
 20
19.615
 30
0.0
 11
60.895
 21
46.615
 31
0.0
  0
LINE
  8
0
  6
CONTINUOUS
 62
     5
 10
60.895
 20
46.615
 30
0.0
 11
60.312657149
 21
44.441666891
 31
0.0
  0
LINE
  8
0
  6
CONTINUOUS
 62
     5
 10
60.895
 20
46.615
 30
0.0
 11
61.477342851
 21
44.441666891
 31
0.0
  0
LINE
  8
0
  6
CONTINUOUS
 62
     5
 10
54.46
 20
46.615
 30
0.0
 11
62.695
 21
46.615
 31
0.0
  0
TEXT
  8
0
  6
CONTINUOUS
 62
     2
 10
59.995
 20
31.252
 30
0.27
 40
2.7
  1
ｈ
 50
90.0
 41
0.6
 51
0.0
  7
KANJI7
  0
TEXT
  8
0
  6
CONTINUOUS
 62
     2
 10
59.995
 20
33.277
 30
0.162
 40
1.62
  1
±２
 50
90.0
 41
0.6
 51
0.0
  7
KANJI8
  0
LINE
  8
0
  6
CONTINUOUS
 62
     5
 10
39.52
 20
75.82
 30
0.0
 11
62.695
 21
75.82
 31
0.0
  0
LINE
  8
0
  6
CONTINUOUS
 62
     5
 10
60.895
 20
75.82
 30
0.0
 11
60.312657149
 21
73.646666891
 31
0.0
  0
LINE
  8
0
  6
CONTINUOUS
 62
     5
 10
60.895
 20
75.82
 30
0.0
 11
61.477342851
 21
73.646666891
 31
0.0
  0
LINE
  8
0
  6
CONTINUOUS
 62
     5
 10
60.895
 20
75.82
 30
0.0
 11
60.895
 21
69.07
 31
0.0
  0
LINE
  8
0
  6
CONTINUOUS
 62
     5
 10
60.895
 20
69.07
 30
0.0
 11
61.477342851
 21
71.243333109
 31
0.0
  0
LINE
  8
0
  6
CONTINUOUS
 62
     5
 10
60.895
 20
69.07
 30
0.0
 11
60.312657149
 21
71.243333109
 31
0.0
  0
LINE
  8
0
  6
CONTINUOUS
 62
     5
 10
42.22
 20
69.07
 30
0.0
 11
62.695
 21
69.07
 31
0.0
  0
TEXT
  8
0
  6
CONTINUOUS
 62
     2
 10
59.995
 20
70.69
 30
0.27
 40
2.7
  1
１５
 50
90.0
 41
0.6
 51
0.0
  7
KANJI7
  0
LINE
  8
0
  6
CONTINUOUS
 62
     5
 10
62.695
 20
19.615
 30
0.0
 11
68.095
 21
19.615
 31
0.0
  0
LINE
  8
0
  6
CONTINUOUS
 62
     5
 10
66.295
 20
19.615
 30
0.0
 11
66.877342851
 21
21.788333109
 31
0.0
  0
LINE
  8
0
  6
CONTINUOUS
 62
     5
 10
66.295
 20
19.615
 30
0.0
 11
65.712657149
 21
21.788333109
 31
0.0
  0
LINE
  8
0
  6
CONTINUOUS
 62
     5
 10
66.295
 20
19.615
 30
0.0
 11
66.295
 21
75.82
 31
0.0
  0
LINE
  8
0
  6
CONTINUOUS
 62
     5
 10
66.295
 20
75.82
 30
0.0
 11
65.712657149
 21
73.646666891
 31
0.0
  0
LINE
  8
0
  6
CONTINUOUS
 62
     5
 10
66.295
 20
75.82
 30
0.0
 11
66.877342851
 21
73.646666891
 31
0.0
  0
LINE
  8
0
  6
CONTINUOUS
 62
     5
 10
61.795
 20
75.82
 30
0.0
 11
68.095
 21
75.82
 31
0.0
  0
TEXT
  8
0
  6
CONTINUOUS
 62
     2
 10
65.395
 20
46.9075
 30
0.27
 40
2.7
  1
Ｈ
 50
90.0
 41
0.6
 51
0.0
  7
KANJI7
  0
LINE
  8
0
  6
CONTINUOUS
 62
     5
 10
33.67
 20
37.21
 30
0.0
 11
17.02
 21
37.21
 31
0.0
  0
LINE
  8
0
  6
CONTINUOUS
 62
     5
 10
18.82
 20
37.21
 30
0.0
 11
19.402342851
 21
39.383333109
 31
0.0
  0
LINE
  8
0
  6
CONTINUOUS
 62
     5
 10
18.82
 20
37.21
 30
0.0
 11
18.237657149
 21
39.383333109
 31
0.0
  0
LINE
  8
0
  6
CONTINUOUS
 62
     5
 10
18.82
 20
37.21
 30
0.0
 11
18.82
 21
56.02
 31
0.0
  0
LINE
  8
0
  6
CONTINUOUS
 62
     5
 10
18.82
 20
56.02
 30
0.0
 11
18.237657149
 21
53.846666891
 31
0.0
  0
LINE
  8
0
  6
CONTINUOUS
 62
     5
 10
18.82
 20
56.02
 30
0.0
 11
19.402342851
 21
53.846666891
 31
0.0
  0
LINE
  8
0
  6
CONTINUOUS
 62
     5
 10
33.67
 20
56.02
 30
0.0
 11
17.02
 21
56.02
 31
0.0
  0
TEXT
  8
0
  6
CONTINUOUS
 62
     2
 10
17.92
 20
45.805
 30
0.27
 40
2.7
  1
Ｅ
 50
90.0
 41
0.6
 51
0.0
  7
KANJI7
  0
LINE
  8
0
  6
CONTINUOUS
 62
     5
 10
34.57
 20
56.92
 30
0.0
 11
34.57
 21
62.32
 31
0.0
  0
LINE
  8
0
  6
CONTINUOUS
 62
     5
 10
34.57
 20
60.52
 30
0.0
 11
39.07
 21
60.52
 31
0.0
  0
LINE
  8
0
  6
CONTINUOUS
 62
     5
 10
39.07
 20
56.92
 30
0.0
 11
39.07
 21
62.32
 31
0.0
  0
TEXT
  8
0
  6
CONTINUOUS
 62
     2
 10
36.01
 20
61.42
 30
0.27
 40
2.7
  1
Ⅰ
 50
0.0
 41
0.6
 51
0.0
  7
KANJI7
  0
LINE
  8
0
  6
CONTINUOUS
 62
     5
 10
34.57
 20
60.52
 30
0.0
 11
32.396666891
 21
59.937657149
 31
0.0
  0
LINE
  8
0
  6
CONTINUOUS
 62
     5
 10
34.57
 20
60.52
 30
0.0
 11
32.396666891
 21
61.102342851
 31
0.0
  0
LINE
  8
0
  6
CONTINUOUS
 62
     5
 10
39.07
 20
60.52
 30
0.0
 11
41.243333109
 21
59.937657149
 31
0.0
  0
LINE
  8
0
  6
CONTINUOUS
 62
     5
 10
39.07
 20
60.52
 30
0.0
 11
41.243333109
 21
61.102342851
 31
0.0
  0
LINE
  8
0
  6
CONTINUOUS
 62
     5
 10
39.07
 20
60.52
 30
0.0
 11
43.57
 21
60.52
 31
0.0
  0
LINE
  8
0
  6
CONTINUOUS
 62
     5
 10
34.57
 20
60.52
 30
0.0
 11
30.07
 21
60.52
 31
0.0
  0
LINE
  8
0
  6
LTYPE2
 62
     5
 10
36.82
 20
60.97
 30
0.0
 11
36.82
 21
17.905
 31
0.0
  0
LINE
  8
2
  6
CONTINUOUS
 62
     2
 10
35.395994696
 20
72.266238645
 30
0.0
 11
35.429114696
 21
72.212238645
 31
0.0
  0
LINE
  8
2
  6
CONTINUOUS
 62
     2
 10
35.429114696
 20
72.212238645
 30
0.0
 11
35.462954696
 21
72.158238645
 31
0.0
  0
LINE
  8
2
  6
CONTINUOUS
 62
     2
 10
35.462954696
 20
72.158238645
 30
0.0
 11
35.498234696
 21
72.104238645
 31
0.0
  0
LINE
  8
2
  6
CONTINUOUS
 62
     2
 10
35.498234696
 20
72.104238645
 30
0.0
 11
35.535674696
 21
72.050238645
 31
0.0
  0
LINE
  8
2
  6
CONTINUOUS
 62
     2
 10
35.535674696
 20
72.050238645
 30
0.0
 11
35.575994696
 21
71.996238645
 31
0.0
  0
LINE
  8
2
  6
CONTINUOUS
 62
     2
 10
35.575994696
 20
71.996238645
 30
0.0
 11
35.625674696
 21
71.945118645
 31
0.0
  0
LINE
  8
2
  6
CONTINUOUS
 62
     2
 10
35.625674696
 20
71.945118645
 30
0.0
 11
35.678234696
 21
71.893278645
 31
0.0
  0
LINE
  8
2
  6
CONTINUOUS
 62
     2
 10
35.678234696
 20
71.893278645
 30
0.0
 11
35.732954696
 21
71.839998645
 31
0.0
  0
LINE
  8
2
  6
CONTINUOUS
 62
     2
 10
35.732954696
 20
71.839998645
 30
0.0
 11
35.789114696
 21
71.784558645
 31
0.0
  0
LINE
  8
2
  6
CONTINUOUS
 62
     2
 10
35.789114696
 20
71.784558645
 30
0.0
 11
35.845994696
 21
71.726238645
 31
0.0
  0
LINE
  8
2
  6
CONTINUOUS
 62
     2
 10
35.845994696
 20
71.726238645
 30
0.0
 11
35.899994696
 21
71.652798645
 31
0.0
  0
LINE
  8
2
  6
CONTINUOUS
 62
     2
 10
35.899994696
 20
71.652798645
 30
0.0
 11
35.953994696
 21
71.577918645
 31
0.0
  0
LINE
  8
2
  6
CONTINUOUS
 62
     2
 10
35.953994696
 20
71.577918645
 30
0.0
 11
36.007994696
 21
71.503758645
 31
0.0
  0
LINE
  8
2
  6
CONTINUOUS
 62
     2
 10
36.007994696
 20
71.503758645
 30
0.0
 11
36.061994696
 21
71.432478645
 31
0.0
  0
LINE
  8
2
  6
CONTINUOUS
 62
     2
 10
36.061994696
 20
71.432478645
 30
0.0
 11
36.115994696
 21
71.366238645
 31
0.0
  0
LINE
  8
2
  6
CONTINUOUS
 62
     2
 10
36.115994696
 20
71.366238645
 30
0.0
 11
36.169994696
 21
71.321598645
 31
0.0
  0
LINE
  8
2
  6
CONTINUOUS
 62
     2
 10
36.169994696
 20
71.321598645
 30
0.0
 11
36.223994696
 21
71.282718645
 31
0.0
  0
LINE
  8
2
  6
CONTINUOUS
 62
     2
 10
36.223994696
 20
71.282718645
 30
0.0
 11
36.277994696
 21
71.248158645
 31
0.0
  0
LINE
  8
2
  6
CONTINUOUS
 62
     2
 10
36.277994696
 20
71.248158645
 30
0.0
 11
36.331994696
 21
71.216478645
 31
0.0
  0
LINE
  8
2
  6
CONTINUOUS
 62
     2
 10
36.331994696
 20
71.216478645
 30
0.0
 11
36.385994696
 21
71.186238645
 31
0.0
  0
LINE
  8
2
  6
CONTINUOUS
 62
     2
 10
36.385994696
 20
71.186238645
 30
0.0
 11
36.439994696
 21
71.147358645
 31
0.0
  0
LINE
  8
2
  6
CONTINUOUS
 62
     2
 10
36.439994696
 20
71.147358645
 30
0.0
 11
36.493994696
 21
71.109198645
 31
0.0
  0
LINE
  8
2
  6
CONTINUOUS
 62
     2
 10
36.493994696
 20
71.109198645
 30
0.0
 11
36.547994696
 21
71.072478645
 31
0.0
  0
LINE
  8
2
  6
CONTINUOUS
 62
     2
 10
36.547994696
 20
71.072478645
 30
0.0
 11
36.601994696
 21
71.037918645
 31
0.0
  0
LINE
  8
2
  6
CONTINUOUS
 62
     2
 10
36.601994696
 20
71.037918645
 30
0.0
 11
36.655994696
 21
71.006238645
 31
0.0
  0
LINE
  8
2
  6
CONTINUOUS
 62
     2
 10
36.655994696
 20
71.006238645
 30
0.0
 11
36.704234696
 21
70.983918645
 31
0.0
  0
LINE
  8
2
  6
CONTINUOUS
 62
     2
 10
36.704234696
 20
70.983918645
 30
0.0
 11
36.753914696
 21
70.964478645
 31
0.0
  0
LINE
  8
2
  6
CONTINUOUS
 62
     2
 10
36.753914696
 20
70.964478645
 30
0.0
 11
36.806474696
 21
70.947198645
 31
0.0
  0
LINE
  8
2
  6
CONTINUOUS
 62
     2
 10
36.806474696
 20
70.947198645
 30
0.0
 11
36.863354696
 21
70.931358645
 31
0.0
  0
LINE
  8
2
  6
CONTINUOUS
 62
     2
 10
36.863354696
 20
70.931358645
 30
0.0
 11
36.925994696
 21
70.916238645
 31
0.0
  0
LINE
  8
2
  6
CONTINUOUS
 62
     2
 10
36.925994696
 20
70.916238645
 30
0.0
 11
37.007354696
 21
70.895358645
 31
0.0
  0
LINE
  8
2
  6
CONTINUOUS
 62
     2
 10
37.007354696
 20
70.895358645
 30
0.0
 11
37.094474696
 21
70.875198645
 31
0.0
  0
LINE
  8
2
  6
CONTINUOUS
 62
     2
 10
37.094474696
 20
70.875198645
 30
0.0
 11
37.185914696
 21
70.856478645
 31
0.0
  0
LINE
  8
2
  6
CONTINUOUS
 62
     2
 10
37.185914696
 20
70.856478645
 30
0.0
 11
37.280234696
 21
70.839918645
 31
0.0
  0
LINE
  8
2
  6
CONTINUOUS
 62
     2
 10
37.280234696
 20
70.839918645
 30
0.0
 11
37.375994696
 21
70.826238645
 31
0.0
  0
LINE
  8
2
  6
CONTINUOUS
 62
     2
 10
37.375994696
 20
70.826238645
 30
0.0
 11
37.471754696
 21
70.816158645
 31
0.0
  0
LINE
  8
2
  6
CONTINUOUS
 62
     2
 10
37.471754696
 20
70.816158645
 30
0.0
 11
37.566074696
 21
70.810398645
 31
0.0
  0
LINE
  8
2
  6
CONTINUOUS
 62
     2
 10
37.566074696
 20
70.810398645
 30
0.0
 11
37.657514696
 21
70.809678645
 31
0.0
  0
LINE
  8
2
  6
CONTINUOUS
 62
     2
 10
37.657514696
 20
70.809678645
 30
0.0
 11
37.744634696
 21
70.814718645
 31
0.0
  0
LINE
  8
2
  6
CONTINUOUS
 62
     2
 10
37.744634696
 20
70.814718645
 30
0.0
 11
37.825994696
 21
70.826238645
 31
0.0
  0
LINE
  8
2
  6
CONTINUOUS
 62
     2
 10
37.825994696
 20
70.826238645
 30
0.0
 11
37.900154696
 21
70.847838645
 31
0.0
  0
LINE
  8
2
  6
CONTINUOUS
 62
     2
 10
37.900154696
 20
70.847838645
 30
0.0
 11
37.965674696
 21
70.876638645
 31
0.0
  0
LINE
  8
2
  6
CONTINUOUS
 62
     2
 10
37.965674696
 20
70.876638645
 30
0.0
 11
38.021114696
 21
70.912638645
 31
0.0
  0
LINE
  8
2
  6
CONTINUOUS
 62
     2
 10
38.021114696
 20
70.912638645
 30
0.0
 11
38.065034696
 21
70.955838645
 31
0.0
  0
LINE
  8
2
  6
CONTINUOUS
 62
     2
 10
38.065034696
 20
70.955838645
 30
0.0
 11
38.095994696
 21
71.006238645
 31
0.0
  0
LINE
  8
2
  6
CONTINUOUS
 62
     2
 10
38.095994696
 20
71.006238645
 30
0.0
 11
38.103914696
 21
71.072478645
 31
0.0
  0
LINE
  8
2
  6
CONTINUOUS
 62
     2
 10
38.103914696
 20
71.072478645
 30
0.0
 11
38.098154696
 21
71.143758645
 31
0.0
  0
LINE
  8
2
  6
CONTINUOUS
 62
     2
 10
38.098154696
 20
71.143758645
 30
0.0
 11
38.079434696
 21
71.217918645
 31
0.0
  0
LINE
  8
2
  6
CONTINUOUS
 62
     2
 10
38.079434696
 20
71.217918645
 30
0.0
 11
38.048474696
 21
71.292798645
 31
0.0
  0
LINE
  8
2
  6
CONTINUOUS
 62
     2
 10
38.048474696
 20
71.292798645
 30
0.0
 11
38.005994696
 21
71.366238645
 31
0.0
  0
LINE
  8
2
  6
CONTINUOUS
 62
     2
 10
38.005994696
 20
71.366238645
 30
0.0
 11
37.946954696
 21
71.427438645
 31
0.0
  0
LINE
  8
2
  6
CONTINUOUS
 62
     2
 10
37.946954696
 20
71.427438645
 30
0.0
 11
37.879274696
 21
71.485038645
 31
0.0
  0
LINE
  8
2
  6
CONTINUOUS
 62
     2
 10
37.879274696
 20
71.485038645
 30
0.0
 11
37.805114696
 21
71.539038645
 31
0.0
  0
LINE
  8
2
  6
CONTINUOUS
 62
     2
 10
37.805114696
 20
71.539038645
 30
0.0
 11
37.726634696
 21
71.589438645
 31
0.0
  0
LINE
  8
2
  6
CONTINUOUS
 62
     2
 10
37.726634696
 20
71.589438645
 30
0.0
 11
37.645994696
 21
71.636238645
 31
0.0
  0
LINE
  8
2
  6
CONTINUOUS
 62
     2
 10
37.645994696
 20
71.636238645
 30
0.0
 11
37.576874696
 21
71.682318645
 31
0.0
  0
LINE
  8
2
  6
CONTINUOUS
 62
     2
 10
37.576874696
 20
71.682318645
 30
0.0
 11
37.507034696
 21
71.724078645
 31
0.0
  0
LINE
  8
2
  6
CONTINUOUS
 62
     2
 10
37.507034696
 20
71.724078645
 30
0.0
 11
37.435754696
 21
71.760798645
 31
0.0
  0
LINE
  8
2
  6
CONTINUOUS
 62
     2
 10
37.435754696
 20
71.760798645
 30
0.0
 11
37.362314696
 21
71.791758645
 31
0.0
  0
LINE
  8
2
  6
CONTINUOUS
 62
     2
 10
37.362314696
 20
71.791758645
 30
0.0
 11
37.285994696
 21
71.816238645
 31
0.0
  0
LINE
  8
2
  6
CONTINUOUS
 62
     2
 10
37.285994696
 20
71.816238645
 30
0.0
 11
37.203194696
 21
71.827758645
 31
0.0
  0
LINE
  8
2
  6
CONTINUOUS
 62
     2
 10
37.203194696
 20
71.827758645
 30
0.0
 11
37.116794696
 21
71.832798645
 31
0.0
  0
LINE
  8
2
  6
CONTINUOUS
 62
     2
 10
37.116794696
 20
71.832798645
 30
0.0
 11
37.026794696
 21
71.832078645
 31
0.0
  0
LINE
  8
2
  6
CONTINUOUS
 62
     2
 10
37.026794696
 20
71.832078645
 30
0.0
 11
36.933194696
 21
71.826318645
 31
0.0
  0
LINE
  8
2
  6
CONTINUOUS
 62
     2
 10
36.933194696
 20
71.826318645
 30
0.0
 11
36.835994696
 21
71.816238645
 31
0.0
  0
LINE
  8
2
  6
CONTINUOUS
 62
     2
 10
36.835994696
 20
71.816238645
 30
0.0
 11
36.726554696
 21
71.805438645
 31
0.0
  0
LINE
  8
2
  6
CONTINUOUS
 62
     2
 10
36.726554696
 20
71.805438645
 30
0.0
 11
36.615674696
 21
71.791038645
 31
0.0
  0
LINE
  8
2
  6
CONTINUOUS
 62
     2
 10
36.615674696
 20
71.791038645
 30
0.0
 11
36.505514696
 21
71.773038645
 31
0.0
  0
LINE
  8
2
  6
CONTINUOUS
 62
     2
 10
36.505514696
 20
71.773038645
 30
0.0
 11
36.398234696
 21
71.751438645
 31
0.0
  0
LINE
  8
2
  6
CONTINUOUS
 62
     2
 10
36.398234696
 20
71.751438645
 30
0.0
 11
36.295994696
 21
71.726238645
 31
0.0
  0
LINE
  8
2
  6
CONTINUOUS
 62
     2
 10
36.295994696
 20
71.726238645
 30
0.0
 11
36.215354696
 21
71.697438645
 31
0.0
  0
LINE
  8
2
  6
CONTINUOUS
 62
     2
 10
36.215354696
 20
71.697438645
 30
0.0
 11
36.140474696
 21
71.665038645
 31
0.0
  0
LINE
  8
2
  6
CONTINUOUS
 62
     2
 10
36.140474696
 20
71.665038645
 30
0.0
 11
36.069914696
 21
71.629038645
 31
0.0
  0
LINE
  8
2
  6
CONTINUOUS
 62
     2
 10
36.069914696
 20
71.629038645
 30
0.0
 11
36.002234696
 21
71.589438645
 31
0.0
  0
LINE
  8
2
  6
CONTINUOUS
 62
     2
 10
36.002234696
 20
71.589438645
 30
0.0
 11
35.935994696
 21
71.546238645
 31
0.0
  0
LINE
  8
2
  6
CONTINUOUS
 62
     2
 10
35.935994696
 20
71.546238645
 30
0.0
 11
35.861114696
 21
71.493678645
 31
0.0
  0
LINE
  8
2
  6
CONTINUOUS
 62
     2
 10
35.861114696
 20
71.493678645
 30
0.0
 11
35.786954696
 21
71.438958645
 31
0.0
  0
LINE
  8
2
  6
CONTINUOUS
 62
     2
 10
35.786954696
 20
71.438958645
 30
0.0
 11
35.714234696
 21
71.383518645
 31
0.0
  0
LINE
  8
2
  6
CONTINUOUS
 62
     2
 10
35.714234696
 20
71.383518645
 30
0.0
 11
35.643674696
 21
71.328798645
 31
0.0
  0
LINE
  8
2
  6
CONTINUOUS
 62
     2
 10
35.643674696
 20
71.328798645
 30
0.0
 11
35.575994696
 21
71.276238645
 31
0.0
  0
LINE
  8
2
  6
CONTINUOUS
 62
     2
 10
35.575994696
 20
71.276238645
 30
0.0
 11
35.511914696
 21
71.241678645
 31
0.0
  0
LINE
  8
2
  6
CONTINUOUS
 62
     2
 10
35.511914696
 20
71.241678645
 30
0.0
 11
35.452154696
 21
71.208558645
 31
0.0
  0
LINE
  8
2
  6
CONTINUOUS
 62
     2
 10
35.452154696
 20
71.208558645
 30
0.0
 11
35.397434696
 21
71.174718645
 31
0.0
  0
LINE
  8
2
  6
CONTINUOUS
 62
     2
 10
35.397434696
 20
71.174718645
 30
0.0
 11
35.348474696
 21
71.137998645
 31
0.0
  0
LINE
  8
2
  6
CONTINUOUS
 62
     2
 10
35.348474696
 20
71.137998645
 30
0.0
 11
35.305994696
 21
71.096238645
 31
0.0
  0
LINE
  8
2
  6
CONTINUOUS
 62
     2
 10
35.305994696
 20
71.096238645
 30
0.0
 11
35.273594696
 21
71.027118645
 31
0.0
  0
LINE
  8
2
  6
CONTINUOUS
 62
     2
 10
35.273594696
 20
71.027118645
 30
0.0
 11
35.248394696
 21
70.953678645
 31
0.0
  0
LINE
  8
2
  6
CONTINUOUS
 62
     2
 10
35.248394696
 20
70.953678645
 30
0.0
 11
35.230394696
 21
70.878798645
 31
0.0
  0
LINE
  8
2
  6
CONTINUOUS
 62
     2
 10
35.230394696
 20
70.878798645
 30
0.0
 11
35.219594696
 21
70.805358645
 31
0.0
  0
LINE
  8
2
  6
CONTINUOUS
 62
     2
 10
35.219594696
 20
70.805358645
 30
0.0
 11
35.215994696
 21
70.736238645
 31
0.0
  0
LINE
  8
2
  6
CONTINUOUS
 62
     2
 10
35.215994696
 20
70.736238645
 30
0.0
 11
35.225354696
 21
70.691598645
 31
0.0
  0
LINE
  8
2
  6
CONTINUOUS
 62
     2
 10
35.225354696
 20
70.691598645
 30
0.0
 11
35.240474696
 21
70.652718645
 31
0.0
  0
LINE
  8
2
  6
CONTINUOUS
 62
     2
 10
35.240474696
 20
70.652718645
 30
0.0
 11
35.259914696
 21
70.618158645
 31
0.0
  0
LINE
  8
2
  6
CONTINUOUS
 62
     2
 10
35.259914696
 20
70.618158645
 30
0.0
 11
35.282234696
 21
70.586478645
 31
0.0
  0
LINE
  8
2
  6
CONTINUOUS
 62
     2
 10
35.282234696
 20
70.586478645
 30
0.0
 11
35.305994696
 21
70.556238645
 31
0.0
  0
LINE
  8
2
  6
CONTINUOUS
 62
     5
 10
39.690426971
 20
37.861974213
 30
0.0
 11
44.492886679
 21
42.90862762
 31
0.0
  0
LINE
  8
2
  6
CONTINUOUS
 62
     5
 10
43.252032737
 20
41.604679195
 30
0.0
 11
44.424983772
 21
39.684604751
 31
0.0
  0
LINE
  8
2
  6
CONTINUOUS
 62
     5
 10
43.252032737
 20
41.604679195
 30
0.0
 11
45.227875353
 21
40.528321466
 31
0.0
  0
LINE
  8
2
  6
CONTINUOUS
 62
     5
 10
43.252032737
 20
41.604679195
 30
0.0
 11
50.087522612
 21
35.099939903
 31
0.0
  0
LINE
  8
2
  6
CONTINUOUS
 62
     5
 10
50.087522612
 20
35.099939903
 30
0.0
 11
48.914571577
 21
37.020014347
 31
0.0
  0
LINE
  8
2
  6
CONTINUOUS
 62
     5
 10
50.087522612
 20
35.099939903
 30
0.0
 11
48.111679997
 21
36.176297631
 31
0.0
  0
LINE
  8
2
  6
CONTINUOUS
 62
     5
 10
46.525916845
 20
31.357234921
 30
0.0
 11
51.328376554
 21
36.403888328
 31
0.0
  0
TEXT
  8
2
  6
CONTINUOUS
 62
     2
 10
46.703427854
 20
39.562668035
 30
0.27
 40
2.7
  1
ｇ
 50
316.420270265
 41
0.6
 51
0.0
  7
KANJI7
  0
LINE
  8
0
  6
CONTINUOUS
 62
     1
 10
110.72
 20
69.07
 30
0.0
 11
110.72
 21
73.57
 31
0.0
  0
LINE
  8
0
  6
CONTINUOUS
 62
     1
 10
94.52
 20
73.57
 30
0.0
 11
94.52
 21
69.07
 31
0.0
  0
LINE
  8
0
  6
CONTINUOUS
 62
     1
 10
104.42
 20
73.57
 30
0.0
 11
103.97
 21
74.47
 31
0.0
  0
LINE
  8
0
  6
CONTINUOUS
 62
     1
 10
103.97
 20
74.47
 30
0.0
 11
101.27
 21
74.47
 31
0.0
  0
LINE
  8
0
  6
CONTINUOUS
 62
     1
 10
101.27
 20
74.47
 30
0.0
 11
100.82
 21
73.57
 31
0.0
  0
LINE
  8
0
  6
CONTINUOUS
 62
     1
 10
100.82
 20
73.57
 30
0.0
 11
94.52
 21
73.57
 31
0.0
  0
LINE
  8
0
  6
CONTINUOUS
 62
     1
 10
110.72
 20
73.57
 30
0.0
 11
104.42
 21
73.57
 31
0.0
  0
LINE
  8
0
  6
CONTINUOUS
 62
     1
 10
99.47
 20
74.2
 30
0.0
 11
99.47
 21
75.82
 31
0.0
  0
LINE
  8
0
  6
CONTINUOUS
 62
     1
 10
99.47
 20
75.82
 30
0.0
 11
95.87
 21
75.82
 31
0.0
  0
LINE
  8
0
  6
CONTINUOUS
 62
     1
 10
95.87
 20
75.82
 30
0.0
 11
95.87
 21
74.2
 31
0.0
  0
LINE
  8
0
  6
CONTINUOUS
 62
     1
 10
95.87
 20
74.2
 30
0.0
 11
99.47
 21
74.2
 31
0.0
  0
LINE
  8
0
  6
CONTINUOUS
 62
     1
 10
95.78
 20
74.2
 30
0.0
 11
99.56
 21
74.2
 31
0.0
  0
LINE
  8
0
  6
CONTINUOUS
 62
     1
 10
97.67
 20
75.82
 30
0.0
 11
97.67
 21
74.2
 31
0.0
  0
LINE
  8
0
  6
CONTINUOUS
 62
     1
 10
109.37
 20
74.2
 30
0.0
 11
109.37
 21
75.82
 31
0.0
  0
LINE
  8
0
  6
CONTINUOUS
 62
     1
 10
109.37
 20
75.82
 30
0.0
 11
105.77
 21
75.82
 31
0.0
  0
LINE
  8
0
  6
CONTINUOUS
 62
     1
 10
105.77
 20
75.82
 30
0.0
 11
105.77
 21
74.2
 31
0.0
  0
LINE
  8
0
  6
CONTINUOUS
 62
     1
 10
105.77
 20
74.2
 30
0.0
 11
109.37
 21
74.2
 31
0.0
  0
LINE
  8
0
  6
CONTINUOUS
 62
     1
 10
105.68
 20
74.2
 30
0.0
 11
109.46
 21
74.2
 31
0.0
  0
LINE
  8
0
  6
CONTINUOUS
 62
     1
 10
107.57
 20
75.82
 30
0.0
 11
107.57
 21
74.2
 31
0.0
  0
LINE
  8
0
  6
CONTINUOUS
 62
     1
 10
93.62
 20
24.07
 30
0.0
 11
111.62
 21
24.07
 31
0.0
  0
LINE
  8
0
  6
CONTINUOUS
 62
     1
 10
111.62
 20
69.07
 30
0.0
 11
93.62
 21
69.07
 31
0.0
  0
LINE
  8
0
  6
CONTINUOUS
 62
     2
 10
99.92
 20
73.57
 30
0.0
 11
99.92
 21
73.84
 31
0.0
  0
LINE
  8
0
  6
CONTINUOUS
 62
     2
 10
99.92
 20
73.84
 30
0.0
 11
95.42
 21
73.84
 31
0.0
  0
LINE
  8
0
  6
CONTINUOUS
 62
     2
 10
95.42
 20
73.84
 30
0.0
 11
95.42
 21
73.57
 31
0.0
  0
LINE
  8
0
  6
CONTINUOUS
 62
     2
 10
95.78
 20
73.84
 30
0.0
 11
95.78
 21
74.2
 31
0.0
  0
LINE
  8
0
  6
CONTINUOUS
 62
     2
 10
99.56
 20
74.2
 30
0.0
 11
99.56
 21
73.84
 31
0.0
  0
LINE
  8
0
  6
CONTINUOUS
 62
     2
 10
97.4675
 20
74.2
 30
0.0
 11
97.8275
 21
73.84
 31
0.0
  0
LINE
  8
0
  6
CONTINUOUS
 62
     2
 10
97.7375
 20
74.2
 30
0.0
 11
98.0975
 21
73.84
 31
0.0
  0
LINE
  8
0
  6
CONTINUOUS
 62
     2
 10
109.82
 20
73.57
 30
0.0
 11
109.82
 21
73.84
 31
0.0
  0
LINE
  8
0
  6
CONTINUOUS
 62
     2
 10
109.82
 20
73.84
 30
0.0
 11
105.32
 21
73.84
 31
0.0
  0
LINE
  8
0
  6
CONTINUOUS
 62
     2
 10
105.32
 20
73.84
 30
0.0
 11
105.32
 21
73.57
 31
0.0
  0
LINE
  8
0
  6
CONTINUOUS
 62
     2
 10
105.68
 20
73.84
 30
0.0
 11
105.68
 21
74.2
 31
0.0
  0
LINE
  8
0
  6
CONTINUOUS
 62
     2
 10
109.46
 20
74.2
 30
0.0
 11
109.46
 21
73.84
 31
0.0
  0
LINE
  8
0
  6
CONTINUOUS
 62
     2
 10
107.3675
 20
74.2
 30
0.0
 11
107.7275
 21
73.84
 31
0.0
  0
LINE
  8
0
  6
CONTINUOUS
 62
     2
 10
107.6375
 20
74.2
 30
0.0
 11
107.9975
 21
73.84
 31
0.0
  0
ARC
  8
0
  6
CONTINUOUS
 62
     1
 10
91.655384462
 20
26.774639069
 30
0.0
 40
1.157190802
 50
180.0
 51
271.527525441
  0
ARC
  8
0
  6
CONTINUOUS
 62
     1
 10
91.655384462
 20
28.56442751
 30
0.0
 40
1.157190802
 50
90.0
 51
180.0
  0
LINE
  8
0
  6
CONTINUOUS
 62
     1
 10
90.49819366
 20
28.56442751
 30
0.0
 11
90.49819366
 21
26.774639069
 31
0.0
  0
LINE
  8
0
  6
CONTINUOUS
 62
     1
 10
90.606198135
 20
28.008975925
 30
0.0
 11
90.606198135
 21
27.422665918
 31
0.0
  0
LINE
  8
0
  6
CONTINUOUS
 62
     1
 10
92.118260783
 20
29.721618312
 30
0.0
 11
91.639955251
 21
29.721618312
 31
0.0
  0
LINE
  8
0
  6
CONTINUOUS
 62
     1
 10
91.639955251
 20
25.648306688
 30
0.0
 11
92.118260783
 21
25.617448267
 31
0.0
  0
LINE
  8
0
  6
CONTINUOUS
 62
     1
 10
92.118260783
 20
29.721618312
 30
0.0
 11
92.118260783
 21
25.617448267
 31
0.0
  0
LINE
  8
0
  6
CONTINUOUS
 62
     2
 10
92.72
 20
25.617448267
 30
0.0
 11
92.133689994
 21
25.617448267
 31
0.0
  0
LINE
  8
0
  6
CONTINUOUS
 62
     2
 10
92.72
 20
27.484382761
 30
0.0
 11
92.133689994
 21
27.962688293
 31
0.0
  0
LINE
  8
0
  6
CONTINUOUS
 62
     2
 10
92.72
 20
27.114081704
 30
0.0
 11
92.118260783
 21
27.561528814
 31
0.0
  0
LINE
  8
0
  6
CONTINUOUS
 62
     2
 10
90.49819366
 20
27.993546714
 30
0.0
 11
90.606198135
 21
27.993546714
 31
0.0
  0
LINE
  8
0
  6
CONTINUOUS
 62
     2
 10
90.606198135
 20
27.422665918
 30
0.0
 11
90.513622871
 21
27.422665918
 31
0.0
  0
LINE
  8
0
  6
CONTINUOUS
 62
     2
 10
92.716760783
 20
29.721618312
 30
0.0
 11
92.118260783
 21
29.721618312
 31
0.0
  0
LINE
  8
0
  6
CONTINUOUS
 62
     2
 10
92.72
 20
29.722551733
 30
0.0
 11
92.72
 21
25.617448267
 31
0.0
  0
ARC
  8
0
  6
CONTINUOUS
 62
     1
 10
113.584615538
 20
26.774639069
 30
0.0
 40
1.157190802
 50
268.472474559
 51
0.0
  0
ARC
  8
0
  6
CONTINUOUS
 62
     1
 10
113.584615538
 20
28.56442751
 30
0.0
 40
1.157190802
 50
0.0
 51
90.0
  0
LINE
  8
0
  6
CONTINUOUS
 62
     1
 10
114.74180634
 20
28.56442751
 30
0.0
 11
114.74180634
 21
26.774639069
 31
0.0
  0
LINE
  8
0
  6
CONTINUOUS
 62
     1
 10
114.633801865
 20
28.008975925
 30
0.0
 11
114.633801865
 21
27.422665918
 31
0.0
  0
LINE
  8
0
  6
CONTINUOUS
 62
     1
 10
113.121739217
 20
29.721618312
 30
0.0
 11
113.600044749
 21
29.721618312
 31
0.0
  0
LINE
  8
0
  6
CONTINUOUS
 62
     1
 10
113.600044749
 20
25.648306688
 30
0.0
 11
113.121739217
 21
25.617448267
 31
0.0
  0
LINE
  8
0
  6
CONTINUOUS
 62
     1
 10
113.121739217
 20
29.721618312
 30
0.0
 11
113.121739217
 21
25.617448267
 31
0.0
  0
LINE
  8
0
  6
CONTINUOUS
 62
     2
 10
112.52
 20
25.617448267
 30
0.0
 11
113.106310006
 21
25.617448267
 31
0.0
  0
LINE
  8
0
  6
CONTINUOUS
 62
     2
 10
112.52
 20
27.484382761
 30
0.0
 11
113.106310006
 21
27.962688293
 31
0.0
  0
LINE
  8
0
  6
CONTINUOUS
 62
     2
 10
112.52
 20
27.114081704
 30
0.0
 11
113.121739217
 21
27.561528814
 31
0.0
  0
LINE
  8
0
  6
CONTINUOUS
 62
     2
 10
114.74180634
 20
27.993546714
 30
0.0
 11
114.633801865
 21
27.993546714
 31
0.0
  0
LINE
  8
0
  6
CONTINUOUS
 62
     2
 10
114.633801865
 20
27.422665918
 30
0.0
 11
114.726377129
 21
27.422665918
 31
0.0
  0
LINE
  8
0
  6
CONTINUOUS
 62
     2
 10
112.523239217
 20
29.721618312
 30
0.0
 11
113.121739217
 21
29.721618312
 31
0.0
  0
LINE
  8
0
  6
CONTINUOUS
 62
     2
 10
112.52
 20
29.722551733
 30
0.0
 11
112.52
 21
25.617448267
 31
0.0
  0
LINE
  8
0
  6
CONTINUOUS
 62
     1
 10
93.62
 20
19.615
 30
0.0
 11
85.07
 21
19.615
 31
0.0
  0
LINE
  8
0
  6
CONTINUOUS
 62
     1
 10
85.07
 20
19.615
 30
0.0
 11
85.07
 21
20.515
 31
0.0
  0
LINE
  8
0
  6
CONTINUOUS
 62
     1
 10
85.07
 20
20.515
 30
0.0
 11
92.72
 21
20.515
 31
0.0
  0
LINE
  8
0
  6
CONTINUOUS
 62
     1
 10
93.62
 20
69.07
 30
0.0
 11
93.62
 21
24.07
 31
0.0
  0
LINE
  8
0
  6
CONTINUOUS
 62
     1
 10
92.72
 20
30.865
 30
0.0
 11
93.62
 21
30.865
 31
0.0
  0
LINE
  8
0
  6
CONTINUOUS
 62
     1
 10
93.62
 20
30.865
 30
0.0
 11
93.62
 21
19.615
 31
0.0
  0
LINE
  8
0
  6
CONTINUOUS
 62
     1
 10
92.72
 20
20.515
 30
0.0
 11
92.72
 21
30.865
 31
0.0
  0
LINE
  8
0
  6
CONTINUOUS
 62
     1
 10
111.62
 20
24.07
 30
0.0
 11
111.62
 21
69.07
 31
0.0
  0
LINE
  8
0
  6
CONTINUOUS
 62
     1
 10
112.52
 20
30.865
 30
0.0
 11
111.62
 21
30.865
 31
0.0
  0
LINE
  8
0
  6
CONTINUOUS
 62
     1
 10
111.62
 20
19.615
 30
0.0
 11
120.17
 21
19.615
 31
0.0
  0
LINE
  8
0
  6
CONTINUOUS
 62
     1
 10
120.17
 20
19.615
 30
0.0
 11
120.17
 21
20.515
 31
0.0
  0
LINE
  8
0
  6
CONTINUOUS
 62
     1
 10
120.17
 20
20.515
 30
0.0
 11
112.52
 21
20.515
 31
0.0
  0
LINE
  8
0
  6
CONTINUOUS
 62
     1
 10
112.52
 20
20.515
 30
0.0
 11
112.52
 21
30.865
 31
0.0
  0
LINE
  8
0
  6
CONTINUOUS
 62
     1
 10
111.62
 20
30.865
 30
0.0
 11
111.62
 21
19.615
 31
0.0
  0
LINE
  8
0
  6
LTYPE2
 62
     5
 10
91.82
 20
65.47
 30
0.0
 11
96.32
 21
65.47
 31
0.0
  0
LINE
  8
0
  6
LTYPE2
 62
     5
 10
109.82
 20
65.47
 30
0.0
 11
114.32
 21
65.47
 31
0.0
  0
LINE
  8
0
  6
LTYPE2
 62
     5
 10
87.32
 20
22.315
 30
0.0
 11
87.32
 21
17.815
 31
0.0
  0
LINE
  8
0
  6
LTYPE2
 62
     5
 10
117.92
 20
22.315
 30
0.0
 11
117.92
 21
17.815
 31
0.0
  0
LINE
  8
0
  6
LTYPE2
 62
     5
 10
102.62
 20
76.27
 30
0.0
 11
102.62
 21
18.67
 31
0.0
  0
LINE
  8
0
  6
LTYPE2
 62
     5
 10
90.02
 20
46.57
 30
0.0
 11
117.02
 21
46.57
 31
0.0
  0
LINE
  8
0
  6
LTYPE2
 62
     5
 10
93.918260783
 20
27.669533289
 30
0.0
 11
88.518260783
 21
27.669533289
 31
0.0
  0
LINE
  8
0
  6
LTYPE2
 62
     5
 10
111.321739217
 20
27.669533289
 30
0.0
 11
116.721739217
 21
27.669533289
 31
0.0
  0
LINE
  8
0
  6
CONTINUOUS
 62
     2
 10
98.12
 20
37.57
 30
0.0
 11
107.12
 21
37.57
 31
0.0
  0
LINE
  8
0
  6
CONTINUOUS
 62
     2
 10
107.12
 20
37.57
 30
0.0
 11
107.12
 21
55.57
 31
0.0
  0
LINE
  8
0
  6
CONTINUOUS
 62
     2
 10
107.12
 20
55.57
 30
0.0
 11
98.12
 21
55.57
 31
0.0
  0
LINE
  8
0
  6
CONTINUOUS
 62
     2
 10
98.12
 20
55.57
 30
0.0
 11
98.12
 21
37.57
 31
0.0
  0
LINE
  8
0
  6
CONTINUOUS
 62
     5
 10
110.72
 20
71.32
 30
0.0
 11
112.574626262
 21
72.593915786
 31
0.0
  0
LINE
  8
0
  6
CONTINUOUS
 62
     5
 10
110.72
 20
71.32
 30
0.0
 11
111.689195564
 21
73.350556564
 31
0.0
  0
LINE
  8
0
  6
CONTINUOUS
 62
     5
 10
110.72
 20
71.32
 30
0.0
 11
114.95
 21
76.27
 31
0.0
  0
LINE
  8
0
  6
CONTINUOUS
 62
     1
 10
115.4225
 20
77.935
 30
0.0
 11
115.5305
 21
78.00412
 31
0.0
  0
LINE
  8
0
  6
CONTINUOUS
 62
     1
 10
115.5305
 20
78.00412
 30
0.0
 11
115.6385
 21
78.07396
 31
0.0
  0
LINE
  8
0
  6
CONTINUOUS
 62
     1
 10
115.6385
 20
78.07396
 30
0.0
 11
115.7465
 21
78.14524
 31
0.0
  0
LINE
  8
0
  6
CONTINUOUS
 62
     1
 10
115.7465
 20
78.14524
 30
0.0
 11
115.8545
 21
78.21868
 31
0.0
  0
LINE
  8
0
  6
CONTINUOUS
 62
     1
 10
115.8545
 20
78.21868
 30
0.0
 11
115.9625
 21
78.295
 31
0.0
  0
LINE
  8
0
  6
CONTINUOUS
 62
     1
 10
115.9625
 20
78.295
 30
0.0
 11
116.07626
 21
78.38068
 31
0.0
  0
LINE
  8
0
  6
CONTINUOUS
 62
     1
 10
116.07626
 20
78.38068
 30
0.0
 11
116.18858
 21
78.46924
 31
0.0
  0
LINE
  8
0
  6
CONTINUOUS
 62
     1
 10
116.18858
 20
78.46924
 30
0.0
 11
116.29802
 21
78.55996
 31
0.0
  0
LINE
  8
0
  6
CONTINUOUS
 62
     1
 10
116.29802
 20
78.55996
 30
0.0
 11
116.40314
 21
78.65212
 31
0.0
  0
LINE
  8
0
  6
CONTINUOUS
 62
     1
 10
116.40314
 20
78.65212
 30
0.0
 11
116.5025
 21
78.745
 31
0.0
  0
LINE
  8
0
  6
CONTINUOUS
 62
     1
 10
116.5025
 20
78.745
 30
0.0
 11
116.59178
 21
78.83212
 31
0.0
  0
LINE
  8
0
  6
CONTINUOUS
 62
     1
 10
116.59178
 20
78.83212
 30
0.0
 11
116.67314
 21
78.91996
 31
0.0
  0
LINE
  8
0
  6
CONTINUOUS
 62
     1
 10
116.67314
 20
78.91996
 30
0.0
 11
116.74586
 21
79.00924
 31
0.0
  0
LINE
  8
0
  6
CONTINUOUS
 62
     1
 10
116.74586
 20
79.00924
 30
0.0
 11
116.80922
 21
79.10068
 31
0.0
  0
LINE
  8
0
  6
CONTINUOUS
 62
     1
 10
116.80922
 20
79.10068
 30
0.0
 11
116.8625
 21
79.195
 31
0.0
  0
LINE
  8
0
  6
CONTINUOUS
 62
     1
 10
116.8625
 20
79.195
 30
0.0
 11
116.89922
 21
79.30732
 31
0.0
  0
LINE
  8
0
  6
CONTINUOUS
 62
     1
 10
116.89922
 20
79.30732
 30
0.0
 11
116.92586
 21
79.42036
 31
0.0
  0
LINE
  8
0
  6
CONTINUOUS
 62
     1
 10
116.92586
 20
79.42036
 30
0.0
 11
116.94314
 21
79.53124
 31
0.0
  0
LINE
  8
0
  6
CONTINUOUS
 62
     1
 10
116.94314
 20
79.53124
 30
0.0
 11
116.95178
 21
79.63708
 31
0.0
  0
LINE
  8
0
  6
CONTINUOUS
 62
     1
 10
116.95178
 20
79.63708
 30
0.0
 11
116.9525
 21
79.735
 31
0.0
  0
LINE
  8
0
  6
CONTINUOUS
 62
     1
 10
116.9525
 20
79.735
 30
0.0
 11
116.95178
 21
79.81348
 31
0.0
  0
LINE
  8
0
  6
CONTINUOUS
 62
     1
 10
116.95178
 20
79.81348
 30
0.0
 11
116.94314
 21
79.88044
 31
0.0
  0
LINE
  8
0
  6
CONTINUOUS
 62
     1
 10
116.94314
 20
79.88044
 30
0.0
 11
116.92586
 21
79.93516
 31
0.0
  0
LINE
  8
0
  6
CONTINUOUS
 62
     1
 10
116.92586
 20
79.93516
 30
0.0
 11
116.89922
 21
79.97692
 31
0.0
  0
LINE
  8
0
  6
CONTINUOUS
 62
     1
 10
116.89922
 20
79.97692
 30
0.0
 11
116.8625
 21
80.005
 31
0.0
  0
LINE
  8
0
  6
CONTINUOUS
 62
     1
 10
116.8625
 20
80.005
 30
0.0
 11
116.7977
 21
80.01292
 31
0.0
  0
LINE
  8
0
  6
CONTINUOUS
 62
     1
 10
116.7977
 20
80.01292
 30
0.0
 11
116.7257
 21
80.00716
 31
0.0
  0
LINE
  8
0
  6
CONTINUOUS
 62
     1
 10
116.7257
 20
80.00716
 30
0.0
 11
116.6501
 21
79.98844
 31
0.0
  0
LINE
  8
0
  6
CONTINUOUS
 62
     1
 10
116.6501
 20
79.98844
 30
0.0
 11
116.5745
 21
79.95748
 31
0.0
  0
LINE
  8
0
  6
CONTINUOUS
 62
     1
 10
116.5745
 20
79.95748
 30
0.0
 11
116.5025
 21
79.915
 31
0.0
  0
LINE
  8
0
  6
CONTINUOUS
 62
     1
 10
116.5025
 20
79.915
 30
0.0
 11
116.46074
 21
79.86172
 31
0.0
  0
LINE
  8
0
  6
CONTINUOUS
 62
     1
 10
116.46074
 20
79.86172
 30
0.0
 11
116.42402
 21
79.79836
 31
0.0
  0
LINE
  8
0
  6
CONTINUOUS
 62
     1
 10
116.42402
 20
79.79836
 30
0.0
 11
116.39018
 21
79.72564
 31
0.0
  0
LINE
  8
0
  6
CONTINUOUS
 62
     1
 10
116.39018
 20
79.72564
 30
0.0
 11
116.35706
 21
79.64428
 31
0.0
  0
LINE
  8
0
  6
CONTINUOUS
 62
     1
 10
116.35706
 20
79.64428
 30
0.0
 11
116.3225
 21
79.555
 31
0.0
  0
LINE
  8
0
  6
CONTINUOUS
 62
     1
 10
116.3225
 20
79.555
 30
0.0
 11
116.26706
 21
79.45852
 31
0.0
  0
LINE
  8
0
  6
CONTINUOUS
 62
     1
 10
116.26706
 20
79.45852
 30
0.0
 11
116.21018
 21
79.35556
 31
0.0
  0
LINE
  8
0
  6
CONTINUOUS
 62
     1
 10
116.21018
 20
79.35556
 30
0.0
 11
116.15402
 21
79.24684
 31
0.0
  0
LINE
  8
0
  6
CONTINUOUS
 62
     1
 10
116.15402
 20
79.24684
 30
0.0
 11
116.10074
 21
79.13308
 31
0.0
  0
LINE
  8
0
  6
CONTINUOUS
 62
     1
 10
116.10074
 20
79.13308
 30
0.0
 11
116.0525
 21
79.015
 31
0.0
  0
LINE
  8
0
  6
CONTINUOUS
 62
     1
 10
116.0525
 20
79.015
 30
0.0
 11
116.02298
 21
78.89332
 31
0.0
  0
LINE
  8
0
  6
CONTINUOUS
 62
     1
 10
116.02298
 20
78.89332
 30
0.0
 11
115.99994
 21
78.76876
 31
0.0
  0
LINE
  8
0
  6
CONTINUOUS
 62
     1
 10
115.99994
 20
78.76876
 30
0.0
 11
115.98266
 21
78.64204
 31
0.0
  0
LINE
  8
0
  6
CONTINUOUS
 62
     1
 10
115.98266
 20
78.64204
 30
0.0
 11
115.97042
 21
78.51388
 31
0.0
  0
LINE
  8
0
  6
CONTINUOUS
 62
     1
 10
115.97042
 20
78.51388
 30
0.0
 11
115.9625
 21
78.385
 31
0.0
  0
LINE
  8
0
  6
CONTINUOUS
 62
     1
 10
115.9625
 20
78.385
 30
0.0
 11
115.95818
 21
78.25324
 31
0.0
  0
LINE
  8
0
  6
CONTINUOUS
 62
     1
 10
115.95818
 20
78.25324
 30
0.0
 11
115.95674
 21
78.12292
 31
0.0
  0
LINE
  8
0
  6
CONTINUOUS
 62
     1
 10
115.95674
 20
78.12292
 30
0.0
 11
115.95746
 21
77.99548
 31
0.0
  0
LINE
  8
0
  6
CONTINUOUS
 62
     1
 10
115.95746
 20
77.99548
 30
0.0
 11
115.95962
 21
77.87236
 31
0.0
  0
LINE
  8
0
  6
CONTINUOUS
 62
     1
 10
115.95962
 20
77.87236
 30
0.0
 11
115.9625
 21
77.755
 31
0.0
  0
LINE
  8
0
  6
CONTINUOUS
 62
     1
 10
115.9625
 20
77.755
 30
0.0
 11
115.9625
 21
77.6506
 31
0.0
  0
LINE
  8
0
  6
CONTINUOUS
 62
     1
 10
115.9625
 20
77.6506
 30
0.0
 11
115.9625
 21
77.5534
 31
0.0
  0
LINE
  8
0
  6
CONTINUOUS
 62
     1
 10
115.9625
 20
77.5534
 30
0.0
 11
115.9625
 21
77.4634
 31
0.0
  0
LINE
  8
0
  6
CONTINUOUS
 62
     1
 10
115.9625
 20
77.4634
 30
0.0
 11
115.9625
 21
77.3806
 31
0.0
  0
LINE
  8
0
  6
CONTINUOUS
 62
     1
 10
115.9625
 20
77.3806
 30
0.0
 11
115.9625
 21
77.305
 31
0.0
  0
LINE
  8
0
  6
CONTINUOUS
 62
     1
 10
115.9625
 20
77.305
 30
0.0
 11
115.95962
 21
77.20492
 31
0.0
  0
LINE
  8
0
  6
CONTINUOUS
 62
     1
 10
115.95962
 20
77.20492
 30
0.0
 11
115.95746
 21
77.11996
 31
0.0
  0
LINE
  8
0
  6
CONTINUOUS
 62
     1
 10
115.95746
 20
77.11996
 30
0.0
 11
115.95674
 21
77.05804
 31
0.0
  0
LINE
  8
0
  6
CONTINUOUS
 62
     1
 10
115.95674
 20
77.05804
 30
0.0
 11
115.95818
 21
77.02708
 31
0.0
  0
LINE
  8
0
  6
CONTINUOUS
 62
     1
 10
115.95818
 20
77.02708
 30
0.0
 11
115.9625
 21
77.035
 31
0.0
  0
LINE
  8
0
  6
CONTINUOUS
 62
     1
 10
115.9625
 20
77.035
 30
0.0
 11
115.96754
 21
77.17612
 31
0.0
  0
LINE
  8
0
  6
CONTINUOUS
 62
     1
 10
115.96754
 20
77.17612
 30
0.0
 11
115.97762
 21
77.35036
 31
0.0
  0
LINE
  8
0
  6
CONTINUOUS
 62
     1
 10
115.97762
 20
77.35036
 30
0.0
 11
115.99418
 21
77.54404
 31
0.0
  0
LINE
  8
0
  6
CONTINUOUS
 62
     1
 10
115.99418
 20
77.54404
 30
0.0
 11
116.01866
 21
77.74348
 31
0.0
  0
LINE
  8
0
  6
CONTINUOUS
 62
     1
 10
116.01866
 20
77.74348
 30
0.0
 11
116.0525
 21
77.935
 31
0.0
  0
LINE
  8
0
  6
CONTINUOUS
 62
     1
 10
116.0525
 20
77.935
 30
0.0
 11
116.11154
 21
78.04156
 31
0.0
  0
LINE
  8
0
  6
CONTINUOUS
 62
     1
 10
116.11154
 20
78.04156
 30
0.0
 11
116.17922
 21
78.12868
 31
0.0
  0
LINE
  8
0
  6
CONTINUOUS
 62
     1
 10
116.17922
 20
78.12868
 30
0.0
 11
116.25338
 21
78.19852
 31
0.0
  0
LINE
  8
0
  6
CONTINUOUS
 62
     1
 10
116.25338
 20
78.19852
 30
0.0
 11
116.33186
 21
78.25324
 31
0.0
  0
LINE
  8
0
  6
CONTINUOUS
 62
     1
 10
116.33186
 20
78.25324
 30
0.0
 11
116.4125
 21
78.295
 31
0.0
  0
LINE
  8
0
  6
CONTINUOUS
 62
     1
 10
116.4125
 20
78.295
 30
0.0
 11
116.4845
 21
78.33172
 31
0.0
  0
LINE
  8
0
  6
CONTINUOUS
 62
     1
 10
116.4845
 20
78.33172
 30
0.0
 11
116.5565
 21
78.35836
 31
0.0
  0
LINE
  8
0
  6
CONTINUOUS
 62
     1
 10
116.5565
 20
78.35836
 30
0.0
 11
116.6285
 21
78.37564
 31
0.0
  0
LINE
  8
0
  6
CONTINUOUS
 62
     1
 10
116.6285
 20
78.37564
 30
0.0
 11
116.7005
 21
78.38428
 31
0.0
  0
LINE
  8
0
  6
CONTINUOUS
 62
     1
 10
116.7005
 20
78.38428
 30
0.0
 11
116.7725
 21
78.385
 31
0.0
  0
LINE
  8
0
  6
CONTINUOUS
 62
     1
 10
116.7725
 20
78.385
 30
0.0
 11
116.85602
 21
78.38716
 31
0.0
  0
LINE
  8
0
  6
CONTINUOUS
 62
     1
 10
116.85602
 20
78.38716
 30
0.0
 11
116.93666
 21
78.38068
 31
0.0
  0
LINE
  8
0
  6
CONTINUOUS
 62
     1
 10
116.93666
 20
78.38068
 30
0.0
 11
117.01154
 21
78.36412
 31
0.0
  0
LINE
  8
0
  6
CONTINUOUS
 62
     1
 10
117.01154
 20
78.36412
 30
0.0
 11
117.07778
 21
78.33604
 31
0.0
  0
LINE
  8
0
  6
CONTINUOUS
 62
     1
 10
117.07778
 20
78.33604
 30
0.0
 11
117.1325
 21
78.295
 31
0.0
  0
LINE
  8
0
  6
CONTINUOUS
 62
     1
 10
117.1325
 20
78.295
 30
0.0
 11
117.15842
 21
78.21364
 31
0.0
  0
LINE
  8
0
  6
CONTINUOUS
 62
     1
 10
117.15842
 20
78.21364
 30
0.0
 11
117.17066
 21
78.12292
 31
0.0
  0
LINE
  8
0
  6
CONTINUOUS
 62
     1
 10
117.17066
 20
78.12292
 30
0.0
 11
117.16994
 21
78.02788
 31
0.0
  0
LINE
  8
0
  6
CONTINUOUS
 62
     1
 10
117.16994
 20
78.02788
 30
0.0
 11
117.15698
 21
77.93356
 31
0.0
  0
LINE
  8
0
  6
CONTINUOUS
 62
     1
 10
117.15698
 20
77.93356
 30
0.0
 11
117.1325
 21
77.845
 31
0.0
  0
LINE
  8
0
  6
CONTINUOUS
 62
     1
 10
117.1325
 20
77.845
 30
0.0
 11
117.09146
 21
77.7874
 31
0.0
  0
LINE
  8
0
  6
CONTINUOUS
 62
     1
 10
117.09146
 20
77.7874
 30
0.0
 11
117.04178
 21
77.7406
 31
0.0
  0
LINE
  8
0
  6
CONTINUOUS
 62
     1
 10
117.04178
 20
77.7406
 30
0.0
 11
116.98562
 21
77.7046
 31
0.0
  0
LINE
  8
0
  6
CONTINUOUS
 62
     1
 10
116.98562
 20
77.7046
 30
0.0
 11
116.92514
 21
77.6794
 31
0.0
  0
LINE
  8
0
  6
CONTINUOUS
 62
     1
 10
116.92514
 20
77.6794
 30
0.0
 11
116.8625
 21
77.665
 31
0.0
  0
LINE
  8
0
  6
CONTINUOUS
 62
     1
 10
116.8625
 20
77.665
 30
0.0
 11
116.79986
 21
77.66716
 31
0.0
  0
LINE
  8
0
  6
CONTINUOUS
 62
     1
 10
116.79986
 20
77.66716
 30
0.0
 11
116.73938
 21
77.67868
 31
0.0
  0
LINE
  8
0
  6
CONTINUOUS
 62
     1
 10
116.73938
 20
77.67868
 30
0.0
 11
116.68322
 21
77.69812
 31
0.0
  0
LINE
  8
0
  6
CONTINUOUS
 62
     1
 10
116.68322
 20
77.69812
 30
0.0
 11
116.63354
 21
77.72404
 31
0.0
  0
LINE
  8
0
  6
CONTINUOUS
 62
     1
 10
116.63354
 20
77.72404
 30
0.0
 11
116.5925
 21
77.755
 31
0.0
  0
LINE
  8
0
  6
CONTINUOUS
 62
     1
 10
116.5925
 20
77.755
 30
0.0
 11
116.57954
 21
77.80972
 31
0.0
  0
LINE
  8
0
  6
CONTINUOUS
 62
     1
 10
116.57954
 20
77.80972
 30
0.0
 11
116.57522
 21
77.86156
 31
0.0
  0
LINE
  8
0
  6
CONTINUOUS
 62
     1
 10
116.57522
 20
77.86156
 30
0.0
 11
116.57738
 21
77.90404
 31
0.0
  0
LINE
  8
0
  6
CONTINUOUS
 62
     1
 10
116.57738
 20
77.90404
 30
0.0
 11
116.58386
 21
77.93068
 31
0.0
  0
LINE
  8
0
  6
CONTINUOUS
 62
     1
 10
116.58386
 20
77.93068
 30
0.0
 11
116.5925
 21
77.935
 31
0.0
  0
LINE
  8
0
  6
CONTINUOUS
 62
     1
 10
116.5925
 20
77.935
 30
0.0
 11
116.58674
 21
77.8558
 31
0.0
  0
LINE
  8
0
  6
CONTINUOUS
 62
     1
 10
116.58674
 20
77.8558
 30
0.0
 11
116.58242
 21
77.755
 31
0.0
  0
LINE
  8
0
  6
CONTINUOUS
 62
     1
 10
116.58242
 20
77.755
 30
0.0
 11
116.58098
 21
77.6398
 31
0.0
  0
LINE
  8
0
  6
CONTINUOUS
 62
     1
 10
116.58098
 20
77.6398
 30
0.0
 11
116.58386
 21
77.5174
 31
0.0
  0
LINE
  8
0
  6
CONTINUOUS
 62
     1
 10
116.58386
 20
77.5174
 30
0.0
 11
116.5925
 21
77.395
 31
0.0
  0
LINE
  8
0
  6
CONTINUOUS
 62
     1
 10
116.5925
 20
77.395
 30
0.0
 11
116.61698
 21
77.30284
 31
0.0
  0
LINE
  8
0
  6
CONTINUOUS
 62
     1
 10
116.61698
 20
77.30284
 30
0.0
 11
116.64794
 21
77.21932
 31
0.0
  0
LINE
  8
0
  6
CONTINUOUS
 62
     1
 10
116.64794
 20
77.21932
 30
0.0
 11
116.68466
 21
77.14588
 31
0.0
  0
LINE
  8
0
  6
CONTINUOUS
 62
     1
 10
116.68466
 20
77.14588
 30
0.0
 11
116.72642
 21
77.08396
 31
0.0
  0
LINE
  8
0
  6
CONTINUOUS
 62
     1
 10
116.72642
 20
77.08396
 30
0.0
 11
116.7725
 21
77.035
 31
0.0
  0
LINE
  8
0
  6
CONTINUOUS
 62
     1
 10
116.7725
 20
77.035
 30
0.0
 11
116.82506
 21
77.01772
 31
0.0
  0
LINE
  8
0
  6
CONTINUOUS
 62
     1
 10
116.82506
 20
77.01772
 30
0.0
 11
116.87978
 21
77.01196
 31
0.0
  0
LINE
  8
0
  6
CONTINUOUS
 62
     1
 10
116.87978
 20
77.01196
 30
0.0
 11
116.93522
 21
77.01484
 31
0.0
  0
LINE
  8
0
  6
CONTINUOUS
 62
     1
 10
116.93522
 20
77.01484
 30
0.0
 11
116.98994
 21
77.02348
 31
0.0
  0
LINE
  8
0
  6
CONTINUOUS
 62
     1
 10
116.98994
 20
77.02348
 30
0.0
 11
117.0425
 21
77.035
 31
0.0
  0
LINE
  8
0
  6
CONTINUOUS
 62
     1
 10
117.0425
 20
77.035
 30
0.0
 11
117.08282
 21
77.035
 31
0.0
  0
LINE
  8
0
  6
CONTINUOUS
 62
     1
 10
117.08282
 20
77.035
 30
0.0
 11
117.12026
 21
77.035
 31
0.0
  0
LINE
  8
0
  6
CONTINUOUS
 62
     1
 10
117.12026
 20
77.035
 30
0.0
 11
117.15554
 21
77.035
 31
0.0
  0
LINE
  8
0
  6
CONTINUOUS
 62
     1
 10
117.15554
 20
77.035
 30
0.0
 11
117.18938
 21
77.035
 31
0.0
  0
LINE
  8
0
  6
CONTINUOUS
 62
     1
 10
117.18938
 20
77.035
 30
0.0
 11
117.2225
 21
77.035
 31
0.0
  0
LINE
  8
0
  6
CONTINUOUS
 62
     5
 10
114.95
 20
76.27
 30
0.0
 11
117.65
 21
76.27
 31
0.0
  0
LINE
  8
0
  6
CONTINUOUS
 62
     5
 10
111.62
 20
46.57
 30
0.0
 11
113.474626262
 21
47.843915786
 31
0.0
  0
LINE
  8
0
  6
CONTINUOUS
 62
     5
 10
111.62
 20
46.57
 30
0.0
 11
112.589195564
 21
48.600556564
 31
0.0
  0
LINE
  8
0
  6
CONTINUOUS
 62
     5
 10
111.62
 20
46.57
 30
0.0
 11
115.85
 21
51.52
 31
0.0
  0
TEXT
  8
0
  6
CONTINUOUS
 62
     6
 10
115.67
 20
52.15
 30
0.0
 40
3.6
  1
Ｋ
 50
0.0
 41
1.0
 51
0.0
  7
KANJI6
  0
LINE
  8
0
  6
CONTINUOUS
 62
     5
 10
115.85
 20
51.52
 30
0.0
 11
118.82
 21
51.52
 31
0.0
  0
LINE
  8
0
  6
CONTINUOUS
 62
     5
 10
97.67
 20
75.82
 30
0.0
 11
97.456972872
 21
78.05989273
 31
0.0
  0
LINE
  8
0
  6
CONTINUOUS
 62
     5
 10
97.67
 20
75.82
 30
0.0
 11
96.36556673
 21
77.653290442
 31
0.0
  0
LINE
  8
0
  6
CONTINUOUS
 62
     5
 10
97.67
 20
75.82
 30
0.0
 11
94.954117647
 21
83.11
 31
0.0
  0
LINE
  8
2
  6
CONTINUOUS
 62
     5
 10
115.654117647
 20
20.47
 30
0.0
 11
116.10519848
 21
22.674319868
 31
0.0
  0
LINE
  8
2
  6
CONTINUOUS
 62
     5
 10
115.654117647
 20
20.47
 30
0.0
 11
119.614117647
 21
28.39
 31
0.0
  0
LINE
  8
2
  6
CONTINUOUS
 62
     5
 10
115.654117647
 20
20.47
 30
0.0
 11
117.146925042
 21
22.153456587
 31
0.0
  0
LINE
  8
2
  6
CONTINUOUS
 62
     5
 10
121.07
 20
19.615
 30
0.0
 11
127.37
 21
19.615
 31
0.0
  0
LINE
  8
2
  6
CONTINUOUS
 62
     5
 10
125.57
 20
19.615
 30
0.0
 11
125.57
 21
20.515
 31
0.0
  0
LINE
  8
2
  6
CONTINUOUS
 62
     5
 10
121.07
 20
20.515
 30
0.0
 11
127.37
 21
20.515
 31
0.0
  0
TEXT
  8
2
  6
CONTINUOUS
 62
     2
 10
124.67
 20
19.255
 30
0.27
 40
2.7
  1
ｔ
 50
90.0
 41
0.6
 51
0.0
  7
KANJI7
  0
LINE
  8
2
  6
CONTINUOUS
 62
     5
 10
125.57
 20
19.615
 30
0.0
 11
125.20826859
 21
18.265
 31
0.0
  0
LINE
  8
2
  6
CONTINUOUS
 62
     5
 10
125.57
 20
19.615
 30
0.0
 11
125.93173141
 21
18.265
 31
0.0
  0
LINE
  8
2
  6
CONTINUOUS
 62
     5
 10
125.57
 20
17.95
 30
0.0
 11
125.57
 21
19.615
 31
0.0
  0
LINE
  8
2
  6
CONTINUOUS
 62
     5
 10
125.57
 20
20.515
 30
0.0
 11
125.57
 21
22.99
 31
0.0
  0
LINE
  8
2
  6
CONTINUOUS
 62
     5
 10
125.57
 20
20.515
 30
0.0
 11
125.20826859
 21
21.865
 31
0.0
  0
LINE
  8
2
  6
CONTINUOUS
 62
     5
 10
125.57
 20
20.515
 30
0.0
 11
125.93173141
 21
21.865
 31
0.0
  0
TEXT
  8
0
  6
CONTINUOUS
 62
     2
 10
94.954117647
 20
84.01
 30
0.27
 40
2.7
  1
Ｍ５　六角ネジ（黄銅）
 50
0.0
 41
0.9
 51
0.0
  7
KANJI9
  0
LINE
  8
0
  6
CONTINUOUS
 62
     5
 10
121.74
 20
83.11
 30
0.0
 11
94.954117647
 21
83.11
 31
0.0
  0
TEXT
  8
2
  6
CONTINUOUS
 62
     2
 10
101.27
 20
50.485
 30
0.27
 40
2.7
  1
銘　板
 50
270.0
 41
0.9
 51
0.0
  7
KANJI9
  0
TEXT
  8
2
  6
CONTINUOUS
 62
     2
 10
119.704117647
 20
29.29
 30
0.27
 40
2.7
  1
鉄　板
 50
0.0
 41
0.9
 51
0.0
  7
KANJI9
  0
LINE
  8
2
  6
CONTINUOUS
 62
     5
 10
119.614117647
 20
28.39
 30
0.0
 11
129.24
 21
28.39
 31
0.0
  0
ARC
  8
0
  6
CONTINUOUS
 62
     1
 10
26.40760578
 20
121.484615538
 30
0.0
 40
1.157190802
 50
90.0
 51
181.527525441
  0
ARC
  8
0
  6
CONTINUOUS
 62
     1
 10
28.19739422
 20
121.484615538
 30
0.0
 40
1.157190802
 50
0.0
 51
90.0
  0
LINE
  8
0
  6
CONTINUOUS
 62
     1
 10
28.19739422
 20
122.64180634
 30
0.0
 11
26.40760578
 21
122.64180634
 31
0.0
  0
LINE
  8
0
  6
CONTINUOUS
 62
     1
 10
27.641942635
 20
122.533801865
 30
0.0
 11
27.055632629
 21
122.533801865
 31
0.0
  0
LINE
  8
0
  6
CONTINUOUS
 62
     1
 10
29.354585022
 20
121.021739217
 30
0.0
 11
29.354585022
 21
121.500044749
 31
0.0
  0
LINE
  8
0
  6
CONTINUOUS
 62
     1
 10
25.281273399
 20
121.500044749
 30
0.0
 11
25.250414978
 21
121.021739217
 31
0.0
  0
LINE
  8
0
  6
CONTINUOUS
 62
     1
 10
29.354585022
 20
121.021739217
 30
0.0
 11
25.250414978
 21
121.021739217
 31
0.0
  0
LINE
  8
0
  6
CONTINUOUS
 62
     2
 10
25.250414978
 20
120.42
 30
0.0
 11
25.250414978
 21
121.006310006
 31
0.0
  0
LINE
  8
0
  6
CONTINUOUS
 62
     2
 10
27.117349472
 20
120.42
 30
0.0
 11
27.595655003
 21
121.006310006
 31
0.0
  0
LINE
  8
0
  6
CONTINUOUS
 62
     2
 10
26.747048415
 20
120.42
 30
0.0
 11
27.194495525
 21
121.021739217
 31
0.0
  0
LINE
  8
0
  6
CONTINUOUS
 62
     2
 10
27.626513425
 20
122.64180634
 30
0.0
 11
27.626513425
 21
122.533801865
 31
0.0
  0
LINE
  8
0
  6
CONTINUOUS
 62
     2
 10
27.055632629
 20
122.533801865
 30
0.0
 11
27.055632629
 21
122.626377129
 31
0.0
  0
LINE
  8
0
  6
CONTINUOUS
 62
     2
 10
29.354585022
 20
120.423239217
 30
0.0
 11
29.354585022
 21
121.021739217
 31
0.0
  0
LINE
  8
0
  6
CONTINUOUS
 62
     2
 10
29.355518444
 20
120.42
 30
0.0
 11
25.250414978
 21
120.42
 31
0.0
  0
ARC
  8
0
  6
CONTINUOUS
 62
     1
 10
47.23239422
 20
121.484615538
 30
0.0
 40
1.157190802
 50
358.472474559
 51
90.0
  0
ARC
  8
0
  6
CONTINUOUS
 62
     1
 10
45.44260578
 20
121.484615538
 30
0.0
 40
1.157190802
 50
90.0
 51
180.0
  0
LINE
  8
0
  6
CONTINUOUS
 62
     1
 10
45.44260578
 20
122.64180634
 30
0.0
 11
47.23239422
 21
122.64180634
 31
0.0
  0
LINE
  8
0
  6
CONTINUOUS
 62
     1
 10
45.998057365
 20
122.533801865
 30
0.0
 11
46.584367371
 21
122.533801865
 31
0.0
  0
LINE
  8
0
  6
CONTINUOUS
 62
     1
 10
44.285414978
 20
121.021739217
 30
0.0
 11
44.285414978
 21
121.500044749
 31
0.0
  0
LINE
  8
0
  6
CONTINUOUS
 62
     1
 10
48.358726601
 20
121.500044749
 30
0.0
 11
48.389585022
 21
121.021739217
 31
0.0
  0
LINE
  8
0
  6
CONTINUOUS
 62
     1
 10
44.285414978
 20
121.021739217
 30
0.0
 11
48.389585022
 21
121.021739217
 31
0.0
  0
LINE
  8
0
  6
CONTINUOUS
 62
     2
 10
48.389585022
 20
120.42
 30
0.0
 11
48.389585022
 21
121.006310006
 31
0.0
  0
LINE
  8
0
  6
CONTINUOUS
 62
     2
 10
46.522650528
 20
120.42
 30
0.0
 11
46.044344997
 21
121.006310006
 31
0.0
  0
LINE
  8
0
  6
CONTINUOUS
 62
     2
 10
46.892951585
 20
120.42
 30
0.0
 11
46.445504475
 21
121.021739217
 31
0.0
  0
LINE
  8
0
  6
CONTINUOUS
 62
     2
 10
46.013486575
 20
122.64180634
 30
0.0
 11
46.013486575
 21
122.533801865
 31
0.0
  0
LINE
  8
0
  6
CONTINUOUS
 62
     2
 10
46.584367371
 20
122.533801865
 30
0.0
 11
46.584367371
 21
122.626377129
 31
0.0
  0
LINE
  8
0
  6
CONTINUOUS
 62
     2
 10
44.285414978
 20
120.423239217
 30
0.0
 11
44.285414978
 21
121.021739217
 31
0.0
  0
LINE
  8
0
  6
CONTINUOUS
 62
     2
 10
44.284481556
 20
120.42
 30
0.0
 11
48.389585022
 21
120.42
 31
0.0
  0
LINE
  8
0
  6
LTYPE2
 62
     5
 10
54.37
 20
110.52
 30
0.0
 11
18.37
 21
110.52
 31
0.0
  0
LINE
  8
0
  6
LTYPE2
 62
     5
 10
36.82
 20
124.92
 30
0.0
 11
36.82
 21
96.12
 31
0.0
  0
LINE
  8
0
  6
LTYPE2
 62
     5
 10
27.3025
 20
118.321739217
 30
0.0
 11
27.3025
 21
123.721739217
 31
0.0
  0
LINE
  8
0
  6
LTYPE2
 62
     5
 10
16.075
 20
125.82
 30
0.0
 11
20.215
 21
125.82
 31
0.0
  0
LINE
  8
0
  6
LTYPE2
 62
     5
 10
18.145
 20
127.89
 30
0.0
 11
18.145
 21
123.75
 31
0.0
  0
LINE
  8
0
  6
LTYPE2
 62
     5
 10
46.3375
 20
118.321739217
 30
0.0
 11
46.3375
 21
123.721739217
 31
0.0
  0
LINE
  8
0
  6
CONTINUOUS
 62
     1
 10
22.42
 20
119.52
 30
0.0
 11
22.42
 21
101.52
 31
0.0
  0
LINE
  8
0
  6
CONTINUOUS
 62
     1
 10
50.32
 20
101.52
 30
0.0
 11
50.32
 21
119.52
 31
0.0
  0
LINE
  8
0
  6
CONTINUOUS
 62
     1
 10
50.32
 20
119.52
 30
0.0
 11
22.42
 21
119.52
 31
0.0
  0
LINE
  8
0
  6
CONTINUOUS
 62
     1
 10
41.32
 20
119.52
 30
0.0
 11
41.32
 21
101.52
 31
0.0
  0
LINE
  8
0
  6
CONTINUOUS
 62
     1
 10
32.32
 20
119.52
 30
0.0
 11
32.32
 21
101.52
 31
0.0
  0
LINE
  8
0
  6
CONTINUOUS
 62
     1
 10
41.32
 20
111.87
 30
0.0
 11
32.32
 21
111.87
 31
0.0
  0
LINE
  8
0
  6
CONTINUOUS
 62
     1
 10
41.32
 20
109.17
 30
0.0
 11
32.32
 21
109.17
 31
0.0
  0
LINE
  8
0
  6
CONTINUOUS
 62
     2
 10
41.32
 20
108.27
 30
0.0
 11
32.32
 21
108.27
 31
0.0
  0
LINE
  8
0
  6
CONTINUOUS
 62
     2
 10
32.32
 20
112.77
 30
0.0
 11
41.32
 21
112.77
 31
0.0
  0
LINE
  8
0
  6
CONTINUOUS
 62
     2
 10
38.845572063
 20
115.47
 30
0.0
 11
37.832786031
 21
117.224196863
 31
0.0
  0
LINE
  8
0
  6
CONTINUOUS
 62
     2
 10
37.832786031
 20
117.224196863
 30
0.0
 11
35.807213969
 21
117.224196863
 31
0.0
  0
LINE
  8
0
  6
CONTINUOUS
 62
     2
 10
35.807213969
 20
117.224196863
 30
0.0
 11
34.794427938
 21
115.47
 31
0.0
  0
LINE
  8
0
  6
CONTINUOUS
 62
     2
 10
34.794427938
 20
115.47
 30
0.0
 11
35.807213969
 21
113.715803137
 31
0.0
  0
LINE
  8
0
  6
CONTINUOUS
 62
     2
 10
35.807213969
 20
113.715803137
 30
0.0
 11
37.832786031
 21
113.715803137
 31
0.0
  0
LINE
  8
0
  6
CONTINUOUS
 62
     2
 10
37.832786031
 20
113.715803137
 30
0.0
 11
38.845572063
 21
115.47
 31
0.0
  0
LINE
  8
0
  6
CONTINUOUS
 62
     2
 10
37.060975
 20
117.224196863
 30
0.0
 11
37.060975
 21
113.715803137
 31
0.0
  0
LINE
  8
0
  6
CONTINUOUS
 62
     2
 10
36.579025
 20
117.224196863
 30
0.0
 11
36.579025
 21
113.715803137
 31
0.0
  0
CIRCLE
  8
0
  6
CONTINUOUS
 62
     2
 10
36.82
 20
115.47
 30
0.0
 40
1.71
  0
LINE
  8
0
  6
CONTINUOUS
 62
     2
 10
38.845572063
 20
105.57
 30
0.0
 11
37.832786031
 21
107.324196863
 31
0.0
  0
LINE
  8
0
  6
CONTINUOUS
 62
     2
 10
37.832786031
 20
107.324196863
 30
0.0
 11
35.807213969
 21
107.324196863
 31
0.0
  0
LINE
  8
0
  6
CONTINUOUS
 62
     2
 10
35.807213969
 20
107.324196863
 30
0.0
 11
34.794427938
 21
105.57
 31
0.0
  0
LINE
  8
0
  6
CONTINUOUS
 62
     2
 10
34.794427938
 20
105.57
 30
0.0
 11
35.807213969
 21
103.815803137
 31
0.0
  0
LINE
  8
0
  6
CONTINUOUS
 62
     2
 10
35.807213969
 20
103.815803137
 30
0.0
 11
37.832786031
 21
103.815803137
 31
0.0
  0
LINE
  8
0
  6
CONTINUOUS
 62
     2
 10
37.832786031
 20
103.815803137
 30
0.0
 11
38.845572063
 21
105.57
 31
0.0
  0
LINE
  8
0
  6
CONTINUOUS
 62
     2
 10
37.060975
 20
107.324196863
 30
0.0
 11
37.060975
 21
103.815803137
 31
0.0
  0
LINE
  8
0
  6
CONTINUOUS
 62
     2
 10
36.579025
 20
107.324196863
 30
0.0
 11
36.579025
 21
103.815803137
 31
0.0
  0
CIRCLE
  8
0
  6
CONTINUOUS
 62
     2
 10
36.82
 20
105.57
 30
0.0
 40
1.71
  0
LINE
  8
0
  6
LTYPE1
 62
     5
 10
34.12
 20
105.57
 30
0.0
 11
39.52
 21
105.57
 31
0.0
  0
LINE
  8
0
  6
LTYPE1
 62
     5
 10
34.12
 20
115.47
 30
0.0
 11
39.52
 21
115.47
 31
0.0
  0
CIRCLE
  8
0
  6
CONTINUOUS
 62
     1
 10
18.145
 20
125.82
 30
0.0
 40
1.35
  0
LINE
  8
0
  6
CONTINUOUS
 62
     1
 10
15.445
 20
121.77
 30
0.0
 11
15.445
 21
125.37
 31
0.0
  0
LINE
  8
0
  6
CONTINUOUS
 62
     1
 10
18.595
 20
119.52
 30
0.0
 11
18.595
 21
120.87
 31
0.0
  0
LINE
  8
0
  6
CONTINUOUS
 62
     1
 10
18.595
 20
120.87
 30
0.0
 11
15.445
 21
121.77
 31
0.0
  0
LINE
  8
0
  6
CONTINUOUS
 62
     1
 10
18.145
 20
128.07
 30
0.0
 11
32.32
 21
122.22
 31
0.0
  0
ARC
  8
0
  6
CONTINUOUS
 62
     1
 10
18.145
 20
125.37
 30
0.0
 40
2.7
 50
90.0
 51
180.0
  0
LINE
  8
0
  6
CONTINUOUS
 62
     1
 10
32.32
 20
122.22
 30
0.0
 11
41.32
 21
122.22
 31
0.0
  0
CIRCLE
  8
0
  6
CONTINUOUS
 62
     1
 10
55.495
 20
125.82
 30
0.0
 40
1.35
  0
LINE
  8
0
  6
CONTINUOUS
 62
     1
 10
58.195
 20
121.77
 30
0.0
 11
58.195
 21
125.37
 31
0.0
  0
ARC
  8
0
  6
CONTINUOUS
 62
     1
 10
55.495
 20
125.37
 30
0.0
 40
2.7
 50
0.0
 51
90.0
  0
LINE
  8
0
  6
CONTINUOUS
 62
     1
 10
55.495
 20
128.07
 30
0.0
 11
41.32
 21
122.22
 31
0.0
  0
LINE
  8
0
  6
CONTINUOUS
 62
     1
 10
55.045
 20
119.52
 30
0.0
 11
55.045
 21
120.87
 31
0.0
  0
LINE
  8
0
  6
CONTINUOUS
 62
     1
 10
18.595
 20
119.52
 30
0.0
 11
55.045
 21
119.52
 31
0.0
  0
LINE
  8
0
  6
CONTINUOUS
 62
     1
 10
18.595
 20
120.42
 30
0.0
 11
55.045
 21
120.42
 31
0.0
  0
LINE
  8
0
  6
CONTINUOUS
 62
     1
 10
55.045
 20
120.87
 30
0.0
 11
58.195
 21
121.77
 31
0.0
  0
LINE
  8
0
  6
LTYPE2
 62
     5
 10
57.565
 20
125.82
 30
0.0
 11
53.425
 21
125.82
 31
0.0
  0
LINE
  8
0
  6
LTYPE2
 62
     5
 10
55.495
 20
127.89
 30
0.0
 11
55.495
 21
123.75
 31
0.0
  0
ARC
  8
0
  6
CONTINUOUS
 62
     1
 10
26.40760578
 20
99.555384462
 30
0.0
 40
1.157190802
 50
178.472474559
 51
270.0
  0
ARC
  8
0
  6
CONTINUOUS
 62
     1
 10
28.19739422
 20
99.555384462
 30
0.0
 40
1.157190802
 50
270.0
 51
0.0
  0
LINE
  8
0
  6
CONTINUOUS
 62
     1
 10
28.19739422
 20
98.39819366
 30
0.0
 11
26.40760578
 21
98.39819366
 31
0.0
  0
LINE
  8
0
  6
CONTINUOUS
 62
     1
 10
27.641942635
 20
98.506198135
 30
0.0
 11
27.055632629
 21
98.506198135
 31
0.0
  0
LINE
  8
0
  6
CONTINUOUS
 62
     1
 10
29.354585022
 20
100.018260783
 30
0.0
 11
29.354585022
 21
99.539955251
 31
0.0
  0
LINE
  8
0
  6
CONTINUOUS
 62
     1
 10
25.281273399
 20
99.539955251
 30
0.0
 11
25.250414978
 21
100.018260783
 31
0.0
  0
LINE
  8
0
  6
CONTINUOUS
 62
     1
 10
29.354585022
 20
100.018260783
 30
0.0
 11
25.250414978
 21
100.018260783
 31
0.0
  0
LINE
  8
0
  6
CONTINUOUS
 62
     2
 10
25.250414978
 20
100.62
 30
0.0
 11
25.250414978
 21
100.033689994
 31
0.0
  0
LINE
  8
0
  6
CONTINUOUS
 62
     2
 10
27.117349472
 20
100.62
 30
0.0
 11
27.595655003
 21
100.033689994
 31
0.0
  0
LINE
  8
0
  6
CONTINUOUS
 62
     2
 10
26.747048415
 20
100.62
 30
0.0
 11
27.194495525
 21
100.018260783
 31
0.0
  0
LINE
  8
0
  6
CONTINUOUS
 62
     2
 10
27.626513425
 20
98.39819366
 30
0.0
 11
27.626513425
 21
98.506198135
 31
0.0
  0
LINE
  8
0
  6
CONTINUOUS
 62
     2
 10
27.055632629
 20
98.506198135
 30
0.0
 11
27.055632629
 21
98.413622871
 31
0.0
  0
LINE
  8
0
  6
CONTINUOUS
 62
     2
 10
29.354585022
 20
100.616760783
 30
0.0
 11
29.354585022
 21
100.018260783
 31
0.0
  0
LINE
  8
0
  6
CONTINUOUS
 62
     2
 10
29.355518444
 20
100.62
 30
0.0
 11
25.250414978
 21
100.62
 31
0.0
  0
ARC
  8
0
  6
CONTINUOUS
 62
     1
 10
47.23239422
 20
99.555384462
 30
0.0
 40
1.157190802
 50
270.0
 51
1.527525441
  0
ARC
  8
0
  6
CONTINUOUS
 62
     1
 10
45.44260578
 20
99.555384462
 30
0.0
 40
1.157190802
 50
180.0
 51
270.0
  0
LINE
  8
0
  6
CONTINUOUS
 62
     1
 10
45.44260578
 20
98.39819366
 30
0.0
 11
47.23239422
 21
98.39819366
 31
0.0
  0
LINE
  8
0
  6
CONTINUOUS
 62
     1
 10
45.998057365
 20
98.506198135
 30
0.0
 11
46.584367371
 21
98.506198135
 31
0.0
  0
LINE
  8
0
  6
CONTINUOUS
 62
     1
 10
44.285414978
 20
100.018260783
 30
0.0
 11
44.285414978
 21
99.539955251
 31
0.0
  0
LINE
  8
0
  6
CONTINUOUS
 62
     1
 10
48.358726601
 20
99.539955251
 30
0.0
 11
48.389585022
 21
100.018260783
 31
0.0
  0
LINE
  8
0
  6
CONTINUOUS
 62
     1
 10
44.285414978
 20
100.018260783
 30
0.0
 11
48.389585022
 21
100.018260783
 31
0.0
  0
LINE
  8
0
  6
CONTINUOUS
 62
     2
 10
48.389585022
 20
100.62
 30
0.0
 11
48.389585022
 21
100.033689994
 31
0.0
  0
LINE
  8
0
  6
CONTINUOUS
 62
     2
 10
46.522650528
 20
100.62
 30
0.0
 11
46.044344997
 21
100.033689994
 31
0.0
  0
LINE
  8
0
  6
CONTINUOUS
 62
     2
 10
46.892951585
 20
100.62
 30
0.0
 11
46.445504475
 21
100.018260783
 31
0.0
  0
LINE
  8
0
  6
CONTINUOUS
 62
     2
 10
46.013486575
 20
98.39819366
 30
0.0
 11
46.013486575
 21
98.506198135
 31
0.0
  0
LINE
  8
0
  6
CONTINUOUS
 62
     2
 10
46.584367371
 20
98.506198135
 30
0.0
 11
46.584367371
 21
98.413622871
 31
0.0
  0
LINE
  8
0
  6
CONTINUOUS
 62
     2
 10
44.285414978
 20
100.616760783
 30
0.0
 11
44.285414978
 21
100.018260783
 31
0.0
  0
LINE
  8
0
  6
CONTINUOUS
 62
     2
 10
44.284481556
 20
100.62
 30
0.0
 11
48.389585022
 21
100.62
 31
0.0
  0
LINE
  8
0
  6
LTYPE2
 62
     5
 10
27.3025
 20
102.718260783
 30
0.0
 11
27.3025
 21
97.318260783
 31
0.0
  0
LINE
  8
0
  6
LTYPE2
 62
     5
 10
16.075
 20
95.22
 30
0.0
 11
20.215
 21
95.22
 31
0.0
  0
LINE
  8
0
  6
LTYPE2
 62
     5
 10
18.145
 20
93.15
 30
0.0
 11
18.145
 21
97.29
 31
0.0
  0
LINE
  8
0
  6
LTYPE2
 62
     5
 10
46.3375
 20
102.718260783
 30
0.0
 11
46.3375
 21
97.318260783
 31
0.0
  0
LINE
  8
0
  6
CONTINUOUS
 62
     1
 10
50.32
 20
101.52
 30
0.0
 11
22.42
 21
101.52
 31
0.0
  0
CIRCLE
  8
0
  6
CONTINUOUS
 62
     1
 10
18.145
 20
95.22
 30
0.0
 40
1.35
  0
LINE
  8
0
  6
CONTINUOUS
 62
     1
 10
15.445
 20
99.27
 30
0.0
 11
15.445
 21
95.67
 31
0.0
  0
LINE
  8
0
  6
CONTINUOUS
 62
     1
 10
18.595
 20
101.52
 30
0.0
 11
18.595
 21
100.17
 31
0.0
  0
LINE
  8
0
  6
CONTINUOUS
 62
     1
 10
18.595
 20
100.17
 30
0.0
 11
15.445
 21
99.27
 31
0.0
  0
LINE
  8
0
  6
CONTINUOUS
 62
     1
 10
18.145
 20
92.97
 30
0.0
 11
32.32
 21
98.82
 31
0.0
  0
ARC
  8
0
  6
CONTINUOUS
 62
     1
 10
18.145
 20
95.67
 30
0.0
 40
2.7
 50
180.0
 51
270.0
  0
LINE
  8
0
  6
CONTINUOUS
 62
     1
 10
32.32
 20
98.82
 30
0.0
 11
41.32
 21
98.82
 31
0.0
  0
CIRCLE
  8
0
  6
CONTINUOUS
 62
     1
 10
55.495
 20
95.22
 30
0.0
 40
1.35
  0
LINE
  8
0
  6
CONTINUOUS
 62
     1
 10
58.195
 20
99.27
 30
0.0
 11
58.195
 21
95.67
 31
0.0
  0
ARC
  8
0
  6
CONTINUOUS
 62
     1
 10
55.495
 20
95.67
 30
0.0
 40
2.7
 50
270.0
 51
0.0
  0
LINE
  8
0
  6
CONTINUOUS
 62
     1
 10
55.495
 20
92.97
 30
0.0
 11
41.32
 21
98.82
 31
0.0
  0
LINE
  8
0
  6
CONTINUOUS
 62
     1
 10
55.045
 20
101.52
 30
0.0
 11
55.045
 21
100.17
 31
0.0
  0
LINE
  8
0
  6
CONTINUOUS
 62
     1
 10
18.595
 20
101.52
 30
0.0
 11
55.045
 21
101.52
 31
0.0
  0
LINE
  8
0
  6
CONTINUOUS
 62
     1
 10
18.595
 20
100.62
 30
0.0
 11
55.045
 21
100.62
 31
0.0
  0
LINE
  8
0
  6
CONTINUOUS
 62
     1
 10
55.045
 20
100.17
 30
0.0
 11
58.195
 21
99.27
 31
0.0
  0
LINE
  8
0
  6
LTYPE2
 62
     5
 10
57.565
 20
95.22
 30
0.0
 11
53.425
 21
95.22
 31
0.0
  0
LINE
  8
0
  6
LTYPE2
 62
     5
 10
55.495
 20
93.15
 30
0.0
 11
55.495
 21
97.29
 31
0.0
  0
LINE
  8
0
  6
CONTINUOUS
 62
     5
 10
18.145
 20
93.15
 30
0.0
 11
18.145
 21
88.92
 31
0.0
  0
LINE
  8
0
  6
CONTINUOUS
 62
     5
 10
18.145
 20
90.72
 30
0.0
 11
20.318333109
 21
90.137657149
 31
0.0
  0
LINE
  8
0
  6
CONTINUOUS
 62
     5
 10
18.145
 20
90.72
 30
0.0
 11
20.318333109
 21
91.302342851
 31
0.0
  0
LINE
  8
0
  6
CONTINUOUS
 62
     5
 10
18.145
 20
90.72
 30
0.0
 11
55.495
 21
90.72
 31
0.0
  0
LINE
  8
0
  6
CONTINUOUS
 62
     5
 10
55.495
 20
90.72
 30
0.0
 11
53.321666891
 21
91.302342851
 31
0.0
  0
LINE
  8
0
  6
CONTINUOUS
 62
     5
 10
55.495
 20
90.72
 30
0.0
 11
53.321666891
 21
90.137657149
 31
0.0
  0
LINE
  8
0
  6
CONTINUOUS
 62
     5
 10
55.495
 20
92.97
 30
0.0
 11
55.495
 21
88.92
 31
0.0
  0
TEXT
  8
0
  6
CONTINUOUS
 62
     2
 10
34.957
 20
91.62
 30
0.27
 40
2.7
  1
Ｊ
 50
0.0
 41
0.6
 51
0.0
  7
KANJI7
  0
TEXT
  8
0
  6
CONTINUOUS
 62
     2
 10
36.982
 20
91.62
 30
0.162
 40
1.62
  1
±１
 50
0.0
 41
0.6
 51
0.0
  7
KANJI8
  0
LINE
  8
0
  6
CONTINUOUS
 62
     5
 10
55.945
 20
119.52
 30
0.0
 11
62.92
 21
119.52
 31
0.0
  0
LINE
  8
0
  6
CONTINUOUS
 62
     5
 10
61.12
 20
119.52
 30
0.0
 11
60.537657149
 21
117.346666891
 31
0.0
  0
LINE
  8
0
  6
CONTINUOUS
 62
     5
 10
61.12
 20
119.52
 30
0.0
 11
61.702342851
 21
117.346666891
 31
0.0
  0
LINE
  8
0
  6
CONTINUOUS
 62
     5
 10
61.12
 20
119.52
 30
0.0
 11
61.12
 21
101.52
 31
0.0
  0
LINE
  8
0
  6
CONTINUOUS
 62
     5
 10
61.12
 20
101.52
 30
0.0
 11
61.702342851
 21
103.693333109
 31
0.0
  0
LINE
  8
0
  6
CONTINUOUS
 62
     5
 10
61.12
 20
101.52
 30
0.0
 11
60.537657149
 21
103.693333109
 31
0.0
  0
LINE
  8
0
  6
CONTINUOUS
 62
     5
 10
55.945
 20
101.52
 30
0.0
 11
62.92
 21
101.52
 31
0.0
  0
TEXT
  8
0
  6
CONTINUOUS
 62
     2
 10
60.22
 20
109.71
 30
0.27
 40
2.7
  1
Ｄ
 50
90.0
 41
0.6
 51
0.0
  7
KANJI7
  0
LINE
  8
0
  6
CONTINUOUS
 62
     5
 10
58.465
 20
125.82
 30
0.0
 11
68.32
 21
125.82
 31
0.0
  0
LINE
  8
0
  6
CONTINUOUS
 62
     5
 10
66.52
 20
125.82
 30
0.0
 11
65.937657149
 21
123.646666891
 31
0.0
  0
LINE
  8
0
  6
CONTINUOUS
 62
     5
 10
66.52
 20
125.82
 30
0.0
 11
67.102342851
 21
123.646666891
 31
0.0
  0
LINE
  8
0
  6
CONTINUOUS
 62
     5
 10
66.52
 20
125.82
 30
0.0
 11
66.52
 21
95.22
 31
0.0
  0
LINE
  8
0
  6
CONTINUOUS
 62
     5
 10
66.52
 20
95.22
 30
0.0
 11
67.102342851
 21
97.393333109
 31
0.0
  0
LINE
  8
0
  6
CONTINUOUS
 62
     5
 10
66.52
 20
95.22
 30
0.0
 11
65.937657149
 21
97.393333109
 31
0.0
  0
LINE
  8
0
  6
CONTINUOUS
 62
     5
 10
58.465
 20
95.22
 30
0.0
 11
68.32
 21
95.22
 31
0.0
  0
TEXT
  8
0
  6
CONTINUOUS
 62
     2
 10
65.62
 20
108.657
 30
0.27
 40
2.7
  1
Ｃ
 50
90.0
 41
0.6
 51
0.0
  7
KANJI7
  0
TEXT
  8
0
  6
CONTINUOUS
 62
     2
 10
65.62
 20
110.682
 30
0.162
 40
1.62
  1
±２
 50
90.0
 41
0.6
 51
0.0
  7
KANJI8
  0
LINE
  8
0
  6
CONTINUOUS
 62
     5
 10
56.395
 20
92.97
 30
0.0
 11
73.72
 21
92.97
 31
0.0
  0
LINE
  8
0
  6
CONTINUOUS
 62
     5
 10
71.92
 20
92.97
 30
0.0
 11
72.502342851
 21
95.143333109
 31
0.0
  0
LINE
  8
0
  6
CONTINUOUS
 62
     5
 10
71.92
 20
92.97
 30
0.0
 11
71.337657149
 21
95.143333109
 31
0.0
  0
LINE
  8
0
  6
CONTINUOUS
 62
     5
 10
71.92
 20
92.97
 30
0.0
 11
71.92
 21
128.07
 31
0.0
  0
LINE
  8
0
  6
CONTINUOUS
 62
     5
 10
56.395
 20
128.07
 30
0.0
 11
73.72
 21
128.07
 31
0.0
  0
TEXT
  8
0
  6
CONTINUOUS
 62
     2
 10
71.02
 20
109.71
 30
0.27
 40
2.7
  1
Ｂ
 50
90.0
 41
0.6
 51
0.0
  7
KANJI7
  0
LINE
  8
2
  6
CONTINUOUS
 62
     5
 10
61.705
 20
85.32
 30
0.0
 11
72.235
 21
85.32
 31
0.0
  0
TEXT
  8
2
  6
CONTINUOUS
 62
     2
 10
61.705
 20
86.22
 30
0.27
 40
2.7
  1
４－φｄ
 50
0.0
 41
0.9
 51
0.0
  7
KANJI9
  0
LINE
  8
2
  6
CONTINUOUS
 62
     5
 10
56.21236667
 20
94.076371975
 30
0.0
 11
56.873917138
 21
91.925825305
 31
0.0
  0
LINE
  8
2
  6
CONTINUOUS
 62
     5
 10
56.21236667
 20
94.076371975
 30
0.0
 11
57.860559516
 21
92.54471916
 31
0.0
  0
LINE
  8
2
  6
CONTINUOUS
 62
     5
 10
56.21236667
 20
94.076371975
 30
0.0
 11
61.705
 21
85.32
 31
0.0
  0
LINE
  8
2
  6
CONTINUOUS
 62
     5
 10
15.445
 20
94.77
 30
0.0
 11
15.445
 21
84.87
 31
0.0
  0
LINE
  8
2
  6
CONTINUOUS
 62
     5
 10
15.445
 20
86.67
 30
0.0
 11
17.618333109
 21
86.087657149
 31
0.0
  0
LINE
  8
2
  6
CONTINUOUS
 62
     5
 10
15.445
 20
86.67
 30
0.0
 11
17.618333109
 21
87.252342851
 31
0.0
  0
LINE
  8
2
  6
CONTINUOUS
 62
     5
 10
15.445
 20
86.67
 30
0.0
 11
58.195
 21
86.67
 31
0.0
  0
TEXT
  8
2
  6
CONTINUOUS
 62
     2
 10
36.01
 20
87.57
 30
0.27
 40
2.7
  1
Ｌ
 50
0.0
 41
0.6
 51
0.0
  7
KANJI7
  0
LINE
  8
2
  6
CONTINUOUS
 62
     5
 10
58.195
 20
86.67
 30
0.0
 11
56.021666891
 21
87.252342851
 31
0.0
  0
LINE
  8
2
  6
CONTINUOUS
 62
     5
 10
58.195
 20
86.67
 30
0.0
 11
56.021666891
 21
86.087657149
 31
0.0
  0
LINE
  8
2
  6
CONTINUOUS
 62
     5
 10
58.195
 20
95.22
 30
0.0
 11
58.195
 21
84.87
 31
0.0
  0
LINE
  8
0
  6
CONTINUOUS
 62
     5
 10
23.32
 20
81.62
 30
0.0
 11
25.493333109
 21
81.037657149
 31
0.0
  0
LINE
  8
0
  6
CONTINUOUS
 62
     5
 10
23.32
 20
81.62
 30
0.0
 11
25.493333109
 21
82.202342851
 31
0.0
  0
LINE
  8
0
  6
CONTINUOUS
 62
     5
 10
23.32
 20
81.62
 30
0.0
 11
50.32
 21
81.62
 31
0.0
  0
LINE
  8
0
  6
CONTINUOUS
 62
     5
 10
50.32
 20
81.62
 30
0.0
 11
48.146666891
 21
82.202342851
 31
0.0
  0
LINE
  8
0
  6
CONTINUOUS
 62
     5
 10
50.32
 20
81.62
 30
0.0
 11
48.146666891
 21
81.037657149
 31
0.0
  0
TEXT
  8
0
  6
CONTINUOUS
 62
     2
 10
36.01
 20
82.52
 30
0.27
 40
2.7
  1
Ｇ
 50
0.0
 41
0.6
 51
0.0
  7
KANJI7
  0
LINE
  8
0
  6
CONTINUOUS
 62
     5
 10
26.92
 20
66.595
 30
0.0
 11
26.92
 21
79.595
 31
0.0
  0
LINE
  8
0
  6
CONTINUOUS
 62
     5
 10
46.72
 20
66.595
 30
0.0
 11
46.72
 21
79.595
 31
0.0
  0
LINE
  8
0
  6
CONTINUOUS
 62
     5
 10
26.92
 20
77.62
 30
0.0
 11
29.093333109
 21
77.037657149
 31
0.0
  0
LINE
  8
0
  6
CONTINUOUS
 62
     5
 10
26.92
 20
77.62
 30
0.0
 11
29.093333109
 21
78.202342851
 31
0.0
  0
LINE
  8
0
  6
CONTINUOUS
 62
     5
 10
46.72
 20
77.62
 30
0.0
 11
44.546666891
 21
78.202342851
 31
0.0
  0
LINE
  8
0
  6
CONTINUOUS
 62
     5
 10
46.72
 20
77.62
 30
0.0
 11
44.546666891
 21
77.037657149
 31
0.0
  0
LINE
  8
0
  6
CONTINUOUS
 62
     5
 10
26.92
 20
77.62
 30
0.0
 11
46.72
 21
77.62
 31
0.0
  0
LINE
  8
0
  6
CONTINUOUS
 62
     5
 10
23.32
 20
68.17
 30
0.0
 11
23.32
 21
83.42
 31
0.0
  0
LINE
  8
0
  6
CONTINUOUS
 62
     5
 10
50.32
 20
68.17
 30
0.0
 11
50.32
 21
83.42
 31
0.0
  0
LINE
  8
0
  6
LTYPE2
 62
     5
 10
36.82
 20
76.485
 30
0.0
 11
36.82
 21
63.84
 31
0.0
  0
TEXT
  8
0
  6
CONTINUOUS
 62
     2
 10
36.01
 20
78.52
 30
0.27
 40
2.7
  1
ロ
 50
0.0
 41
0.6
 51
0.0
  7
KANJI7
  0
LINE
  8
0
  6
CONTINUOUS
 62
     5
 10
80.62
 20
24.07
 30
0.0
 11
81.202342851
 21
26.243333109
 31
0.0
  0
LINE
  8
0
  6
CONTINUOUS
 62
     5
 10
80.62
 20
24.07
 30
0.0
 11
80.037657149
 21
26.243333109
 31
0.0
  0
LINE
  8
0
  6
CONTINUOUS
 62
     5
 10
80.62
 20
24.07
 30
0.0
 11
80.62
 21
75.82
 31
0.0
  0
LINE
  8
0
  6
CONTINUOUS
 62
     5
 10
80.62
 20
75.82
 30
0.0
 11
80.037657149
 21
73.646666891
 31
0.0
  0
LINE
  8
0
  6
CONTINUOUS
 62
     5
 10
80.62
 20
75.82
 30
0.0
 11
81.202342851
 21
73.646666891
 31
0.0
  0
TEXT
  8
0
  6
CONTINUOUS
 62
     2
 10
79.72
 20
49.135
 30
0.27
 40
2.7
  1
Ａ
 50
90.0
 41
0.6
 51
0.0
  7
KANJI7
  0
LINE
  8
0
  6
CONTINUOUS
 62
     5
 10
94.97
 20
75.82
 30
0.0
 11
78.82
 21
75.82
 31
0.0
  0
LINE
  8
0
  6
CONTINUOUS
 62
     5
 10
92.72
 20
24.07
 30
0.0
 11
78.82
 21
24.07
 31
0.0
  0
LINE
  8
0
  6
CONTINUOUS
 62
     5
 10
88.518260783
 20
27.669533289
 30
0.0
 11
84.518260783
 21
27.669533289
 31
0.0
  0
LINE
  8
0
  6
CONTINUOUS
 62
     5
 10
91.82
 20
65.47
 30
0.0
 11
84.82
 21
65.47
 31
0.0
  0
LINE
  8
0
  6
CONTINUOUS
 62
     5
 10
86.62
 20
65.47
 30
0.0
 11
86.037657149
 21
63.296666891
 31
0.0
  0
LINE
  8
0
  6
CONTINUOUS
 62
     5
 10
86.62
 20
65.47
 30
0.0
 11
87.202342851
 21
63.296666891
 31
0.0
  0
LINE
  8
0
  6
CONTINUOUS
 62
     5
 10
86.62
 20
27.669533289
 30
0.0
 11
87.202342851
 21
29.842866398
 31
0.0
  0
LINE
  8
0
  6
CONTINUOUS
 62
     5
 10
86.62
 20
27.669533289
 30
0.0
 11
86.037657149
 21
29.842866398
 31
0.0
  0
LINE
  8
0
  6
CONTINUOUS
 62
     5
 10
86.62
 20
27.669533289
 30
0.0
 11
86.62
 21
65.47
 31
0.0
  0
TEXT
  8
0
  6
CONTINUOUS
 62
     2
 10
85.72
 20
45.759766645
 30
0.27
 40
2.7
  1
イ
 50
90.0
 41
0.6
 51
0.0
  7
KANJI7
  0
LINE
  8
0
  6
CONTINUOUS
 62
     5
 10
47.515379117
 20
64.674388876
 30
0.0
 11
48.188939289
 21
62.266834786
 31
0.0
  0
LINE
  8
0
  6
CONTINUOUS
 62
     5
 10
47.515379117
 20
64.674388876
 30
0.0
 11
49.302476382
 21
62.92616596
 31
0.0
  0
LINE
  8
0
  6
CONTINUOUS
 62
     5
 10
47.515379117
 20
64.674388876
 30
0.0
 11
52.015379117
 21
57.074388876
 31
0.0
  0
LINE
  8
0
  6
CONTINUOUS
 62
     5
 10
52.015379117
 20
57.074388876
 30
0.0
 11
65.665379117
 21
57.074388876
 31
0.0
  0
TEXT
  8
0
  6
CONTINUOUS
 62
     2
 10
52.015379117
 20
58.074388876
 30
0.3
 40
3.0
  1
ハ　ｍｍネジ
 50
0.0
 41
0.9
 51
0.0
  7
KANJI10
  0
TEXT
  8
2
  6
CONTINUOUS
 62
     2
 10
178.9
 20
90.1
 30
0.45
 40
2.7
  1
１Ａ　ｏｒ　５Ａ
 50
0.0
 41
0.833333333
 51
0.0
  7
KANJI11
  0
TEXT
  8
2
  6
CONTINUOUS
 62
     2
 10
178.9
 20
63.1
 30
0.45
 40
2.7
  1
ＪＩＳ　Ｃ　１７３１
 50
0.0
 41
0.833333333
 51
0.0
  7
KANJI11
  0
TEXT
  8
2
  6
CONTINUOUS
 62
     2
 10
178.9
 20
81.1
 30
0.45
 40
2.7
  1
１．０　
 50
0.0
 41
0.833333333
 51
0.0
  7
KANJI11
  0
LINE
  8
2
  6
CONTINUOUS
 62
     2
 10
138.4
 20
107.2
 30
0.0
 11
138.4
 21
62.2
 31
0.0
  0
LINE
  8
2
  6
CONTINUOUS
 62
     2
 10
174.4
 20
107.2
 30
0.0
 11
174.4
 21
62.2
 31
0.0
  0
LINE
  8
2
  6
CONTINUOUS
 62
     2
 10
214.9
 20
62.2
 30
0.0
 11
214.9
 21
107.2
 31
0.0
  0
TEXT
  8
2
  6
CONTINUOUS
 62
     2
 10
177.1
 20
103.6
 30
0.27
 40
2.7
  1
ＣＢＭ－５
 50
0.0
 41
0.45
 51
0.0
  7
KANJI12
  0
TEXT
  8
2
  6
CONTINUOUS
 62
     2
 10
190.6
 20
103.6
 30
0.27
 40
2.7
  1
ＣＢＭ－１５
 50
0.0
 41
0.45
 51
0.0
  7
KANJI12
  0
TEXT
  8
2
  6
CONTINUOUS
 62
     2
 10
204.1
 20
103.6
 30
0.27
 40
2.7
  1
ＣＢＭ－４０
 50
0.0
 41
0.45
 51
0.0
  7
KANJI12
  0
LINE
  8
2
  6
CONTINUOUS
 62
     2
 10
214.9
 20
102.7
 30
0.0
 11
138.4
 21
102.7
 31
0.0
  0
LINE
  8
2
  6
CONTINUOUS
 62
     2
 10
138.4
 20
98.2
 30
0.0
 11
214.9
 21
98.2
 31
0.0
  0
LINE
  8
2
  6
CONTINUOUS
 62
     2
 10
138.4
 20
93.7
 30
0.0
 11
214.9
 21
93.7
 31
0.0
  0
LINE
  8
2
  6
CONTINUOUS
 62
     2
 10
214.9
 20
107.2
 30
0.0
 11
138.4
 21
107.2
 31
0.0
  0
LINE
  8
2
  6
CONTINUOUS
 62
     2
 10
138.4
 20
89.2
 30
0.0
 11
214.9
 21
89.2
 31
0.0
  0
LINE
  8
2
  6
CONTINUOUS
 62
     2
 10
138.4
 20
84.7
 30
0.0
 11
214.9
 21
84.7
 31
0.0
  0
LINE
  8
2
  6
CONTINUOUS
 62
     2
 10
138.4
 20
80.2
 30
0.0
 11
214.9
 21
80.2
 31
0.0
  0
LINE
  8
2
  6
CONTINUOUS
 62
     2
 10
138.4
 20
75.7
 30
0.0
 11
214.9
 21
75.7
 31
0.0
  0
LINE
  8
2
  6
CONTINUOUS
 62
     2
 10
138.4
 20
71.2
 30
0.0
 11
214.9
 21
71.2
 31
0.0
  0
LINE
  8
2
  6
CONTINUOUS
 62
     2
 10
138.4
 20
66.7
 30
0.0
 11
214.9
 21
66.7
 31
0.0
  0
LINE
  8
2
  6
CONTINUOUS
 62
     2
 10
138.4
 20
62.2
 30
0.0
 11
214.9
 21
62.2
 31
0.0
  0
LINE
  8
2
  6
CONTINUOUS
 62
     2
 10
187.9
 20
107.2
 30
0.0
 11
187.9
 21
102.7
 31
0.0
  0
LINE
  8
2
  6
CONTINUOUS
 62
     2
 10
201.4
 20
107.2
 30
0.0
 11
201.4
 21
102.7
 31
0.0
  0
TEXT
  8
2
  6
CONTINUOUS
 62
     2
 10
175.3
 20
94.6
 30
0.27
 40
2.7
  1
１５０～６００Ａ
 50
0.0
 41
0.833333333
 51
0.0
  7
KANJI13
  0
LINE
  8
2
  6
CONTINUOUS
 62
     2
 10
187.9
 20
98.2
 30
0.0
 11
187.9
 21
93.7
 31
0.0
  0
LINE
  8
2
  6
CONTINUOUS
 62
     2
 10
187.9
 20
89.2
 30
0.0
 11
187.9
 21
84.7
 31
0.0
  0
LINE
  8
2
  6
CONTINUOUS
 62
     2
 10
201.4
 20
89.2
 30
0.0
 11
201.4
 21
84.7
 31
0.0
  0
TEXT
  8
2
  6
CONTINUOUS
 62
     2
 10
193.3
 20
94.6
 30
0.27
 40
2.7
  1
２００～２０００Ａ
 50
0.0
 41
0.833333333
 51
0.0
  7
KANJI13
  0
TEXT
  8
2
  6
CONTINUOUS
 62
     2
 10
177.1
 20
85.6
 30
0.27
 40
2.7
  1
５ＶＡ
 50
0.0
 41
0.833333333
 51
0.0
  7
KANJI13
  0
TEXT
  8
2
  6
CONTINUOUS
 62
     2
 10
189.7
 20
85.6
 30
0.27
 40
2.7
  1
１５ＶＡ
 50
0.0
 41
0.833333333
 51
0.0
  7
KANJI13
  0
TEXT
  8
2
  6
CONTINUOUS
 62
     2
 10
203.2
 20
85.6
 30
0.27
 40
2.7
  1
４０ＶＡ
 50
0.0
 41
0.833333333
 51
0.0
  7
KANJI13
  0
TEXT
  8
2
  6
CONTINUOUS
 62
     2
 10
178.9
 20
72.1
 30
0.45
 40
2.7
  1
４６０Ｖ
 50
0.0
 41
0.833333333
 51
0.0
  7
KANJI11
  0
LINE
  8
2
  6
CONTINUOUS
 62
     2
 10
134.665
 20
52.3
 30
0.0
 11
141.865
 21
52.3
 31
0.0
  0
TEXT
  8
2
  6
CONTINUOUS
 62
     2
 10
178.9
 20
99.1
 30
0.27
 40
2.7
  1
ポリエステル樹脂全モールド
 50
0.0
 41
0.9
 51
0.0
  7
KANJI9
  0
TEXT
  8
2
  6
CONTINUOUS
 62
     2
 10
145.75
 20
99.1
 30
0.27
 40
2.7
  1
構　　　　　造
 50
0.0
 41
0.9
 51
0.0
  7
KANJI9
  0
TEXT
  8
2
  6
CONTINUOUS
 62
     2
 10
145.75
 20
94.6
 30
0.27
 40
2.7
  1
一　次　電　流
 50
0.0
 41
0.9
 51
0.0
  7
KANJI9
  0
TEXT
  8
2
  6
CONTINUOUS
 62
     2
 10
145.75
 20
90.1
 30
0.27
 40
2.7
  1
二　次　電　流
 50
0.0
 41
0.9
 51
0.0
  7
KANJI9
  0
TEXT
  8
2
  6
CONTINUOUS
 62
     2
 10
145.25
 20
85.6
 30
0.27
 40
2.7
  1
定　格　負　担
 50
0.0
 41
0.9
 51
0.0
  7
KANJI9
  0
TEXT
  8
2
  6
CONTINUOUS
 62
     2
 10
145.75
 20
81.1
 30
0.27
 40
2.7
  1
階　　　　　級
 50
0.0
 41
0.9
 51
0.0
  7
KANJI9
  0
TEXT
  8
2
  6
CONTINUOUS
 62
     2
 10
145.75
 20
76.6
 30
0.27
 40
2.7
  1
周　　波　　数
 50
0.0
 41
0.9
 51
0.0
  7
KANJI9
  0
TEXT
  8
2
  6
CONTINUOUS
 62
     2
 10
145.75
 20
72.1
 30
0.27
 40
2.7
  1
最　高　電　圧
 50
0.0
 41
0.9
 51
0.0
  7
KANJI9
  0
TEXT
  8
2
  6
CONTINUOUS
 62
     2
 10
145.75
 20
67.6
 30
0.27
 40
2.7
  1
過　電　流　強　度
 50
0.0
 41
0.9
 51
0.0
  7
KANJI9
  0
TEXT
  8
2
  6
CONTINUOUS
 62
     2
 10
145.75
 20
63.1
 30
0.27
 40
2.7
  1
規　　　　　格
 50
0.0
 41
0.9
 51
0.0
  7
KANJI9
  0
TEXT
  8
2
  6
CONTINUOUS
 62
     2
 10
178.9
 20
67.6
 30
0.45
 40
2.7
  1
４０（注１）
 50
0.0
 41
0.833333333
 51
0.0
  7
KANJI11
  0
TEXT
  8
2
  6
CONTINUOUS
 62
     2
 10
135.565
 20
53.2
 30
0.27
 40
2.7
  1
注１）
 50
0.0
 41
0.9
 51
0.0
  7
KANJI9
  0
TEXT
  8
2
  6
CONTINUOUS
 62
     2
 10
143.665
 20
53.2
 30
0.27
 40
2.7
  1
過電流強度は，一次導体の定格電流密度が
 50
0.0
 41
0.9
 51
0.0
  7
KANJI9
  0
TEXT
  8
2
  6
CONTINUOUS
 62
     2
 10
157.75
 20
48.6
 30
0.27
 40
2.7
  1
以下の場合。
 50
0.0
 41
0.9
 51
0.0
  7
KANJI9
  0
LINE
  8
2
  6
CONTINUOUS
 62
     2
 10
142.765
 20
52.3
 30
0.0
 11
195.24
 21
52.3
 31
0.0
  0
LINE
  8
2
  6
CONTINUOUS
 62
     2
 10
142.765
 20
47.8
 30
0.0
 11
195.24
 21
47.8
 31
0.0
  0
TEXT
  8
2
  6
CONTINUOUS
 62
     2
 10
154.2375
 20
50.1
 30
0.27
 40
1.8
  1
２
 50
0.0
 41
0.45
 51
0.0
  7
KANJI14
  0
TEXT
  8
2
  6
CONTINUOUS
 62
     2
 10
145.75
 20
103.6
 30
0.27
 40
2.7
  1
形　　　　　式
 50
0.0
 41
0.9
 51
0.0
  7
KANJI9
  0
TEXT
  8
2
  6
CONTINUOUS
 62
     2
 10
178.9
 20
76.6
 30
0.45
 40
2.7
  1
５０／６０ＨＺ
 50
0.0
 41
0.833333333
 51
0.0
  7
KANJI11
  0
TEXT
  8
2
  6
CONTINUOUS
 62
     2
 10
143.665
 20
48.2
 30
0.27
 40
2.7
  1
３．３Ａ／ｍｍ　
 50
0.0
 41
0.45
 51
0.0
  7
KANJI12
  0
TEXT
  8
0
  6
CONTINUOUS
 62
     3
 10
235.0
 20
12.0
 30
0.6
 40
6.0
  1
ＭＳ－９５１４Ｂ
 50
0.0
 41
0.9
 51
0.0
  7
KANJI15
  0
LINE
  8
0
  6
CONTINUOUS
 62
     5
 10
71.92
 20
128.07
 30
0.0
 11
71.337657149
 21
125.896666891
 31
0.0
  0
LINE
  8
0
  6
CONTINUOUS
 62
     5
 10
71.92
 20
128.07
 30
0.0
 11
72.502342851
 21
125.896666891
 31
0.0
  0
TEXT
  8
0
  6
CONTINUOUS
 62
     2
 10
235.0
 20
30.9
 30
0.3
 40
3.0
  1
角窓貫通形　縦形
 50
0.0
 41
0.9
 51
0.0
  7
KANJI10
  0
TEXT
  8
0
  6
CONTINUOUS
 62
     1
 10
235.0
 20
25.9
 30
0.4
 40
4.0
  1
変流器　外形図
 50
0.0
 41
0.9
 51
0.0
  7
KANJI16
  0
TEXT
  8
0
  6
CONTINUOUS
 62
     2
 10
234.1225
 20
47.185
 30
0.315
 40
3.15
  1
ＣＢＭ－５　　１５０～６００Ａ
 50
0.0
 41
0.9
 51
0.0
  7
KANJI17
  0
TEXT
  8
0
  6
CONTINUOUS
 62
     2
 10
234.1225
 20
42.985
 30
0.315
 40
3.15
  1
ＣＢＭ－１５　２００～２０００Ａ
 50
0.0
 41
0.9
 51
0.0
  7
KANJI17
  0
TEXT
  8
0
  6
CONTINUOUS
 62
     2
 10
234.1225
 20
38.785
 30
0.315
 40
3.15
  1
ＣＢＭ－４０　２００～２０００Ａ
 50
0.0
 41
0.9
 51
0.0
  7
KANJI17
  0
ENDSEC
  0
EOF
