  0
SECTION
  2
HEADER
  9
$ACADVER
  1
AC1009
  9
$DWGCODEPAGE
  3
dos932
  9
$EXTMIN
 10
0.0
 20
0.0
 30
0.0
  9
$EXTMAX
 10
297.0
 20
210.0
 30
0.0
  9
$LIMMIN
 10
0.0
 20
0.0
  9
$LIMMAX
 10
297.0
 20
210.0
  9
$LTSCALE
 40
1.0
  9
$PDMODE
 70
     0
  0
ENDSEC
  0
SECTION
  2
TABLES
  0
TABLE
  2
VPORT
 70
     1
  0
VPORT
  2
*ACTIVE
 70
     0
 10
0.0
 20
0.0
 11
1.0
 21
1.0
 12
148.5
 22
105.0
 13
0.0
 23
0.0
 14
10.0
 24
10.0
 15
10.0
 25
10.0
 16
0.0
 26
0.0
 36
1.0
 17
0.0
 27
0.0
 37
0.0
 40
297.0
 41
1.414285714
 42
50.0
 43
0.0
 44
0.0
 50
0.0
 51
0.0
 71
     0
 72
  1000
 73
     1
 74
     3
 75
     0
 76
     0
 77
     0
 78
     0
  0
ENDTAB
  0
TABLE
  2
LTYPE
 70
     4
  0
LTYPE
  2
CONTINUOUS
 70
    64
  3
Solid line
 72
    65
 73
     0
 40
0.0
  0
LTYPE
  2
LTYPE1
 70
    64
  3
HIDDEN
 72
    65
 73
     2
 40
5.625
 49
3.375
 49
-2.25
  0
LTYPE
  2
LTYPE2
 70
    64
  3
CENTERX2
 72
    65
 73
     4
 40
15.0
 49
12.75
 49
-0.75
 49
0.75
 49
-0.75
  0
LTYPE
  2
LTYPE3
 70
    64
  3
CENTER
 72
    65
 73
     4
 40
5.0
 49
3.5
 49
-0.5
 49
0.5
 49
-0.5
  0
ENDTAB
  0
TABLE
  2
LAYER
 70
   128
  0
LAYER
  2
0
 70
     0
 62
     7
  6
CONTINUOUS
  0
LAYER
  2
2
 70
     0
 62
     7
  6
CONTINUOUS
  0
LAYER
  2
3
 70
     0
 62
     7
  6
CONTINUOUS
  0
LAYER
  2
4
 70
     0
 62
     7
  6
CONTINUOUS
  0
LAYER
  2
5
 70
     0
 62
     7
  6
CONTINUOUS
  0
LAYER
  2
6
 70
     0
 62
     7
  6
CONTINUOUS
  0
LAYER
  2
7
 70
     0
 62
     7
  6
CONTINUOUS
  0
LAYER
  2
8
 70
     0
 62
     7
  6
CONTINUOUS
  0
LAYER
  2
9
 70
     0
 62
     7
  6
CONTINUOUS
  0
LAYER
  2
10
 70
     0
 62
     7
  6
CONTINUOUS
  0
LAYER
  2
11
 70
     0
 62
     7
  6
CONTINUOUS
  0
LAYER
  2
12
 70
     0
 62
     7
  6
CONTINUOUS
  0
LAYER
  2
13
 70
     0
 62
     7
  6
CONTINUOUS
  0
LAYER
  2
14
 70
     0
 62
     7
  6
CONTINUOUS
  0
LAYER
  2
15
 70
     0
 62
     7
  6
CONTINUOUS
  0
LAYER
  2
16
 70
     0
 62
     7
  6
CONTINUOUS
  0
LAYER
  2
17
 70
     0
 62
     7
  6
CONTINUOUS
  0
LAYER
  2
18
 70
     0
 62
     7
  6
CONTINUOUS
  0
LAYER
  2
19
 70
     0
 62
     7
  6
CONTINUOUS
  0
LAYER
  2
20
 70
     0
 62
     7
  6
CONTINUOUS
  0
LAYER
  2
21
 70
     0
 62
     7
  6
CONTINUOUS
  0
LAYER
  2
22
 70
     0
 62
     7
  6
CONTINUOUS
  0
LAYER
  2
23
 70
     0
 62
     7
  6
CONTINUOUS
  0
LAYER
  2
24
 70
     0
 62
     7
  6
CONTINUOUS
  0
LAYER
  2
25
 70
     0
 62
     7
  6
CONTINUOUS
  0
LAYER
  2
26
 70
     0
 62
     7
  6
CONTINUOUS
  0
LAYER
  2
27
 70
     0
 62
     7
  6
CONTINUOUS
  0
LAYER
  2
28
 70
     0
 62
     7
  6
CONTINUOUS
  0
LAYER
  2
29
 70
     0
 62
     7
  6
CONTINUOUS
  0
LAYER
  2
30
 70
     0
 62
     7
  6
CONTINUOUS
  0
LAYER
  2
31
 70
     0
 62
     7
  6
CONTINUOUS
  0
LAYER
  2
32
 70
     0
 62
     7
  6
CONTINUOUS
  0
LAYER
  2
33
 70
     0
 62
     7
  6
CONTINUOUS
  0
LAYER
  2
34
 70
     0
 62
     7
  6
CONTINUOUS
  0
LAYER
  2
35
 70
     0
 62
     7
  6
CONTINUOUS
  0
LAYER
  2
36
 70
     0
 62
     7
  6
CONTINUOUS
  0
LAYER
  2
37
 70
     0
 62
     7
  6
CONTINUOUS
  0
LAYER
  2
38
 70
     0
 62
     7
  6
CONTINUOUS
  0
LAYER
  2
39
 70
     0
 62
     7
  6
CONTINUOUS
  0
LAYER
  2
40
 70
     0
 62
     7
  6
CONTINUOUS
  0
LAYER
  2
41
 70
     0
 62
     7
  6
CONTINUOUS
  0
LAYER
  2
42
 70
     0
 62
     7
  6
CONTINUOUS
  0
LAYER
  2
43
 70
     0
 62
     7
  6
CONTINUOUS
  0
LAYER
  2
44
 70
     0
 62
     7
  6
CONTINUOUS
  0
LAYER
  2
45
 70
     0
 62
     7
  6
CONTINUOUS
  0
LAYER
  2
46
 70
     0
 62
     7
  6
CONTINUOUS
  0
LAYER
  2
47
 70
     0
 62
     7
  6
CONTINUOUS
  0
LAYER
  2
48
 70
     0
 62
     7
  6
CONTINUOUS
  0
LAYER
  2
49
 70
     0
 62
     7
  6
CONTINUOUS
  0
LAYER
  2
50
 70
     0
 62
     7
  6
CONTINUOUS
  0
LAYER
  2
51
 70
     0
 62
     7
  6
CONTINUOUS
  0
LAYER
  2
52
 70
     0
 62
     7
  6
CONTINUOUS
  0
LAYER
  2
53
 70
     0
 62
     7
  6
CONTINUOUS
  0
LAYER
  2
54
 70
     0
 62
     7
  6
CONTINUOUS
  0
LAYER
  2
55
 70
     0
 62
     7
  6
CONTINUOUS
  0
LAYER
  2
56
 70
     0
 62
     7
  6
CONTINUOUS
  0
LAYER
  2
57
 70
     0
 62
     7
  6
CONTINUOUS
  0
LAYER
  2
58
 70
     0
 62
     7
  6
CONTINUOUS
  0
LAYER
  2
59
 70
     0
 62
     7
  6
CONTINUOUS
  0
LAYER
  2
60
 70
     0
 62
     7
  6
CONTINUOUS
  0
LAYER
  2
61
 70
     0
 62
     7
  6
CONTINUOUS
  0
LAYER
  2
62
 70
     0
 62
     7
  6
CONTINUOUS
  0
LAYER
  2
63
 70
     0
 62
     7
  6
CONTINUOUS
  0
LAYER
  2
64
 70
     0
 62
     7
  6
CONTINUOUS
  0
LAYER
  2
65
 70
     0
 62
     7
  6
CONTINUOUS
  0
LAYER
  2
66
 70
     0
 62
     7
  6
CONTINUOUS
  0
LAYER
  2
67
 70
     0
 62
     7
  6
CONTINUOUS
  0
LAYER
  2
68
 70
     0
 62
     7
  6
CONTINUOUS
  0
LAYER
  2
69
 70
     0
 62
     7
  6
CONTINUOUS
  0
LAYER
  2
70
 70
     0
 62
     7
  6
CONTINUOUS
  0
LAYER
  2
71
 70
     0
 62
     7
  6
CONTINUOUS
  0
LAYER
  2
72
 70
     0
 62
     7
  6
CONTINUOUS
  0
LAYER
  2
73
 70
     0
 62
     7
  6
CONTINUOUS
  0
LAYER
  2
74
 70
     0
 62
     7
  6
CONTINUOUS
  0
LAYER
  2
75
 70
     0
 62
     7
  6
CONTINUOUS
  0
LAYER
  2
76
 70
     0
 62
     7
  6
CONTINUOUS
  0
LAYER
  2
77
 70
     0
 62
     7
  6
CONTINUOUS
  0
LAYER
  2
78
 70
     0
 62
     7
  6
CONTINUOUS
  0
LAYER
  2
79
 70
     0
 62
     7
  6
CONTINUOUS
  0
LAYER
  2
80
 70
     0
 62
     7
  6
CONTINUOUS
  0
LAYER
  2
81
 70
     0
 62
     7
  6
CONTINUOUS
  0
LAYER
  2
82
 70
     0
 62
     7
  6
CONTINUOUS
  0
LAYER
  2
83
 70
     0
 62
     7
  6
CONTINUOUS
  0
LAYER
  2
84
 70
     0
 62
     7
  6
CONTINUOUS
  0
LAYER
  2
85
 70
     0
 62
     7
  6
CONTINUOUS
  0
LAYER
  2
86
 70
     0
 62
     7
  6
CONTINUOUS
  0
LAYER
  2
87
 70
     0
 62
     7
  6
CONTINUOUS
  0
LAYER
  2
88
 70
     0
 62
     7
  6
CONTINUOUS
  0
LAYER
  2
89
 70
     0
 62
     7
  6
CONTINUOUS
  0
LAYER
  2
90
 70
     0
 62
     7
  6
CONTINUOUS
  0
LAYER
  2
91
 70
     0
 62
     7
  6
CONTINUOUS
  0
LAYER
  2
92
 70
     0
 62
     7
  6
CONTINUOUS
  0
LAYER
  2
93
 70
     0
 62
     7
  6
CONTINUOUS
  0
LAYER
  2
94
 70
     0
 62
     7
  6
CONTINUOUS
  0
LAYER
  2
95
 70
     0
 62
     7
  6
CONTINUOUS
  0
LAYER
  2
96
 70
     0
 62
     7
  6
CONTINUOUS
  0
LAYER
  2
97
 70
     0
 62
     7
  6
CONTINUOUS
  0
LAYER
  2
98
 70
     0
 62
     7
  6
CONTINUOUS
  0
LAYER
  2
99
 70
     0
 62
     7
  6
CONTINUOUS
  0
LAYER
  2
100
 70
     0
 62
     7
  6
CONTINUOUS
  0
LAYER
  2
101
 70
     0
 62
     7
  6
CONTINUOUS
  0
LAYER
  2
102
 70
     0
 62
     7
  6
CONTINUOUS
  0
LAYER
  2
103
 70
     0
 62
     7
  6
CONTINUOUS
  0
LAYER
  2
104
 70
     0
 62
     7
  6
CONTINUOUS
  0
LAYER
  2
105
 70
     0
 62
     7
  6
CONTINUOUS
  0
LAYER
  2
106
 70
     0
 62
     7
  6
CONTINUOUS
  0
LAYER
  2
107
 70
     0
 62
     7
  6
CONTINUOUS
  0
LAYER
  2
108
 70
     0
 62
     7
  6
CONTINUOUS
  0
LAYER
  2
109
 70
     0
 62
     7
  6
CONTINUOUS
  0
LAYER
  2
110
 70
     0
 62
     7
  6
CONTINUOUS
  0
LAYER
  2
111
 70
     0
 62
     7
  6
CONTINUOUS
  0
LAYER
  2
112
 70
     0
 62
     7
  6
CONTINUOUS
  0
LAYER
  2
113
 70
     0
 62
     7
  6
CONTINUOUS
  0
LAYER
  2
114
 70
     0
 62
     7
  6
CONTINUOUS
  0
LAYER
  2
115
 70
     0
 62
     7
  6
CONTINUOUS
  0
LAYER
  2
116
 70
     0
 62
     7
  6
CONTINUOUS
  0
LAYER
  2
117
 70
     0
 62
     7
  6
CONTINUOUS
  0
LAYER
  2
118
 70
     0
 62
     7
  6
CONTINUOUS
  0
LAYER
  2
119
 70
     0
 62
     7
  6
CONTINUOUS
  0
LAYER
  2
120
 70
     0
 62
     7
  6
CONTINUOUS
  0
LAYER
  2
121
 70
     0
 62
     7
  6
CONTINUOUS
  0
LAYER
  2
122
 70
     0
 62
     7
  6
CONTINUOUS
  0
LAYER
  2
123
 70
     0
 62
     7
  6
CONTINUOUS
  0
LAYER
  2
124
 70
     0
 62
     7
  6
CONTINUOUS
  0
LAYER
  2
125
 70
     0
 62
     7
  6
CONTINUOUS
  0
LAYER
  2
126
 70
     0
 62
     7
  6
CONTINUOUS
  0
LAYER
  2
127
 70
     0
 62
     7
  6
CONTINUOUS
  0
LAYER
  2
128
 70
     0
 62
     7
  6
CONTINUOUS
  0
ENDTAB
  0
TABLE
  2
STYLE
 70
    13
  0
STYLE
  2
STANDARD
 70
     0
 40
0.0
 41
1.0
 50
0.0
 71
     0
 42
0.2
  3
txt.shx
  4
extfont.shx
  0
STYLE
  2
KANJI0
 70
     0
 40
3.0
 41
0.9
 50
0.0
 71
     0
 42
3.0
  3
txt.shx
  4
extfont.shx
  0
STYLE
  2
KANJI1
 70
     0
 40
3.0
 41
0.8
 50
0.0
 71
     0
 42
3.0
  3
txt.shx
  4
extfont.shx
  0
STYLE
  2
KANJI2
 70
     0
 40
3.0
 41
0.5
 50
0.0
 71
     0
 42
3.0
  3
txt.shx
  4
extfont.shx
  0
STYLE
  2
KANJI3
 70
     0
 40
3.0
 41
0.45
 50
0.0
 71
     0
 42
3.0
  3
txt.shx
  4
extfont.shx
  0
STYLE
  2
KANJI4
 70
     0
 40
4.0
 41
0.9
 50
0.0
 71
     0
 42
4.0
  3
txt.shx
  4
extfont.shx
  0
STYLE
  2
KANJI5
 70
     0
 40
3.6
 41
0.875
 50
0.0
 71
     0
 42
3.6
  3
txt.shx
  4
extfont.shx
  0
STYLE
  2
KANJI6
 70
     0
 40
3.0
 41
0.5
 50
0.0
 71
     0
 42
3.0
  3
txt.shx
  4
extfont.shx
  0
STYLE
  2
KANJI7
 70
     0
 40
3.0
 41
0.7
 50
0.0
 71
     0
 42
3.0
  3
txt.shx
  4
extfont.shx
  0
STYLE
  2
KANJI8
 70
     0
 40
3.0
 41
0.5
 50
0.0
 71
     0
 42
3.0
  3
txt.shx
  4
extfont.shx
  0
STYLE
  2
KANJI9
 70
     0
 40
5.8
 41
0.827586207
 50
0.0
 71
     0
 42
5.8
  3
txt.shx
  4
extfont.shx
  0
STYLE
  2
KANJI10
 70
     0
 40
4.0
 41
0.9
 50
0.0
 71
     0
 42
4.0
  3
txt.shx
  4
extfont.shx
  0
STYLE
  2
KANJI11
 70
     0
 40
4.0
 41
0.9
 50
0.0
 71
     0
 42
4.0
  3
txt.shx
  4
extfont.shx
  0
ENDTAB
  0
TABLE
  2
VIEW
 70
     0
  0
ENDTAB
  0
ENDSEC
  0
SECTION
  2
BLOCKS
  0
ENDSEC
  0
SECTION
  2
ENTITIES
  0
LINE
  8
0
  6
CONTINUOUS
 62
     2
 10
152.0
 20
185.0
 30
0.0
 11
152.0
 21
151.0
 31
0.0
  0
TEXT
  8
0
  6
CONTINUOUS
 62
     2
 10
154.46
 20
176.44
 30
0.3
 40
3.0
  1
形　名
 50
0.0
 41
0.9
 51
0.0
  7
KANJI0
  0
TEXT
  8
0
  6
CONTINUOUS
 62
     2
 10
162.68
 20
180.91
 30
0.3
 40
3.0
  1
寸法ｍｍ
 50
0.0
 41
0.9
 51
0.0
  7
KANJI0
  0
LINE
  8
0
  6
CONTINUOUS
 62
     2
 10
223.0
 20
140.0
 30
0.0
 11
155.0
 21
140.0
 31
0.0
  0
LINE
  8
0
  6
CONTINUOUS
 62
     2
 10
223.0
 20
135.0
 30
0.0
 11
155.0
 21
135.0
 31
0.0
  0
LINE
  8
0
  6
CONTINUOUS
 62
     2
 10
223.0
 20
130.0
 30
0.0
 11
155.0
 21
130.0
 31
0.0
  0
LINE
  8
0
  6
CONTINUOUS
 62
     2
 10
223.0
 20
125.0
 30
0.0
 11
155.0
 21
125.0
 31
0.0
  0
LINE
  8
0
  6
CONTINUOUS
 62
     2
 10
223.0
 20
120.0
 30
0.0
 11
155.0
 21
120.0
 31
0.0
  0
LINE
  8
0
  6
CONTINUOUS
 62
     2
 10
223.0
 20
115.0
 30
0.0
 11
155.0
 21
115.0
 31
0.0
  0
LINE
  8
0
  6
CONTINUOUS
 62
     2
 10
223.0
 20
110.0
 30
0.0
 11
155.0
 21
110.0
 31
0.0
  0
LINE
  8
0
  6
CONTINUOUS
 62
     2
 10
223.0
 20
105.0
 30
0.0
 11
155.0
 21
105.0
 31
0.0
  0
LINE
  8
0
  6
CONTINUOUS
 62
     2
 10
185.5
 20
145.0
 30
0.0
 11
185.5
 21
140.0
 31
0.0
  0
LINE
  8
0
  6
CONTINUOUS
 62
     2
 10
198.0
 20
145.0
 30
0.0
 11
198.0
 21
140.0
 31
0.0
  0
LINE
  8
0
  6
CONTINUOUS
 62
     2
 10
210.5
 20
145.0
 30
0.0
 11
210.5
 21
140.0
 31
0.0
  0
LINE
  8
0
  6
CONTINUOUS
 62
     2
 10
185.5
 20
130.0
 30
0.0
 11
185.5
 21
125.0
 31
0.0
  0
LINE
  8
0
  6
CONTINUOUS
 62
     2
 10
198.0
 20
130.0
 30
0.0
 11
198.0
 21
125.0
 31
0.0
  0
LINE
  8
0
  6
CONTINUOUS
 62
     2
 10
210.5
 20
130.0
 30
0.0
 11
210.5
 21
125.0
 31
0.0
  0
LINE
  8
0
  6
CONTINUOUS
 62
     2
 10
223.0
 20
95.0
 30
0.0
 11
155.0
 21
95.0
 31
0.0
  0
LINE
  8
0
  6
CONTINUOUS
 62
     2
 10
223.0
 20
85.0
 30
0.0
 11
155.0
 21
85.0
 31
0.0
  0
LINE
  8
0
  6
CONTINUOUS
 62
     2
 10
223.0
 20
75.0
 30
0.0
 11
155.0
 21
75.0
 31
0.0
  0
LINE
  8
0
  6
CONTINUOUS
 62
     2
 10
223.0
 20
90.0
 30
0.0
 11
155.0
 21
90.0
 31
0.0
  0
LINE
  8
0
  6
CONTINUOUS
 62
     2
 10
185.5
 20
90.0
 30
0.0
 11
185.5
 21
85.0
 31
0.0
  0
LINE
  8
0
  6
CONTINUOUS
 62
     2
 10
198.0
 20
90.0
 30
0.0
 11
198.0
 21
85.0
 31
0.0
  0
LINE
  8
0
  6
CONTINUOUS
 62
     2
 10
210.5
 20
90.0
 30
0.0
 11
210.5
 21
85.0
 31
0.0
  0
LINE
  8
0
  6
CONTINUOUS
 62
     2
 10
155.0
 20
100.0
 30
0.0
 11
223.0
 21
100.0
 31
0.0
  0
LINE
  8
0
  6
CONTINUOUS
 62
     2
 10
223.0
 20
70.0
 30
0.0
 11
155.0
 21
70.0
 31
0.0
  0
LINE
  8
0
  6
CONTINUOUS
 62
     2
 10
223.0
 20
60.0
 30
0.0
 11
155.0
 21
60.0
 31
0.0
  0
LINE
  8
0
  6
CONTINUOUS
 62
     2
 10
155.0
 20
65.0
 30
0.0
 11
223.0
 21
65.0
 31
0.0
  0
LINE
  8
0
  6
CONTINUOUS
 62
     2
 10
197.96
 20
70.0
 30
0.0
 11
197.96
 21
60.0
 31
0.0
  0
LINE
  8
0
  6
CONTINUOUS
 62
     2
 10
173.0
 20
65.0
 30
0.0
 11
155.0
 21
70.0
 31
0.0
  0
TEXT
  8
0
  6
CONTINUOUS
 62
     2
 10
153.0
 20
55.0
 30
0.0
 40
3.0
  1
※　上記仕様以外は外形寸法、端子構造が異なる場合があります。
 50
0.0
 41
0.8
 51
0.0
  7
KANJI1
  0
TEXT
  8
0
  6
CONTINUOUS
 62
     2
 10
175.0
 20
121.0
 30
0.3
 40
3.0
  1
１．０
 50
0.0
 41
0.5
 51
0.0
  7
KANJI2
  0
TEXT
  8
0
  6
CONTINUOUS
 62
     2
 10
175.0
 20
106.0
 30
0.3
 40
3.0
  1
１
 50
0.0
 41
0.5
 51
0.0
  7
KANJI2
  0
TEXT
  8
0
  6
CONTINUOUS
 62
     2
 10
175.0
 20
101.0
 30
0.3
 40
3.0
  1
５０／６０Ｈｚ
 50
0.0
 41
0.9
 51
0.0
  7
KANJI0
  0
TEXT
  8
0
  6
CONTINUOUS
 62
     2
 10
175.0
 20
116.0
 30
0.3
 40
3.0
  1
１１０～５００Ｖ
 50
0.0
 41
0.9
 51
0.0
  7
KANJI0
  0
TEXT
  8
0
  6
CONTINUOUS
 62
     2
 10
175.0
 20
111.0
 30
0.3
 40
3.0
  1
１１０Ｖ
 50
0.0
 41
0.45
 51
0.0
  7
KANJI3
  0
TEXT
  8
0
  6
CONTINUOUS
 62
     2
 10
175.0
 20
96.0
 30
0.3
 40
3.0
  1
Ａ　種
 50
0.0
 41
0.9
 51
0.0
  7
KANJI0
  0
TEXT
  8
0
  6
CONTINUOUS
 62
     2
 10
175.0
 20
136.0
 30
0.3
 40
3.0
  1
ＪＩＳ　Ｃ　１７３１
 50
0.0
 41
0.5
 51
0.0
  7
KANJI2
  0
TEXT
  8
0
  6
CONTINUOUS
 62
     2
 10
175.0
 20
131.0
 30
0.3
 40
3.0
  1
乾式自冷
 50
0.0
 41
0.9
 51
0.0
  7
KANJI0
  0
TEXT
  8
0
  6
CONTINUOUS
 62
     2
 10
159.5
 20
136.0
 30
0.3
 40
3.0
  1
規　格
 50
0.0
 41
0.9
 51
0.0
  7
KANJI0
  0
TEXT
  8
0
  6
CONTINUOUS
 62
     2
 10
159.5
 20
131.0
 30
0.3
 40
3.0
  1
構　造
 50
0.0
 41
0.9
 51
0.0
  7
KANJI0
  0
TEXT
  8
0
  6
CONTINUOUS
 62
     2
 10
158.0
 20
126.0
 30
0.3
 40
3.0
  1
定格負担
 50
0.0
 41
0.9
 51
0.0
  7
KANJI0
  0
TEXT
  8
0
  6
CONTINUOUS
 62
     2
 10
159.5
 20
121.0
 30
0.3
 40
3.0
  1
階　級
 50
0.0
 41
0.9
 51
0.0
  7
KANJI0
  0
TEXT
  8
0
  6
CONTINUOUS
 62
     2
 10
158.0
 20
116.0
 30
0.3
 40
3.0
  1
一次電圧
 50
0.0
 41
0.9
 51
0.0
  7
KANJI0
  0
TEXT
  8
0
  6
CONTINUOUS
 62
     2
 10
158.0
 20
111.0
 30
0.3
 40
3.0
  1
二次電圧
 50
0.0
 41
0.9
 51
0.0
  7
KANJI0
  0
TEXT
  8
0
  6
CONTINUOUS
 62
     2
 10
159.5
 20
106.0
 30
0.3
 40
3.0
  1
相　数
 50
0.0
 41
0.9
 51
0.0
  7
KANJI0
  0
TEXT
  8
0
  6
CONTINUOUS
 62
     2
 10
159.5
 20
101.0
 30
0.3
 40
3.0
  1
周波数
 50
0.0
 41
0.9
 51
0.0
  7
KANJI0
  0
TEXT
  8
0
  6
CONTINUOUS
 62
     2
 10
159.5
 20
141.0
 30
0.3
 40
3.0
  1
形　名
 50
0.0
 41
0.9
 51
0.0
  7
KANJI0
  0
TEXT
  8
0
  6
CONTINUOUS
 62
     2
 10
158.0
 20
91.0
 30
0.3
 40
3.0
  1
ヒューズ
 50
0.0
 41
0.9
 51
0.0
  7
KANJI0
  0
TEXT
  8
0
  6
CONTINUOUS
 62
     2
 10
159.5
 20
86.0
 30
0.3
 40
3.0
  1
質　量
 50
0.0
 41
0.9
 51
0.0
  7
KANJI0
  0
TEXT
  8
0
  6
CONTINUOUS
 62
     2
 10
159.5
 20
78.5
 30
0.3
 40
3.0
  1
備　考
 50
0.0
 41
0.9
 51
0.0
  7
KANJI0
  0
TEXT
  8
0
  6
CONTINUOUS
 62
     2
 10
158.0
 20
96.0
 30
0.3
 40
3.0
  1
絶縁種別
 50
0.0
 41
0.9
 51
0.0
  7
KANJI0
  0
TEXT
  8
0
  6
CONTINUOUS
 62
     2
 10
159.5
 20
61.0
 30
0.3
 40
3.0
  1
端子台
 50
0.0
 41
0.9
 51
0.0
  7
KANJI0
  0
TEXT
  8
0
  6
CONTINUOUS
 62
     2
 10
180.0
 20
66.0
 30
0.3
 40
3.0
  1
端子ビス
 50
0.0
 41
0.9
 51
0.0
  7
KANJI0
  0
TEXT
  8
0
  6
CONTINUOUS
 62
     2
 10
202.0
 20
66.0
 30
0.3
 40
3.0
  1
適合圧着端子
 50
0.0
 41
0.9
 51
0.0
  7
KANJI0
  0
TEXT
  8
0
  6
CONTINUOUS
 62
     2
 10
183.0
 20
61.0
 30
0.3
 40
3.0
  1
Ｍ４
 50
0.0
 41
0.9
 51
0.0
  7
KANJI0
  0
TEXT
  8
0
  6
CONTINUOUS
 62
     2
 10
200.0
 20
61.0
 30
0.3
 40
3.0
  1
１．２５ｓｑ～５．５ｓｑ
 50
0.0
 41
0.9
 51
0.0
  7
KANJI0
  0
TEXT
  8
0
  6
CONTINUOUS
 62
     2
 10
175.0
 20
81.0
 30
0.3
 40
3.0
  1
端子カバー付
 50
0.0
 41
0.9
 51
0.0
  7
KANJI0
  0
TEXT
  8
0
  6
CONTINUOUS
 62
     2
 10
175.0
 20
76.0
 30
0.0
 40
3.0
  1
ヒューズ付（宇都宮製ＮＣＯ形セロライトヒュース゛）
 50
0.0
 41
0.8
 51
0.0
  7
KANJI1
  0
TEXT
  8
0
  6
CONTINUOUS
 62
     2
 10
174.5
 20
126.0
 30
0.3
 40
3.0
  1
１５　ＶＡ
 50
0.0
 41
0.9
 51
0.0
  7
KANJI0
  0
TEXT
  8
0
  6
CONTINUOUS
 62
     2
 10
187.0
 20
126.0
 30
0.3
 40
3.0
  1
５０　ＶＡ
 50
0.0
 41
0.9
 51
0.0
  7
KANJI0
  0
TEXT
  8
0
  6
CONTINUOUS
 62
     2
 10
199.0
 20
126.0
 30
0.3
 40
3.0
  1
１００　ＶＡ
 50
0.0
 41
0.9
 51
0.0
  7
KANJI0
  0
TEXT
  8
0
  6
CONTINUOUS
 62
     2
 10
211.5
 20
126.0
 30
0.3
 40
3.0
  1
２００　ＶＡ
 50
0.0
 41
0.9
 51
0.0
  7
KANJI0
  0
LINE
  8
0
  6
CONTINUOUS
 62
     2
 10
223.0
 20
145.0
 30
0.0
 11
155.0
 21
145.0
 31
0.0
  0
TEXT
  8
0
  6
CONTINUOUS
 62
     2
 10
153.0
 20
170.5
 30
0.3
 40
3.0
  1
ＰＤ－１ＢＺｂ
 50
0.0
 41
0.9
 51
0.0
  7
KANJI0
  0
TEXT
  8
0
  6
CONTINUOUS
 62
     2
 10
153.0
 20
164.5
 30
0.3
 40
3.0
  1
ＰＤ－１ＣＺｂ
 50
0.0
 41
0.9
 51
0.0
  7
KANJI0
  0
TEXT
  8
0
  6
CONTINUOUS
 62
     2
 10
153.0
 20
158.5
 30
0.3
 40
3.0
  1
ＰＤ－１ＤＺｂ
 50
0.0
 41
0.9
 51
0.0
  7
KANJI0
  0
TEXT
  8
0
  6
CONTINUOUS
 62
     2
 10
153.0
 20
152.5
 30
0.3
 40
3.0
  1
ＰＤ－１ＥＺｂ
 50
0.0
 41
0.9
 51
0.0
  7
KANJI0
  0
TEXT
  8
0
  6
CONTINUOUS
 62
     2
 10
176.5
 20
178.0
 30
0.4
 40
4.0
  1
Ａ
 50
0.0
 41
0.9
 51
0.0
  7
KANJI4
  0
TEXT
  8
0
  6
CONTINUOUS
 62
     2
 10
184.5
 20
178.0
 30
0.4
 40
4.0
  1
Ｂ
 50
0.0
 41
0.9
 51
0.0
  7
KANJI4
  0
TEXT
  8
0
  6
CONTINUOUS
 62
     2
 10
192.5
 20
178.0
 30
0.4
 40
4.0
  1
Ｃ
 50
0.0
 41
0.9
 51
0.0
  7
KANJI4
  0
TEXT
  8
0
  6
CONTINUOUS
 62
     2
 10
200.5
 20
178.0
 30
0.4
 40
4.0
  1
Ｄ
 50
0.0
 41
0.9
 51
0.0
  7
KANJI4
  0
TEXT
  8
0
  6
CONTINUOUS
 62
     2
 10
208.5
 20
178.0
 30
0.4
 40
4.0
  1
Ｈ
 50
0.0
 41
0.9
 51
0.0
  7
KANJI4
  0
TEXT
  8
0
  6
CONTINUOUS
 62
     2
 10
216.5
 20
178.0
 30
0.4
 40
4.0
  1
ａ
 50
0.0
 41
0.9
 51
0.0
  7
KANJI4
  0
LINE
  8
0
  6
CONTINUOUS
 62
     2
 10
100.0
 20
149.00012207
 30
0.0
 11
135.0
 21
149.00012207
 31
0.0
  0
LINE
  8
0
  6
CONTINUOUS
 62
     2
 10
100.0
 20
150.00012207
 30
0.0
 11
135.0
 21
150.00012207
 31
0.0
  0
CIRCLE
  8
0
  6
CONTINUOUS
 62
     2
 10
100.0
 20
161.00012207
 30
0.0
 40
0.75
  0
CIRCLE
  8
0
  6
CONTINUOUS
 62
     2
 10
135.0
 20
161.00012207
 30
0.0
 40
0.75
  0
LINE
  8
0
  6
CONTINUOUS
 62
     2
 10
135.0
 20
149.00012207
 30
0.0
 11
135.0
 21
155.00012207
 31
0.0
  0
LINE
  8
0
  6
CONTINUOUS
 62
     2
 10
100.0
 20
145.0
 30
0.0
 11
135.0
 21
145.0
 31
0.0
  0
LINE
  8
0
  6
CONTINUOUS
 62
     2
 10
100.0
 20
144.00012207
 30
0.0
 11
135.0
 21
144.00012207
 31
0.0
  0
CIRCLE
  8
0
  6
CONTINUOUS
 62
     2
 10
100.0
 20
137.000030518
 30
0.0
 40
0.75
  0
LINE
  8
0
  6
CONTINUOUS
 62
     2
 10
100.0
 20
145.0
 30
0.0
 11
100.0
 21
137.750030518
 31
0.0
  0
CIRCLE
  8
0
  6
CONTINUOUS
 62
     2
 10
135.0
 20
137.000030518
 30
0.0
 40
0.75
  0
LINE
  8
0
  6
CONTINUOUS
 62
     2
 10
135.0
 20
145.0
 30
0.0
 11
135.0
 21
137.750030518
 31
0.0
  0
LINE
  8
0
  6
CONTINUOUS
 62
     2
 10
134.0
 20
158.00012207
 30
0.0
 11
136.0
 21
158.00012207
 31
0.0
  0
LINE
  8
0
  6
CONTINUOUS
 62
     2
 10
136.0
 20
158.00012207
 30
0.0
 11
136.0
 21
155.00012207
 31
0.0
  0
LINE
  8
0
  6
CONTINUOUS
 62
     2
 10
136.0
 20
155.00012207
 30
0.0
 11
134.0
 21
155.00012207
 31
0.0
  0
LINE
  8
0
  6
CONTINUOUS
 62
     2
 10
134.0
 20
155.00012207
 30
0.0
 11
134.0
 21
158.00012207
 31
0.0
  0
LINE
  8
0
  6
CONTINUOUS
 62
     2
 10
136.0
 20
158.00012207
 30
0.0
 11
134.0
 21
155.00012207
 31
0.0
  0
LINE
  8
0
  6
CONTINUOUS
 62
     2
 10
135.0
 20
158.00012207
 30
0.0
 11
135.0
 21
160.25012207
 31
0.0
  0
LINE
  8
0
  6
CONTINUOUS
 62
     2
 10
100.0
 20
149.00012207
 30
0.0
 11
100.0
 21
155.00012207
 31
0.0
  0
LINE
  8
0
  6
CONTINUOUS
 62
     2
 10
99.0
 20
158.00012207
 30
0.0
 11
101.0
 21
158.00012207
 31
0.0
  0
LINE
  8
0
  6
CONTINUOUS
 62
     2
 10
101.0
 20
158.00012207
 30
0.0
 11
101.0
 21
155.00012207
 31
0.0
  0
LINE
  8
0
  6
CONTINUOUS
 62
     2
 10
101.0
 20
155.00012207
 30
0.0
 11
99.0
 21
155.00012207
 31
0.0
  0
LINE
  8
0
  6
CONTINUOUS
 62
     2
 10
99.0
 20
155.00012207
 30
0.0
 11
99.0
 21
158.00012207
 31
0.0
  0
LINE
  8
0
  6
CONTINUOUS
 62
     2
 10
101.0
 20
158.00012207
 30
0.0
 11
99.0
 21
155.00012207
 31
0.0
  0
LINE
  8
0
  6
CONTINUOUS
 62
     2
 10
100.0
 20
158.00012207
 30
0.0
 11
100.0
 21
160.25012207
 31
0.0
  0
LINE
  8
0
  6
CONTINUOUS
 62
     2
 10
134.107142857
 20
165.31262207
 30
0.0
 11
134.821428571
 21
162.46887207
 31
0.0
  0
LINE
  8
0
  6
CONTINUOUS
 62
     2
 10
134.821428571
 20
162.46887207
 30
0.0
 11
135.714285714
 21
165.31262207
 31
0.0
  0
LINE
  8
0
  6
CONTINUOUS
 62
     2
 10
134.107142857
 20
134.937652588
 30
0.0
 11
134.285714286
 21
134.937652588
 31
0.0
  0
LINE
  8
0
  6
CONTINUOUS
 62
     2
 10
134.285714286
 20
134.937652588
 30
0.0
 11
134.285714286
 21
133.843902588
 31
0.0
  0
LINE
  8
0
  6
CONTINUOUS
 62
     2
 10
134.285714286
 20
133.843902588
 30
0.0
 11
134.464285714
 21
133.406402588
 31
0.0
  0
LINE
  8
0
  6
CONTINUOUS
 62
     2
 10
134.464285714
 20
133.406402588
 30
0.0
 11
134.642857143
 21
133.187652588
 31
0.0
  0
LINE
  8
0
  6
CONTINUOUS
 62
     2
 10
134.642857143
 20
133.187652588
 30
0.0
 11
135.0
 21
133.187652588
 31
0.0
  0
LINE
  8
0
  6
CONTINUOUS
 62
     2
 10
135.0
 20
133.187652588
 30
0.0
 11
135.178571429
 21
133.406402588
 31
0.0
  0
LINE
  8
0
  6
CONTINUOUS
 62
     2
 10
135.178571429
 20
133.406402588
 30
0.0
 11
135.357142857
 21
133.843902588
 31
0.0
  0
LINE
  8
0
  6
CONTINUOUS
 62
     2
 10
135.357142857
 20
133.843902588
 30
0.0
 11
135.357142857
 21
134.937652588
 31
0.0
  0
LINE
  8
0
  6
CONTINUOUS
 62
     2
 10
135.357142857
 20
134.937652588
 30
0.0
 11
135.714285714
 21
134.937652588
 31
0.0
  0
LINE
  8
0
  6
CONTINUOUS
 62
     2
 10
99.107142857
 20
163.12512207
 30
0.0
 11
99.285714286
 21
162.68762207
 31
0.0
  0
LINE
  8
0
  6
CONTINUOUS
 62
     2
 10
99.285714286
 20
162.68762207
 30
0.0
 11
99.642857143
 21
162.46887207
 31
0.0
  0
LINE
  8
0
  6
CONTINUOUS
 62
     2
 10
99.642857143
 20
162.46887207
 30
0.0
 11
100.178571429
 21
162.46887207
 31
0.0
  0
LINE
  8
0
  6
CONTINUOUS
 62
     2
 10
100.178571429
 20
162.46887207
 30
0.0
 11
100.535714286
 21
162.68762207
 31
0.0
  0
LINE
  8
0
  6
CONTINUOUS
 62
     2
 10
100.535714286
 20
162.68762207
 30
0.0
 11
100.714285714
 21
163.12512207
 31
0.0
  0
LINE
  8
0
  6
CONTINUOUS
 62
     2
 10
100.714285714
 20
163.12512207
 30
0.0
 11
100.714285714
 21
165.31262207
 31
0.0
  0
LINE
  8
0
  6
CONTINUOUS
 62
     2
 10
99.107142857
 20
163.12512207
 30
0.0
 11
99.107142857
 21
165.31262207
 31
0.0
  0
LINE
  8
0
  6
CONTINUOUS
 62
     2
 10
99.107142857
 20
134.71887207
 30
0.0
 11
99.285714286
 21
134.71887207
 31
0.0
  0
LINE
  8
0
  6
CONTINUOUS
 62
     2
 10
99.285714286
 20
134.71887207
 30
0.0
 11
99.285714286
 21
133.40637207
 31
0.0
  0
LINE
  8
0
  6
CONTINUOUS
 62
     2
 10
99.285714286
 20
133.40637207
 30
0.0
 11
99.464285714
 21
132.96887207
 31
0.0
  0
LINE
  8
0
  6
CONTINUOUS
 62
     2
 10
99.464285714
 20
132.96887207
 30
0.0
 11
100.178571429
 21
132.96887207
 31
0.0
  0
LINE
  8
0
  6
CONTINUOUS
 62
     2
 10
100.178571429
 20
132.96887207
 30
0.0
 11
100.357142857
 21
133.18762207
 31
0.0
  0
LINE
  8
0
  6
CONTINUOUS
 62
     2
 10
100.357142857
 20
133.18762207
 30
0.0
 11
100.357142857
 21
134.71887207
 31
0.0
  0
LINE
  8
0
  6
CONTINUOUS
 62
     2
 10
100.357142857
 20
133.18762207
 30
0.0
 11
100.535714286
 21
132.96887207
 31
0.0
  0
LINE
  8
0
  6
CONTINUOUS
 62
     2
 10
100.535714286
 20
132.96887207
 30
0.0
 11
100.714285714
 21
132.96887207
 31
0.0
  0
LINE
  8
0
  6
CONTINUOUS
 62
     2
 10
100.714285714
 20
132.96887207
 30
0.0
 11
100.892857143
 21
133.18762207
 31
0.0
  0
LINE
  8
0
  6
CONTINUOUS
 62
     2
 10
137.662585667
 20
157.940612793
 30
0.0
 11
137.662585667
 21
155.534362793
 31
0.0
  0
LINE
  8
0
  6
CONTINUOUS
 62
     2
 10
137.662585667
 20
155.534362793
 30
0.0
 11
137.841157096
 21
155.315612793
 31
0.0
  0
LINE
  8
0
  6
CONTINUOUS
 62
     2
 10
137.841157096
 20
155.315612793
 30
0.0
 11
139.269728524
 21
155.315612793
 31
0.0
  0
LINE
  8
0
  6
CONTINUOUS
 62
     2
 10
137.662585667
 20
156.846862793
 30
0.0
 11
139.269728524
 21
157.284362793
 31
0.0
  0
LINE
  8
0
  6
CONTINUOUS
 62
     2
 10
140.412585667
 20
155.315612793
 30
0.0
 11
142.019728524
 21
155.315612793
 31
0.0
  0
LINE
  8
0
  6
CONTINUOUS
 62
     2
 10
141.30544281
 20
155.315612793
 30
0.0
 11
141.662585667
 21
156.409362793
 31
0.0
  0
LINE
  8
0
  6
CONTINUOUS
 62
     2
 10
141.662585667
 20
156.409362793
 30
0.0
 11
140.591157096
 21
156.409362793
 31
0.0
  0
LINE
  8
0
  6
CONTINUOUS
 62
     2
 10
142.80544281
 20
156.628112793
 30
0.0
 11
143.341157096
 21
156.409362793
 31
0.0
  0
LINE
  8
0
  6
CONTINUOUS
 62
     2
 10
143.341157096
 20
156.409362793
 30
0.0
 11
145.126871381
 21
156.409362793
 31
0.0
  0
LINE
  8
0
  6
CONTINUOUS
 62
     2
 10
145.734014239
 20
155.096862793
 30
0.0
 11
146.269728524
 21
155.534362793
 31
0.0
  0
LINE
  8
0
  6
CONTINUOUS
 62
     2
 10
146.269728524
 20
155.534362793
 30
0.0
 11
146.80544281
 21
156.190612793
 31
0.0
  0
LINE
  8
0
  6
CONTINUOUS
 62
     2
 10
146.80544281
 20
156.190612793
 30
0.0
 11
147.341157096
 21
157.284362793
 31
0.0
  0
LINE
  8
0
  6
CONTINUOUS
 62
     2
 10
147.341157096
 20
157.284362793
 30
0.0
 11
145.734014239
 21
157.284362793
 31
0.0
  0
LINE
  8
0
  6
CONTINUOUS
 62
     2
 10
147.876871381
 20
157.503112793
 30
0.0
 11
147.519728524
 21
157.940612793
 31
0.0
  0
LINE
  8
0
  6
CONTINUOUS
 62
     2
 10
147.341157096
 20
157.721862793
 30
0.0
 11
147.698299953
 21
157.284362793
 31
0.0
  0
LINE
  8
0
  6
CONTINUOUS
 62
     2
 10
146.626871381
 20
155.971862793
 30
0.0
 11
147.341157096
 21
155.315612793
 31
0.0
  0
LINE
  8
0
  6
CONTINUOUS
 62
     2
 10
147.341157096
 20
155.315612793
 30
0.0
 11
147.698299953
 21
155.096862793
 31
0.0
  0
LINE
  8
0
  6
LTYPE1
 62
     7
 10
110.0
 20
77.000007629
 30
0.0
 11
115.0
 21
77.000007629
 31
0.0
  0
TEXT
  8
0
  6
CONTINUOUS
 62
     2
 10
45.0
 20
25.8
 30
0.35
 40
3.6
  1
Ｃ±１
 50
0.0
 41
0.875
 51
0.0
  7
KANJI5
  0
TEXT
  8
0
  6
CONTINUOUS
 62
     2
 10
48.0
 20
182.8
 30
0.35
 40
3.6
  1
Ａ
 50
0.0
 41
0.875
 51
0.0
  7
KANJI5
  0
TEXT
  8
0
  6
CONTINUOUS
 62
     2
 10
120.0
 20
25.8
 30
0.35
 40
3.6
  1
Ｄ±３
 50
0.0
 41
0.875
 51
0.0
  7
KANJI5
  0
TEXT
  8
0
  6
CONTINUOUS
 62
     2
 10
77.0
 20
23.8
 30
0.35
 40
3.6
  1
４－φａ
 50
0.0
 41
0.875
 51
0.0
  7
KANJI5
  0
TEXT
  8
0
  6
CONTINUOUS
 62
     2
 10
186.5
 20
141.0
 30
0.0
 40
3.0
  1
ＰＤ－１ＣＺｂ
 50
0.0
 41
0.5
 51
0.0
  7
KANJI6
  0
TEXT
  8
0
  6
CONTINUOUS
 62
     2
 10
174.0
 20
141.0
 30
0.0
 40
3.0
  1
ＰＤ－１ＢＺｂ
 50
0.0
 41
0.5
 51
0.0
  7
KANJI6
  0
TEXT
  8
0
  6
CONTINUOUS
 62
     2
 10
199.0
 20
141.0
 30
0.0
 40
3.0
  1
ＰＤ－１ＤＺｂ
 50
0.0
 41
0.5
 51
0.0
  7
KANJI6
  0
TEXT
  8
0
  6
CONTINUOUS
 62
     2
 10
211.5
 20
141.0
 30
0.0
 40
3.0
  1
ＰＤ－１ＥＺｂ
 50
0.0
 41
0.5
 51
0.0
  7
KANJI6
  0
LINE
  8
0
  6
CONTINUOUS
 62
     2
 10
174.5
 20
185.0
 30
0.0
 11
174.5
 21
151.0
 31
0.0
  0
LINE
  8
0
  6
CONTINUOUS
 62
     2
 10
182.5
 20
185.0
 30
0.0
 11
182.5
 21
151.0
 31
0.0
  0
LINE
  8
0
  6
CONTINUOUS
 62
     2
 10
190.5
 20
185.0
 30
0.0
 11
190.5
 21
151.0
 31
0.0
  0
LINE
  8
0
  6
CONTINUOUS
 62
     2
 10
198.5
 20
185.0
 30
0.0
 11
198.5
 21
151.0
 31
0.0
  0
LINE
  8
0
  6
CONTINUOUS
 62
     2
 10
206.5
 20
185.0
 30
0.0
 11
206.5
 21
151.0
 31
0.0
  0
LINE
  8
0
  6
CONTINUOUS
 62
     2
 10
214.5
 20
185.0
 30
0.0
 11
214.5
 21
151.0
 31
0.0
  0
LINE
  8
0
  6
CONTINUOUS
 62
     2
 10
222.5
 20
185.0
 30
0.0
 11
222.5
 21
151.0
 31
0.0
  0
LINE
  8
0
  6
CONTINUOUS
 62
     2
 10
174.5
 20
175.0
 30
0.0
 11
152.0
 21
185.0
 31
0.0
  0
TEXT
  8
0
  6
CONTINUOUS
 62
     2
 10
175.5
 20
170.5
 30
0.0
 40
3.0
  1
１０５
 50
0.0
 41
0.7
 51
0.0
  7
KANJI7
  0
TEXT
  8
0
  6
CONTINUOUS
 62
     2
 10
175.5
 20
164.5
 30
0.0
 40
3.0
  1
１２５
 50
0.0
 41
0.7
 51
0.0
  7
KANJI7
  0
TEXT
  8
0
  6
CONTINUOUS
 62
     2
 10
175.5
 20
158.5
 30
0.0
 40
3.0
  1
１３３
 50
0.0
 41
0.7
 51
0.0
  7
KANJI7
  0
TEXT
  8
0
  6
CONTINUOUS
 62
     2
 10
175.5
 20
152.5
 30
0.0
 40
3.0
  1
１５２
 50
0.0
 41
0.7
 51
0.0
  7
KANJI7
  0
TEXT
  8
0
  6
CONTINUOUS
 62
     2
 10
183.5
 20
170.5
 30
0.0
 40
3.0
  1
１００
 50
0.0
 41
0.7
 51
0.0
  7
KANJI7
  0
TEXT
  8
0
  6
CONTINUOUS
 62
     2
 10
193.0
 20
170.5
 30
0.0
 40
3.0
  1
５５
 50
0.0
 41
0.7
 51
0.0
  7
KANJI7
  0
TEXT
  8
0
  6
CONTINUOUS
 62
     2
 10
201.0
 20
170.5
 30
0.0
 40
3.0
  1
５８
 50
0.0
 41
0.7
 51
0.0
  7
KANJI7
  0
TEXT
  8
0
  6
CONTINUOUS
 62
     2
 10
207.5
 20
170.5
 30
0.0
 40
3.0
  1
１２３
 50
0.0
 41
0.7
 51
0.0
  7
KANJI7
  0
TEXT
  8
0
  6
CONTINUOUS
 62
     2
 10
183.5
 20
164.5
 30
0.0
 40
3.0
  1
１２５
 50
0.0
 41
0.7
 51
0.0
  7
KANJI7
  0
TEXT
  8
0
  6
CONTINUOUS
 62
     2
 10
183.5
 20
158.5
 30
0.0
 40
3.0
  1
１３５
 50
0.0
 41
0.7
 51
0.0
  7
KANJI7
  0
TEXT
  8
0
  6
CONTINUOUS
 62
     2
 10
183.5
 20
152.5
 30
0.0
 40
3.0
  1
１５５
 50
0.0
 41
0.7
 51
0.0
  7
KANJI7
  0
TEXT
  8
0
  6
CONTINUOUS
 62
     2
 10
193.0
 20
164.5
 30
0.0
 40
3.0
  1
８０
 50
0.0
 41
0.7
 51
0.0
  7
KANJI7
  0
TEXT
  8
0
  6
CONTINUOUS
 62
     2
 10
193.0
 20
158.5
 30
0.0
 40
3.0
  1
８５
 50
0.0
 41
0.7
 51
0.0
  7
KANJI7
  0
TEXT
  8
0
  6
CONTINUOUS
 62
     2
 10
193.0
 20
152.5
 30
0.0
 40
3.0
  1
９５
 50
0.0
 41
0.7
 51
0.0
  7
KANJI7
  0
TEXT
  8
0
  6
CONTINUOUS
 62
     2
 10
201.0
 20
164.5
 30
0.0
 40
3.0
  1
７０
 50
0.0
 41
0.7
 51
0.0
  7
KANJI7
  0
TEXT
  8
0
  6
CONTINUOUS
 62
     2
 10
201.0
 20
158.5
 30
0.0
 40
3.0
  1
８２
 50
0.0
 41
0.7
 51
0.0
  7
KANJI7
  0
TEXT
  8
0
  6
CONTINUOUS
 62
     2
 10
201.0
 20
152.5
 30
0.0
 40
3.0
  1
９８
 50
0.0
 41
0.7
 51
0.0
  7
KANJI7
  0
TEXT
  8
0
  6
CONTINUOUS
 62
     2
 10
207.5
 20
164.5
 30
0.0
 40
3.0
  1
１４１
 50
0.0
 41
0.7
 51
0.0
  7
KANJI7
  0
TEXT
  8
0
  6
CONTINUOUS
 62
     2
 10
207.5
 20
158.5
 30
0.0
 40
3.0
  1
１４６
 50
0.0
 41
0.7
 51
0.0
  7
KANJI7
  0
TEXT
  8
0
  6
CONTINUOUS
 62
     2
 10
207.5
 20
152.5
 30
0.0
 40
3.0
  1
１５９
 50
0.0
 41
0.7
 51
0.0
  7
KANJI7
  0
TEXT
  8
0
  6
CONTINUOUS
 62
     2
 10
215.5
 20
170.5
 30
0.0
 40
3.0
  1
４．８
 50
0.0
 41
0.7
 51
0.0
  7
KANJI7
  0
TEXT
  8
0
  6
CONTINUOUS
 62
     2
 10
215.5
 20
164.5
 30
0.0
 40
3.0
  1
６．８
 50
0.0
 41
0.7
 51
0.0
  7
KANJI7
  0
TEXT
  8
0
  6
CONTINUOUS
 62
     2
 10
215.5
 20
158.5
 30
0.0
 40
3.0
  1
６．８
 50
0.0
 41
0.7
 51
0.0
  7
KANJI7
  0
TEXT
  8
0
  6
CONTINUOUS
 62
     2
 10
215.5
 20
152.5
 30
0.0
 40
3.0
  1
６．８
 50
0.0
 41
0.7
 51
0.0
  7
KANJI7
  0
LINE
  8
0
  6
CONTINUOUS
 62
     2
 10
152.0
 20
185.0
 30
0.0
 11
222.5
 21
185.0
 31
0.0
  0
LINE
  8
0
  6
CONTINUOUS
 62
     2
 10
152.0
 20
175.0
 30
0.0
 11
222.5
 21
175.0
 31
0.0
  0
LINE
  8
0
  6
CONTINUOUS
 62
     2
 10
152.0
 20
169.0
 30
0.0
 11
222.5
 21
169.0
 31
0.0
  0
LINE
  8
0
  6
CONTINUOUS
 62
     2
 10
152.0
 20
163.0
 30
0.0
 11
222.5
 21
163.0
 31
0.0
  0
LINE
  8
0
  6
CONTINUOUS
 62
     2
 10
152.0
 20
157.0
 30
0.0
 11
222.5
 21
157.0
 31
0.0
  0
LINE
  8
0
  6
CONTINUOUS
 62
     2
 10
152.0
 20
151.0
 30
0.0
 11
222.5
 21
151.0
 31
0.0
  0
TEXT
  8
0
  6
CONTINUOUS
 62
     2
 10
175.0
 20
91.0
 30
0.3
 40
3.0
  1
セロライトヒュース゛　ＡＣ５００Ｖ
 50
0.0
 41
0.5
 51
0.0
  7
KANJI8
  0
TEXT
  8
0
  6
CONTINUOUS
 62
     2
 10
175.5
 20
86.0
 30
0.3
 40
3.0
  1
２．２ｋｇ
 50
0.0
 41
0.5
 51
0.0
  7
KANJI8
  0
TEXT
  8
0
  6
CONTINUOUS
 62
     2
 10
188.0
 20
86.0
 30
0.3
 40
3.0
  1
４．５ｋｇ
 50
0.0
 41
0.5
 51
0.0
  7
KANJI8
  0
TEXT
  8
0
  6
CONTINUOUS
 62
     2
 10
200.5
 20
86.0
 30
0.3
 40
3.0
  1
６．６ｋｇ
 50
0.0
 41
0.5
 51
0.0
  7
KANJI8
  0
TEXT
  8
0
  6
CONTINUOUS
 62
     2
 10
213.0
 20
86.0
 30
0.3
 40
3.0
  1
１０ｋｇ
 50
0.0
 41
0.5
 51
0.0
  7
KANJI8
  0
TEXT
  8
0
  6
CONTINUOUS
 62
     2
 10
89.2
 20
60.0
 30
0.35
 40
3.6
  1
Ｈ
 50
90.0
 41
0.875
 51
0.0
  7
KANJI5
  0
TEXT
  8
0
  6
CONTINUOUS
 62
     2
 10
89.2
 20
145.0
 30
0.35
 40
3.6
  1
Ｂ
 50
90.0
 41
0.875
 51
0.0
  7
KANJI5
  0
LINE
  8
0
  6
CONTINUOUS
 62
     2
 10
223.0
 20
145.0
 30
0.0
 11
223.0
 21
75.0
 31
0.0
  0
LINE
  8
0
  6
CONTINUOUS
 62
     2
 10
173.0
 20
145.0
 30
0.0
 11
173.0
 21
75.0
 31
0.0
  0
LINE
  8
0
  6
CONTINUOUS
 62
     2
 10
173.0
 20
70.0
 30
0.0
 11
173.0
 21
60.0
 31
0.0
  0
LINE
  8
0
  6
CONTINUOUS
 62
     2
 10
223.0
 20
70.0
 30
0.0
 11
223.0
 21
60.0
 31
0.0
  0
LINE
  8
0
  6
CONTINUOUS
 62
     2
 10
155.0
 20
70.0
 30
0.0
 11
155.0
 21
60.0
 31
0.0
  0
LINE
  8
0
  6
LTYPE2
 62
     2
 10
18.0
 20
147.0
 30
0.0
 11
82.0
 21
147.0
 31
0.0
  0
LINE
  8
0
  6
LTYPE2
 62
     2
 10
50.0
 20
175.0
 30
0.0
 11
50.0
 21
121.0
 31
0.0
  0
LINE
  8
0
  6
LTYPE2
 62
     2
 10
40.999997581
 20
134.0
 30
0.0
 11
41.000002605
 21
161.0
 31
0.0
  0
LINE
  8
0
  6
LTYPE2
 62
     2
 10
44.000002605
 20
158.0
 30
0.0
 11
38.000002605
 21
158.0
 31
0.0
  0
LINE
  8
0
  6
LTYPE2
 62
     2
 10
44.000002605
 20
136.0
 30
0.0
 11
38.000002605
 21
136.0
 31
0.0
  0
LINE
  8
0
  6
LTYPE2
 62
     2
 10
29.000002605
 20
158.5
 30
0.0
 11
23.000002605
 21
158.5
 31
0.0
  0
LINE
  8
0
  6
LTYPE2
 62
     2
 10
29.000002605
 20
136.5
 30
0.0
 11
23.000002605
 21
136.5
 31
0.0
  0
LINE
  8
0
  6
LTYPE2
 62
     2
 10
25.999997581
 20
134.5
 30
0.0
 11
26.000002605
 21
161.5
 31
0.0
  0
ARC
  8
0
  6
CONTINUOUS
 62
     2
 10
24.0
 20
167.0
 30
0.0
 40
2.0
 50
90.0
 51
180.0
  0
ARC
  8
0
  6
CONTINUOUS
 62
     2
 10
76.000007629
 20
167.0
 30
0.0
 40
2.0
 50
0.0
 51
90.0
  0
LINE
  8
0
  6
CONTINUOUS
 62
     2
 10
22.0
 20
167.0
 30
0.0
 11
22.0
 21
164.0
 31
0.0
  0
LINE
  8
0
  6
CONTINUOUS
 62
     2
 10
78.000001907
 20
164.0
 30
0.0
 11
78.000007629
 21
167.0
 31
0.0
  0
LINE
  8
0
  6
CONTINUOUS
 62
     2
 10
50.0
 20
171.0
 30
0.0
 11
40.0
 21
171.0
 31
0.0
  0
ARC
  8
0
  6
CONTINUOUS
 62
     2
 10
40.605262756
 20
162.236846924
 30
0.0
 40
8.784035683
 50
93.951087952
 51
168.420791626
  0
LINE
  8
0
  6
CONTINUOUS
 62
     2
 10
50.0
 20
171.0
 30
0.0
 11
60.0
 21
171.0
 31
0.0
  0
ARC
  8
0
  6
CONTINUOUS
 62
     2
 10
59.394737244
 20
162.236846924
 30
0.0
 40
8.784035683
 50
11.579210281
 51
86.048912048
  0
ARC
  8
0
  6
CONTINUOUS
 62
     2
 10
24.0
 20
127.0
 30
0.0
 40
2.0
 50
180.0
 51
270.0
  0
ARC
  8
0
  6
CONTINUOUS
 62
     2
 10
76.000007629
 20
127.0
 30
0.0
 40
2.0
 50
270.0
 51
0.0
  0
LINE
  8
0
  6
CONTINUOUS
 62
     2
 10
50.0
 20
123.0
 30
0.0
 11
40.0
 21
123.0
 31
0.0
  0
ARC
  8
0
  6
CONTINUOUS
 62
     2
 10
40.605262756
 20
131.763153076
 30
0.0
 40
8.784035683
 50
202.524115157
 51
266.04888916
  0
LINE
  8
0
  6
CONTINUOUS
 62
     2
 10
50.0
 20
123.0
 30
0.0
 11
60.0
 21
123.0
 31
0.0
  0
ARC
  8
0
  6
CONTINUOUS
 62
     2
 10
59.394737244
 20
131.763153076
 30
0.0
 40
8.784035683
 50
273.95111084
 51
341.665424884
  0
LINE
  8
0
  6
CONTINUOUS
 62
     2
 10
78.0
 20
127.0
 30
0.0
 11
78.0
 21
129.0
 31
0.0
  0
LINE
  8
0
  6
CONTINUOUS
 62
     2
 10
22.0
 20
127.0
 30
0.0
 11
22.0
 21
129.0
 31
0.0
  0
LINE
  8
0
  6
CONTINUOUS
 62
     2
 10
24.0
 20
169.0
 30
0.0
 11
29.0
 21
169.0
 31
0.0
  0
LINE
  8
0
  6
CONTINUOUS
 62
     2
 10
29.0
 20
169.0
 30
0.0
 11
34.999992371
 21
169.0
 31
0.0
  0
LINE
  8
0
  6
CONTINUOUS
 62
     2
 10
65.000007629
 20
169.0
 30
0.0
 11
69.0
 21
169.0
 31
0.0
  0
LINE
  8
0
  6
CONTINUOUS
 62
     2
 10
69.0
 20
168.999984741
 30
0.0
 11
76.000007629
 21
169.0
 31
0.0
  0
LINE
  8
0
  6
CONTINUOUS
 62
     2
 10
65.000007629
 20
125.0
 30
0.0
 11
71.0
 21
125.0
 31
0.0
  0
LINE
  8
0
  6
CONTINUOUS
 62
     2
 10
71.0
 20
125.0
 30
0.0
 11
76.000007629
 21
125.0
 31
0.0
  0
LINE
  8
0
  6
CONTINUOUS
 62
     2
 10
24.0
 20
125.0
 30
0.0
 11
29.0
 21
125.0
 31
0.0
  0
LINE
  8
0
  6
CONTINUOUS
 62
     2
 10
29.0
 20
125.0
 30
0.0
 11
34.999992371
 21
125.0
 31
0.0
  0
LINE
  8
0
  6
CONTINUOUS
 62
     2
 10
19.0
 20
164.0
 30
0.0
 11
81.0
 21
164.0
 31
0.0
  0
LINE
  8
0
  6
CONTINUOUS
 62
     2
 10
81.0
 20
129.0
 30
0.0
 11
65.4216
 21
129.0
 31
0.0
  0
LINE
  8
0
  6
CONTINUOUS
 62
     2
 10
56.991496094
 20
129.0
 30
0.0
 11
61.424241506
 21
129.0
 31
0.0
  0
LINE
  8
0
  6
CONTINUOUS
 62
     2
 10
69.0
 20
164.0
 30
0.0
 11
69.0
 21
166.0
 31
0.0
  0
ARC
  8
0
  6
CONTINUOUS
 62
     2
 10
68.0
 20
166.0
 30
0.0
 40
1.0
 50
0.0
 51
153.533857501
  0
LINE
  8
0
  6
CONTINUOUS
 62
     2
 10
31.0
 20
164.0
 30
0.0
 11
31.0
 21
166.0
 31
0.0
  0
ARC
  8
0
  6
CONTINUOUS
 62
     2
 10
32.0
 20
166.0
 30
0.0
 40
1.0
 50
26.466142499
 51
180.0
  0
LINE
  8
0
  6
CONTINUOUS
 62
     2
 10
69.0
 20
129.0
 30
0.0
 11
69.0
 21
128.0
 31
0.0
  0
ARC
  8
0
  6
CONTINUOUS
 62
     2
 10
68.0
 20
128.0
 30
0.0
 40
1.0
 50
206.466142499
 51
0.0
  0
LINE
  8
0
  6
CONTINUOUS
 62
     2
 10
31.0
 20
129.0
 30
0.0
 11
31.0
 21
128.0
 31
0.0
  0
ARC
  8
0
  6
CONTINUOUS
 62
     2
 10
32.0
 20
128.0
 30
0.0
 40
1.0
 50
180.0
 51
333.533857501
  0
LINE
  8
0
  6
CONTINUOUS
 62
     2
 10
54.694
 20
148.87
 30
0.0
 11
54.694
 21
145.198
 31
0.0
  0
LINE
  8
0
  6
CONTINUOUS
 62
     2
 10
75.502
 20
145.13
 30
0.0
 11
75.502
 21
148.802
 31
0.0
  0
LINE
  8
0
  6
CONTINUOUS
 62
     2
 10
54.694
 20
148.87
 30
0.0
 11
75.502
 21
148.87
 31
0.0
  0
LINE
  8
0
  6
CONTINUOUS
 62
     2
 10
54.694
 20
145.198
 30
0.0
 11
75.502
 21
145.198
 31
0.0
  0
LINE
  8
0
  6
CONTINUOUS
 62
     2
 10
54.694
 20
157.438
 30
0.0
 11
54.694
 21
148.87
 31
0.0
  0
LINE
  8
0
  6
CONTINUOUS
 62
     2
 10
54.694
 20
145.198
 30
0.0
 11
54.694
 21
136.63
 31
0.0
  0
LINE
  8
0
  6
CONTINUOUS
 62
     2
 10
55.306
 20
157.438
 30
0.0
 11
55.306
 21
148.87
 31
0.0
  0
LINE
  8
0
  6
CONTINUOUS
 62
     2
 10
55.306
 20
145.198
 30
0.0
 11
55.306
 21
136.63
 31
0.0
  0
LINE
  8
0
  6
CONTINUOUS
 62
     2
 10
61.426
 20
157.438
 30
0.0
 11
61.426
 21
148.87
 31
0.0
  0
LINE
  8
0
  6
CONTINUOUS
 62
     2
 10
62.038
 20
157.438
 30
0.0
 11
62.038
 21
148.87
 31
0.0
  0
LINE
  8
0
  6
CONTINUOUS
 62
     2
 10
68.158
 20
157.438
 30
0.0
 11
68.158
 21
148.87
 31
0.0
  0
LINE
  8
0
  6
CONTINUOUS
 62
     2
 10
68.77
 20
157.438
 30
0.0
 11
68.77
 21
148.87
 31
0.0
  0
LINE
  8
0
  6
CONTINUOUS
 62
     2
 10
74.89
 20
157.438
 30
0.0
 11
74.89
 21
148.87
 31
0.0
  0
LINE
  8
0
  6
CONTINUOUS
 62
     2
 10
75.502
 20
157.438
 30
0.0
 11
75.502
 21
148.87
 31
0.0
  0
LINE
  8
0
  6
CONTINUOUS
 62
     2
 10
61.426
 20
145.198
 30
0.0
 11
61.426
 21
136.63
 31
0.0
  0
LINE
  8
0
  6
CONTINUOUS
 62
     2
 10
62.038
 20
145.198
 30
0.0
 11
62.038
 21
136.63
 31
0.0
  0
LINE
  8
0
  6
CONTINUOUS
 62
     2
 10
68.158
 20
145.198
 30
0.0
 11
68.158
 21
136.63
 31
0.0
  0
LINE
  8
0
  6
CONTINUOUS
 62
     2
 10
68.77
 20
145.198
 30
0.0
 11
68.77
 21
136.63
 31
0.0
  0
LINE
  8
0
  6
CONTINUOUS
 62
     2
 10
74.89
 20
145.198
 30
0.0
 11
74.89
 21
136.63
 31
0.0
  0
LINE
  8
0
  6
CONTINUOUS
 62
     2
 10
75.502
 20
145.198
 30
0.0
 11
75.502
 21
136.63
 31
0.0
  0
LINE
  8
0
  6
CONTINUOUS
 62
     2
 10
75.502
 20
150.026
 30
0.0
 11
77.95
 21
150.026
 31
0.0
  0
LINE
  8
0
  6
CONTINUOUS
 62
     2
 10
77.95
 20
150.026
 30
0.0
 11
77.95
 21
143.906
 31
0.0
  0
LINE
  8
0
  6
CONTINUOUS
 62
     2
 10
54.694002335
 20
143.974
 30
0.0
 11
50.410002335
 21
143.974009338
 31
0.0
  0
LINE
  8
0
  6
CONTINUOUS
 62
     2
 10
52.246
 20
150.094
 30
0.0
 11
52.246
 21
143.974
 31
0.0
  0
LINE
  8
0
  6
CONTINUOUS
 62
     2
 10
77.338
 20
150.026
 30
0.0
 11
77.338
 21
143.906
 31
0.0
  0
LINE
  8
0
  6
CONTINUOUS
 62
     2
 10
52.857997665
 20
150.094
 30
0.0
 11
52.857997665
 21
143.974
 31
0.0
  0
LINE
  8
0
  6
CONTINUOUS
 62
     2
 10
77.338
 20
145.742
 30
0.0
 11
75.502
 21
145.742
 31
0.0
  0
LINE
  8
0
  6
CONTINUOUS
 62
     2
 10
75.502
 20
148.19
 30
0.0
 11
77.338
 21
148.19
 31
0.0
  0
LINE
  8
0
  6
CONTINUOUS
 62
     2
 10
54.694
 20
148.258
 30
0.0
 11
52.858
 21
148.258
 31
0.0
  0
LINE
  8
0
  6
CONTINUOUS
 62
     2
 10
54.694
 20
145.81
 30
0.0
 11
52.858
 21
145.81
 31
0.0
  0
LINE
  8
0
  6
CONTINUOUS
 62
     2
 10
75.502
 20
154.922
 30
0.0
 11
79.786
 21
154.922
 31
0.0
  0
ARC
  8
0
  6
CONTINUOUS
 62
     2
 10
79.786
 20
154.31
 30
0.0
 40
0.612
 50
0.0
 51
90.0
  0
LINE
  8
0
  6
CONTINUOUS
 62
     2
 10
75.502
 20
150.026
 30
0.0
 11
79.786
 21
150.026
 31
0.0
  0
LINE
  8
0
  6
CONTINUOUS
 62
     2
 10
80.398
 20
154.31
 30
0.0
 11
80.398
 21
150.638
 31
0.0
  0
ARC
  8
0
  6
CONTINUOUS
 62
     2
 10
79.786
 20
150.638
 30
0.0
 40
0.612
 50
270.0
 51
0.0
  0
CIRCLE
  8
0
  6
CONTINUOUS
 62
     2
 10
77.95
 20
152.474
 30
0.0
 40
1.224
  0
LINE
  8
0
  6
CONTINUOUS
 62
     2
 10
54.694002335
 20
143.974
 30
0.0
 11
52.246
 21
143.974
 31
0.0
  0
ARC
  8
0
  6
CONTINUOUS
 62
     2
 10
50.410002335
 20
143.362
 30
0.0
 40
0.612
 50
90.0
 51
180.0
  0
LINE
  8
0
  6
CONTINUOUS
 62
     2
 10
49.798002335
 20
143.362
 30
0.0
 11
49.798002335
 21
139.69
 31
0.0
  0
LINE
  8
0
  6
CONTINUOUS
 62
     2
 10
54.694002335
 20
139.078
 30
0.0
 11
50.410002335
 21
139.078
 31
0.0
  0
ARC
  8
0
  6
CONTINUOUS
 62
     2
 10
50.410002335
 20
139.69
 30
0.0
 40
0.612
 50
180.0
 51
270.0
  0
CIRCLE
  8
0
  6
CONTINUOUS
 62
     2
 10
52.246002335
 20
141.526
 30
0.0
 40
1.224
  0
LINE
  8
0
  6
CONTINUOUS
 62
     2
 10
55.306
 20
139.078
 30
0.0
 11
61.426
 21
139.078
 31
0.0
  0
LINE
  8
0
  6
CONTINUOUS
 62
     2
 10
62.038
 20
139.078
 30
0.0
 11
68.158
 21
139.078
 31
0.0
  0
LINE
  8
0
  6
CONTINUOUS
 62
     2
 10
68.77
 20
139.078
 30
0.0
 11
74.89
 21
139.078
 31
0.0
  0
CIRCLE
  8
0
  6
CONTINUOUS
 62
     2
 10
58.366
 20
142.138
 30
0.0
 40
1.836
  0
LINE
  8
0
  6
CONTINUOUS
 62
     2
 10
57.500500366
 20
141.272500366
 30
0.0
 11
59.231499634
 21
143.003499634
 31
0.0
  0
LINE
  8
0
  6
CONTINUOUS
 62
     2
 10
57.500500366
 20
143.003499634
 30
0.0
 11
59.231499634
 21
141.272500366
 31
0.0
  0
CIRCLE
  8
0
  6
CONTINUOUS
 62
     2
 10
65.098
 20
142.138
 30
0.0
 40
1.836
  0
LINE
  8
0
  6
CONTINUOUS
 62
     2
 10
64.232500366
 20
141.272500366
 30
0.0
 11
65.963499634
 21
143.003499634
 31
0.0
  0
LINE
  8
0
  6
CONTINUOUS
 62
     2
 10
64.232500366
 20
143.003499634
 30
0.0
 11
65.963499634
 21
141.272500366
 31
0.0
  0
CIRCLE
  8
0
  6
CONTINUOUS
 62
     2
 10
71.83
 20
142.138
 30
0.0
 40
1.836
  0
LINE
  8
0
  6
CONTINUOUS
 62
     2
 10
70.964500366
 20
141.272500366
 30
0.0
 11
72.695499634
 21
143.003499634
 31
0.0
  0
LINE
  8
0
  6
CONTINUOUS
 62
     2
 10
70.964500366
 20
143.003499634
 30
0.0
 11
72.695499634
 21
141.272500366
 31
0.0
  0
CIRCLE
  8
0
  6
CONTINUOUS
 62
     2
 10
58.366
 20
151.93
 30
0.0
 40
1.836
  0
LINE
  8
0
  6
CONTINUOUS
 62
     2
 10
57.500500366
 20
151.064500366
 30
0.0
 11
59.231499634
 21
152.795499634
 31
0.0
  0
LINE
  8
0
  6
CONTINUOUS
 62
     2
 10
57.500500366
 20
152.795499634
 30
0.0
 11
59.231499634
 21
151.064500366
 31
0.0
  0
CIRCLE
  8
0
  6
CONTINUOUS
 62
     2
 10
65.098
 20
151.93
 30
0.0
 40
1.836
  0
LINE
  8
0
  6
CONTINUOUS
 62
     2
 10
64.232500366
 20
151.064500366
 30
0.0
 11
65.963499634
 21
152.795499634
 31
0.0
  0
LINE
  8
0
  6
CONTINUOUS
 62
     2
 10
64.232500366
 20
152.795499634
 30
0.0
 11
65.963499634
 21
151.064500366
 31
0.0
  0
CIRCLE
  8
0
  6
CONTINUOUS
 62
     2
 10
71.83
 20
151.93
 30
0.0
 40
1.836
  0
LINE
  8
0
  6
CONTINUOUS
 62
     2
 10
70.964500366
 20
151.064500366
 30
0.0
 11
72.695499634
 21
152.795499634
 31
0.0
  0
LINE
  8
0
  6
CONTINUOUS
 62
     2
 10
70.964500366
 20
152.795499634
 30
0.0
 11
72.695499634
 21
151.064500366
 31
0.0
  0
LINE
  8
0
  6
CONTINUOUS
 62
     2
 10
54.694
 20
136.63
 30
0.0
 11
55.306
 21
136.63
 31
0.0
  0
LINE
  8
0
  6
CONTINUOUS
 62
     2
 10
61.426
 20
136.63
 30
0.0
 11
62.038
 21
136.63
 31
0.0
  0
LINE
  8
0
  6
CONTINUOUS
 62
     2
 10
68.158
 20
136.63
 30
0.0
 11
68.77
 21
136.63
 31
0.0
  0
LINE
  8
0
  6
CONTINUOUS
 62
     2
 10
74.89
 20
136.63
 30
0.0
 11
75.502
 21
136.63
 31
0.0
  0
LINE
  8
0
  6
CONTINUOUS
 62
     2
 10
54.694
 20
157.438
 30
0.0
 11
55.306
 21
157.438
 31
0.0
  0
LINE
  8
0
  6
CONTINUOUS
 62
     2
 10
61.426
 20
157.438
 30
0.0
 11
62.038
 21
157.438
 31
0.0
  0
LINE
  8
0
  6
CONTINUOUS
 62
     2
 10
68.158
 20
157.438
 30
0.0
 11
68.77
 21
157.438
 31
0.0
  0
LINE
  8
0
  6
CONTINUOUS
 62
     2
 10
74.89
 20
157.438
 30
0.0
 11
75.502
 21
157.438
 31
0.0
  0
LINE
  8
0
  6
CONTINUOUS
 62
     2
 10
55.306
 20
154.99
 30
0.0
 11
61.426
 21
154.99
 31
0.0
  0
LINE
  8
0
  6
CONTINUOUS
 62
     2
 10
62.038
 20
154.99
 30
0.0
 11
68.158
 21
154.99
 31
0.0
  0
LINE
  8
0
  6
CONTINUOUS
 62
     2
 10
68.77
 20
154.99
 30
0.0
 11
74.89
 21
154.99
 31
0.0
  0
ARC
  8
0
  6
CONTINUOUS
 62
     2
 10
46.634
 20
125.582
 30
0.0
 40
1.224
 50
180.0
 51
0.0
  0
ARC
  8
0
  6
CONTINUOUS
 62
     2
 10
53.598
 20
125.582
 30
0.0
 40
1.224
 50
180.0
 51
0.0
  0
LINE
  8
0
  6
CONTINUOUS
 62
     2
 10
57.142
 20
133.795034513
 30
0.0
 11
57.142
 21
139.078
 31
0.0
  0
LINE
  8
0
  6
CONTINUOUS
 62
     2
 10
59.59
 20
139.078
 30
0.0
 11
59.59
 21
132.593236115
 31
0.0
  0
ARC
  8
0
  6
CONTINUOUS
 62
     2
 10
60.33
 20
125.582
 30
0.0
 40
1.224
 50
180.0
 51
0.0
  0
LINE
  8
0
  6
CONTINUOUS
 62
     2
 10
70.606
 20
139.078
 30
0.0
 11
70.606
 21
136.122059024
 31
0.0
  0
LINE
  8
0
  6
CONTINUOUS
 62
     2
 10
73.054
 20
139.078
 30
0.0
 11
73.054
 21
134.920260627
 31
0.0
  0
LINE
  8
0
  6
CONTINUOUS
 62
     2
 10
24.696
 20
134.983564309
 30
0.0
 11
24.696
 21
132.072129
 31
0.0
  0
LINE
  8
0
  6
CONTINUOUS
 62
     2
 10
27.144
 20
134.859490945
 30
0.0
 11
27.144
 21
133.682133221
 31
0.0
  0
LINE
  8
0
  6
CONTINUOUS
 62
     2
 10
77.95
 20
143.906
 30
0.0
 11
75.502
 21
143.906
 31
0.0
  0
LINE
  8
0
  6
CONTINUOUS
 62
     2
 10
52.246
 20
150.094
 30
0.0
 11
54.694
 21
150.094
 31
0.0
  0
LINE
  8
0
  6
CONTINUOUS
 62
     2
 10
55.306
 20
157.03
 30
0.0
 11
61.426
 21
157.03
 31
0.0
  0
LINE
  8
0
  6
CONTINUOUS
 62
     2
 10
62.038
 20
157.03
 30
0.0
 11
68.158
 21
157.03
 31
0.0
  0
LINE
  8
0
  6
CONTINUOUS
 62
     2
 10
68.77
 20
157.03
 30
0.0
 11
74.89
 21
157.03
 31
0.0
  0
LINE
  8
0
  6
CONTINUOUS
 62
     2
 10
57.142
 20
136.63
 30
0.0
 11
55.306
 21
136.63
 31
0.0
  0
LINE
  8
0
  6
CONTINUOUS
 62
     2
 10
74.89
 20
136.63
 30
0.0
 11
73.054
 21
136.63
 31
0.0
  0
ARC
  8
0
  6
CONTINUOUS
 62
     2
 10
39.67
 20
125.582
 30
0.0
 40
1.224
 50
180.0
 51
0.0
  0
LINE
  8
0
  6
CONTINUOUS
 62
     2
 10
47.858
 20
128.411636364
 30
0.0
 11
47.858
 21
125.582
 31
0.0
  0
LINE
  8
0
  6
CONTINUOUS
 62
     2
 10
45.41
 20
127.18439309
 30
0.0
 11
45.41
 21
125.582
 31
0.0
  0
LINE
  8
0
  6
CONTINUOUS
 62
     2
 10
40.894
 20
127.201798398
 30
0.0
 11
40.894
 21
125.582
 31
0.0
  0
LINE
  8
0
  6
CONTINUOUS
 62
     2
 10
54.822
 20
126.0
 30
0.0
 11
54.822
 21
125.582
 31
0.0
  0
LINE
  8
0
  6
CONTINUOUS
 62
     2
 10
52.374
 20
127.022479692
 30
0.0
 11
52.374
 21
125.582
 31
0.0
  0
LINE
  8
0
  6
CONTINUOUS
 62
     2
 10
61.554
 20
126.0
 30
0.0
 11
61.554
 21
125.582
 31
0.0
  0
LINE
  8
0
  6
CONTINUOUS
 62
     2
 10
59.106
 20
127.201798398
 30
0.0
 11
59.106
 21
125.582
 31
0.0
  0
LINE
  8
0
  6
CONTINUOUS
 62
     2
 10
31.214455434
 20
129.0
 30
0.0
 11
19.0
 21
129.0
 31
0.0
  0
LINE
  8
0
  6
CONTINUOUS
 62
     2
 10
43.190924888
 20
129.0
 30
0.0
 11
37.078568744
 21
129.0
 31
0.0
  0
LINE
  8
0
  6
CONTINUOUS
 62
     2
 10
53.766209746
 20
129.0
 30
0.0
 11
47.138888889
 21
129.0
 31
0.0
  0
LINE
  8
0
  6
CONTINUOUS
 62
     2
 10
61.554
 20
126.0
 30
0.0
 11
73.054
 21
134.920260627
 31
0.0
  0
LINE
  8
0
  6
CONTINUOUS
 62
     2
 10
59.106
 20
127.201798398
 30
0.0
 11
70.606
 21
136.122059024
 31
0.0
  0
LINE
  8
0
  6
CONTINUOUS
 62
     2
 10
70.606
 20
136.63
 30
0.0
 11
59.59
 21
136.63
 31
0.0
  0
LINE
  8
0
  6
CONTINUOUS
 62
     2
 10
81.0
 20
164.0
 30
0.0
 11
81.0
 21
129.0
 31
0.0
  0
LINE
  8
0
  6
CONTINUOUS
 62
     2
 10
57.142
 20
133.795034513
 30
0.0
 11
52.374
 21
127.022479692
 31
0.0
  0
LINE
  8
0
  6
CONTINUOUS
 62
     2
 10
54.822
 20
126.0
 30
0.0
 11
59.59
 21
132.593236115
 31
0.0
  0
LINE
  8
0
  6
CONTINUOUS
 62
     2
 10
19.0
 20
164.0
 30
0.0
 11
19.0
 21
129.0
 31
0.0
  0
LINE
  8
0
  6
CONTINUOUS
 62
     2
 10
46.000002605
 20
160.0
 30
0.0
 11
36.000002605
 21
160.0
 31
0.0
  0
LINE
  8
0
  6
CONTINUOUS
 62
     2
 10
36.000002605
 20
160.0
 30
0.0
 11
36.000002605
 21
134.0
 31
0.0
  0
LINE
  8
0
  6
CONTINUOUS
 62
     2
 10
46.000002605
 20
134.0
 30
0.0
 11
46.000002605
 21
160.0
 31
0.0
  0
LINE
  8
0
  6
CONTINUOUS
 62
     2
 10
37.000002605
 20
134.0
 30
0.0
 11
37.000002605
 21
160.0
 31
0.0
  0
LINE
  8
0
  6
CONTINUOUS
 62
     2
 10
45.000002605
 20
134.0
 30
0.0
 11
45.000002605
 21
160.0
 31
0.0
  0
LINE
  8
0
  6
CONTINUOUS
 62
     2
 10
38.000002605
 20
138.0
 30
0.0
 11
44.000002605
 21
138.0
 31
0.0
  0
LINE
  8
0
  6
CONTINUOUS
 62
     2
 10
44.000002605
 20
138.0
 30
0.0
 11
44.000002605
 21
142.0
 31
0.0
  0
LINE
  8
0
  6
CONTINUOUS
 62
     2
 10
44.000002605
 20
142.0
 30
0.0
 11
38.000002605
 21
142.0
 31
0.0
  0
LINE
  8
0
  6
CONTINUOUS
 62
     2
 10
38.000002605
 20
142.0
 30
0.0
 11
38.000002605
 21
138.0
 31
0.0
  0
LINE
  8
0
  6
CONTINUOUS
 62
     2
 10
44.000002605
 20
156.0
 30
0.0
 11
38.000002605
 21
156.0
 31
0.0
  0
LINE
  8
0
  6
CONTINUOUS
 62
     2
 10
38.000002605
 20
156.0
 30
0.0
 11
38.000002605
 21
152.0
 31
0.0
  0
LINE
  8
0
  6
CONTINUOUS
 62
     2
 10
38.000002605
 20
152.0
 30
0.0
 11
44.000002605
 21
152.0
 31
0.0
  0
LINE
  8
0
  6
CONTINUOUS
 62
     2
 10
44.000002605
 20
152.0
 30
0.0
 11
44.000002605
 21
156.0
 31
0.0
  0
LINE
  8
0
  6
CONTINUOUS
 62
     2
 10
43.000002605
 20
134.0
 30
0.0
 11
43.000002605
 21
138.0
 31
0.0
  0
LINE
  8
0
  6
CONTINUOUS
 62
     2
 10
39.000002605
 20
134.0
 30
0.0
 11
39.000002605
 21
138.0
 31
0.0
  0
LINE
  8
0
  6
CONTINUOUS
 62
     2
 10
39.000002605
 20
142.0
 30
0.0
 11
39.000002605
 21
152.0
 31
0.0
  0
LINE
  8
0
  6
CONTINUOUS
 62
     2
 10
39.000002605
 20
156.0
 30
0.0
 11
39.000002605
 21
160.0
 31
0.0
  0
LINE
  8
0
  6
CONTINUOUS
 62
     2
 10
43.000002605
 20
142.0
 30
0.0
 11
43.000002605
 21
152.0
 31
0.0
  0
LINE
  8
0
  6
CONTINUOUS
 62
     2
 10
43.000002605
 20
156.0
 30
0.0
 11
43.000002605
 21
160.0
 31
0.0
  0
LINE
  8
0
  6
CONTINUOUS
 62
     2
 10
42.500002605
 20
138.0
 30
0.0
 11
42.500002605
 21
142.0
 31
0.0
  0
LINE
  8
0
  6
CONTINUOUS
 62
     2
 10
39.500002605
 20
138.0
 30
0.0
 11
39.500002605
 21
142.0
 31
0.0
  0
LINE
  8
0
  6
CONTINUOUS
 62
     2
 10
39.500002605
 20
152.0
 30
0.0
 11
39.500002605
 21
156.0
 31
0.0
  0
LINE
  8
0
  6
CONTINUOUS
 62
     2
 10
42.500002605
 20
152.0
 30
0.0
 11
42.500002605
 21
156.0
 31
0.0
  0
CIRCLE
  8
0
  6
CONTINUOUS
 62
     2
 10
41.000002605
 20
136.0
 30
0.0
 40
1.5
  0
CIRCLE
  8
0
  6
CONTINUOUS
 62
     2
 10
41.000002605
 20
158.0
 30
0.0
 40
1.5
  0
ARC
  8
0
  6
CONTINUOUS
 62
     2
 10
41.000002605
 20
136.0
 30
0.0
 40
2.0
 50
308.682091848
 51
233.201595354
  0
LINE
  8
0
  6
CONTINUOUS
 62
     2
 10
36.000002605
 20
134.0
 30
0.0
 11
39.802
 21
134.0
 31
0.0
  0
LINE
  8
0
  6
CONTINUOUS
 62
     2
 10
42.25
 20
134.0
 30
0.0
 11
46.000002605
 21
134.0
 31
0.0
  0
LINE
  8
0
  6
CONTINUOUS
 62
     2
 10
31.000002605
 20
160.5
 30
0.0
 11
21.000002605
 21
160.5
 31
0.0
  0
LINE
  8
0
  6
CONTINUOUS
 62
     2
 10
21.000002605
 20
160.5
 30
0.0
 11
21.000002605
 21
134.5
 31
0.0
  0
LINE
  8
0
  6
CONTINUOUS
 62
     2
 10
31.000002605
 20
134.5
 30
0.0
 11
31.000002605
 21
160.5
 31
0.0
  0
LINE
  8
0
  6
CONTINUOUS
 62
     2
 10
22.000002605
 20
134.5
 30
0.0
 11
22.000002605
 21
160.5
 31
0.0
  0
LINE
  8
0
  6
CONTINUOUS
 62
     2
 10
30.000002605
 20
134.5
 30
0.0
 11
30.000002605
 21
160.5
 31
0.0
  0
LINE
  8
0
  6
CONTINUOUS
 62
     2
 10
23.000002605
 20
138.5
 30
0.0
 11
29.000002605
 21
138.5
 31
0.0
  0
LINE
  8
0
  6
CONTINUOUS
 62
     2
 10
29.000002605
 20
138.5
 30
0.0
 11
29.000002605
 21
142.5
 31
0.0
  0
LINE
  8
0
  6
CONTINUOUS
 62
     2
 10
29.000002605
 20
142.5
 30
0.0
 11
23.000002605
 21
142.5
 31
0.0
  0
LINE
  8
0
  6
CONTINUOUS
 62
     2
 10
23.000002605
 20
142.5
 30
0.0
 11
23.000002605
 21
138.5
 31
0.0
  0
LINE
  8
0
  6
CONTINUOUS
 62
     2
 10
29.000002605
 20
156.5
 30
0.0
 11
23.000002605
 21
156.5
 31
0.0
  0
LINE
  8
0
  6
CONTINUOUS
 62
     2
 10
23.000002605
 20
156.5
 30
0.0
 11
23.000002605
 21
152.5
 31
0.0
  0
LINE
  8
0
  6
CONTINUOUS
 62
     2
 10
23.000002605
 20
152.5
 30
0.0
 11
29.000002605
 21
152.5
 31
0.0
  0
LINE
  8
0
  6
CONTINUOUS
 62
     2
 10
29.000002605
 20
152.5
 30
0.0
 11
29.000002605
 21
156.5
 31
0.0
  0
LINE
  8
0
  6
CONTINUOUS
 62
     2
 10
28.000002605
 20
134.5
 30
0.0
 11
28.000002605
 21
138.5
 31
0.0
  0
LINE
  8
0
  6
CONTINUOUS
 62
     2
 10
24.000002605
 20
134.5
 30
0.0
 11
24.000002605
 21
138.5
 31
0.0
  0
LINE
  8
0
  6
CONTINUOUS
 62
     2
 10
24.000002605
 20
142.5
 30
0.0
 11
24.000002605
 21
152.5
 31
0.0
  0
LINE
  8
0
  6
CONTINUOUS
 62
     2
 10
24.000002605
 20
156.5
 30
0.0
 11
24.000002605
 21
160.5
 31
0.0
  0
LINE
  8
0
  6
CONTINUOUS
 62
     2
 10
28.000002605
 20
142.5
 30
0.0
 11
28.000002605
 21
152.5
 31
0.0
  0
LINE
  8
0
  6
CONTINUOUS
 62
     2
 10
28.000002605
 20
156.5
 30
0.0
 11
28.000002605
 21
160.5
 31
0.0
  0
LINE
  8
0
  6
CONTINUOUS
 62
     2
 10
27.500002605
 20
138.5
 30
0.0
 11
27.500002605
 21
142.5
 31
0.0
  0
LINE
  8
0
  6
CONTINUOUS
 62
     2
 10
24.500002605
 20
138.5
 30
0.0
 11
24.500002605
 21
142.5
 31
0.0
  0
LINE
  8
0
  6
CONTINUOUS
 62
     2
 10
24.500002605
 20
152.5
 30
0.0
 11
24.500002605
 21
156.5
 31
0.0
  0
LINE
  8
0
  6
CONTINUOUS
 62
     2
 10
27.500002605
 20
152.5
 30
0.0
 11
27.500002605
 21
156.5
 31
0.0
  0
CIRCLE
  8
0
  6
CONTINUOUS
 62
     2
 10
26.000002605
 20
136.5
 30
0.0
 40
1.5
  0
CIRCLE
  8
0
  6
CONTINUOUS
 62
     2
 10
26.000002605
 20
158.5
 30
0.0
 40
1.5
  0
ARC
  8
0
  6
CONTINUOUS
 62
     2
 10
26.000002605
 20
136.5
 30
0.0
 40
2.0
 50
304.889718932
 51
229.307337994
  0
LINE
  8
0
  6
CONTINUOUS
 62
     2
 10
21.000002605
 20
134.5
 30
0.0
 11
24.696
 21
134.5
 31
0.0
  0
LINE
  8
0
  6
CONTINUOUS
 62
     2
 10
27.144
 20
134.5
 30
0.0
 11
31.000002605
 21
134.5
 31
0.0
  0
LINE
  8
0
  6
CONTINUOUS
 62
     2
 10
40.894
 20
127.201798398
 30
0.0
 11
27.144
 21
133.682133221
 31
0.0
  0
LINE
  8
0
  6
CONTINUOUS
 62
     2
 10
38.446039039
 20
125.591775777
 30
0.0
 11
24.696
 21
132.072129
 31
0.0
  0
LINE
  8
0
  6
CONTINUOUS
 62
     2
 10
39.802
 20
134.5
 30
0.0
 11
39.802
 21
131.772756726
 31
0.0
  0
LINE
  8
0
  6
CONTINUOUS
 62
     2
 10
42.25
 20
134.5
 30
0.0
 11
42.25
 21
133.0
 31
0.0
  0
LINE
  8
0
  6
CONTINUOUS
 62
     2
 10
47.858
 20
128.411636364
 30
0.0
 11
42.25
 21
133.0
 31
0.0
  0
LINE
  8
0
  6
CONTINUOUS
 62
     2
 10
45.41
 20
127.18439309
 30
0.0
 11
39.802
 21
131.772756726
 31
0.0
  0
LINE
  8
0
  6
CONTINUOUS
 62
     2
 10
41.331496786
 20
158.385981022
 30
0.0
 11
53.472298745
 21
175.600550964
 31
0.0
  0
LINE
  8
0
  6
CONTINUOUS
 62
     2
 10
41.331496786
 20
158.385981022
 30
0.0
 11
42.021893584
 21
160.263040494
 31
0.0
  0
LINE
  8
0
  6
CONTINUOUS
 62
     2
 10
41.331496786
 20
158.385981022
 30
0.0
 11
42.867927688
 21
159.666363811
 31
0.0
  0
LINE
  8
0
  6
CONTINUOUS
 62
     2
 10
26.221201918
 20
158.767982859
 30
0.0
 11
53.472298745
 21
175.600550964
 31
0.0
  0
LINE
  8
0
  6
CONTINUOUS
 62
     2
 10
26.221201918
 20
158.767982859
 30
0.0
 11
27.59276332
 21
160.223599334
 31
0.0
  0
LINE
  8
0
  6
CONTINUOUS
 62
     2
 10
26.221201918
 20
158.767982859
 30
0.0
 11
28.136817172
 21
159.342803004
 31
0.0
  0
LINE
  8
0
  6
CONTINUOUS
 62
     2
 10
53.472298745
 20
175.600550964
 30
0.0
 11
62.722298745
 21
175.600550964
 31
0.0
  0
LINE
  8
0
  6
CONTINUOUS
 62
     2
 10
57.124171666
 20
147.879638672
 30
0.0
 11
57.302743094
 21
147.879638672
 31
0.0
  0
LINE
  8
0
  6
CONTINUOUS
 62
     2
 10
57.302743094
 20
147.879638672
 30
0.0
 11
57.302743094
 21
146.567138672
 31
0.0
  0
LINE
  8
0
  6
CONTINUOUS
 62
     2
 10
57.302743094
 20
146.567138672
 30
0.0
 11
57.481314523
 21
146.129638672
 31
0.0
  0
LINE
  8
0
  6
CONTINUOUS
 62
     2
 10
57.481314523
 20
146.129638672
 30
0.0
 11
58.195600237
 21
146.129638672
 31
0.0
  0
LINE
  8
0
  6
CONTINUOUS
 62
     2
 10
58.195600237
 20
146.129638672
 30
0.0
 11
58.374171666
 21
146.348388672
 31
0.0
  0
LINE
  8
0
  6
CONTINUOUS
 62
     2
 10
58.374171666
 20
146.348388672
 30
0.0
 11
58.374171666
 21
147.879638672
 31
0.0
  0
LINE
  8
0
  6
CONTINUOUS
 62
     2
 10
58.374171666
 20
146.348388672
 30
0.0
 11
58.552743094
 21
146.129638672
 31
0.0
  0
LINE
  8
0
  6
CONTINUOUS
 62
     2
 10
58.552743094
 20
146.129638672
 30
0.0
 11
58.731314523
 21
146.129638672
 31
0.0
  0
LINE
  8
0
  6
CONTINUOUS
 62
     2
 10
58.731314523
 20
146.129638672
 30
0.0
 11
58.909885951
 21
146.348388672
 31
0.0
  0
LINE
  8
0
  6
CONTINUOUS
 62
     2
 10
71.03150504
 20
147.970489502
 30
0.0
 11
71.210076468
 21
147.970489502
 31
0.0
  0
LINE
  8
0
  6
CONTINUOUS
 62
     2
 10
71.210076468
 20
147.970489502
 30
0.0
 11
71.210076468
 21
146.876739502
 31
0.0
  0
LINE
  8
0
  6
CONTINUOUS
 62
     2
 10
71.210076468
 20
146.876739502
 30
0.0
 11
71.388647897
 21
146.439239502
 31
0.0
  0
LINE
  8
0
  6
CONTINUOUS
 62
     2
 10
71.388647897
 20
146.439239502
 30
0.0
 11
71.567219325
 21
146.220489502
 31
0.0
  0
LINE
  8
0
  6
CONTINUOUS
 62
     2
 10
71.567219325
 20
146.220489502
 30
0.0
 11
71.924362183
 21
146.220489502
 31
0.0
  0
LINE
  8
0
  6
CONTINUOUS
 62
     2
 10
71.924362183
 20
146.220489502
 30
0.0
 11
72.102933611
 21
146.439239502
 31
0.0
  0
LINE
  8
0
  6
CONTINUOUS
 62
     2
 10
72.102933611
 20
146.439239502
 30
0.0
 11
72.28150504
 21
146.876739502
 31
0.0
  0
LINE
  8
0
  6
CONTINUOUS
 62
     2
 10
72.28150504
 20
146.876739502
 30
0.0
 11
72.28150504
 21
147.970489502
 31
0.0
  0
LINE
  8
0
  6
CONTINUOUS
 62
     2
 10
72.28150504
 20
147.970489502
 30
0.0
 11
72.638647897
 21
147.970489502
 31
0.0
  0
LINE
  8
0
  6
CONTINUOUS
 62
     2
 10
25.217334202
 20
161.928726196
 30
0.0
 11
25.395905631
 21
161.616226196
 31
0.0
  0
LINE
  8
0
  6
CONTINUOUS
 62
     2
 10
25.395905631
 20
161.616226196
 30
0.0
 11
25.753048488
 21
161.459976196
 31
0.0
  0
LINE
  8
0
  6
CONTINUOUS
 62
     2
 10
25.753048488
 20
161.459976196
 30
0.0
 11
26.288762774
 21
161.459976196
 31
0.0
  0
LINE
  8
0
  6
CONTINUOUS
 62
     2
 10
26.288762774
 20
161.459976196
 30
0.0
 11
26.645905631
 21
161.616226196
 31
0.0
  0
LINE
  8
0
  6
CONTINUOUS
 62
     2
 10
26.645905631
 20
161.616226196
 30
0.0
 11
26.82447706
 21
161.928726196
 31
0.0
  0
LINE
  8
0
  6
CONTINUOUS
 62
     2
 10
26.82447706
 20
161.928726196
 30
0.0
 11
26.82447706
 21
163.491226196
 31
0.0
  0
LINE
  8
0
  6
CONTINUOUS
 62
     2
 10
25.217334202
 20
161.928726196
 30
0.0
 11
25.217334202
 21
163.491226196
 31
0.0
  0
LINE
  8
0
  6
CONTINUOUS
 62
     2
 10
40.2574343
 20
163.491226196
 30
0.0
 11
40.971720014
 21
161.459976196
 31
0.0
  0
LINE
  8
0
  6
CONTINUOUS
 62
     2
 10
40.971720014
 20
161.459976196
 30
0.0
 11
41.864577157
 21
163.491226196
 31
0.0
  0
LINE
  8
0
  6
CONTINUOUS
 62
     2
 10
90.0
 20
171.0
 30
0.0
 11
90.0
 21
123.0
 31
0.0
  0
LINE
  8
0
  6
CONTINUOUS
 62
     2
 10
90.0
 20
171.0
 30
0.0
 11
89.48236191
 21
169.068148347
 31
0.0
  0
LINE
  8
0
  6
CONTINUOUS
 62
     2
 10
90.0
 20
171.0
 30
0.0
 11
90.51763809
 21
169.068148347
 31
0.0
  0
LINE
  8
0
  6
CONTINUOUS
 62
     2
 10
90.0
 20
123.0
 30
0.0
 11
89.48236191
 21
124.931851653
 31
0.0
  0
LINE
  8
0
  6
CONTINUOUS
 62
     2
 10
90.0
 20
123.0
 30
0.0
 11
90.51763809
 21
124.931851653
 31
0.0
  0
LINE
  8
0
  6
CONTINUOUS
 62
     2
 10
61.000030518
 20
123.0
 30
0.0
 11
92.0
 21
123.0
 31
0.0
  0
LINE
  8
0
  6
CONTINUOUS
 62
     2
 10
60.999992371
 20
171.0
 30
0.0
 11
92.0
 21
171.0
 31
0.0
  0
LINE
  8
0
  6
CONTINUOUS
 62
     2
 10
19.0
 20
182.0
 30
0.0
 11
81.0
 21
182.0
 31
0.0
  0
LINE
  8
0
  6
CONTINUOUS
 62
     2
 10
19.0
 20
182.0
 30
0.0
 11
20.931851653
 21
182.51763809
 31
0.0
  0
LINE
  8
0
  6
CONTINUOUS
 62
     2
 10
19.0
 20
182.0
 30
0.0
 11
20.931851653
 21
181.48236191
 31
0.0
  0
LINE
  8
0
  6
CONTINUOUS
 62
     2
 10
81.0
 20
182.0
 30
0.0
 11
79.068148347
 21
182.51763809
 31
0.0
  0
LINE
  8
0
  6
CONTINUOUS
 62
     2
 10
81.0
 20
182.0
 30
0.0
 11
79.068148347
 21
181.48236191
 31
0.0
  0
LINE
  8
0
  6
CONTINUOUS
 62
     2
 10
19.0
 20
184.0
 30
0.0
 11
19.0
 21
165.0
 31
0.0
  0
LINE
  8
0
  6
CONTINUOUS
 62
     2
 10
81.0
 20
184.0
 30
0.0
 11
81.0
 21
165.0
 31
0.0
  0
LINE
  8
0
  6
CONTINUOUS
 62
     2
 10
55.829440526
 20
176.60030542
 30
0.0
 11
55.829440526
 21
179.44405542
 31
0.0
  0
LINE
  8
0
  6
CONTINUOUS
 62
     2
 10
55.829440526
 20
179.44405542
 30
0.0
 11
56.54372624
 21
177.69405542
 31
0.0
  0
LINE
  8
0
  6
CONTINUOUS
 62
     2
 10
56.54372624
 20
177.69405542
 30
0.0
 11
57.436583383
 21
179.44405542
 31
0.0
  0
LINE
  8
0
  6
CONTINUOUS
 62
     2
 10
57.436583383
 20
179.44405542
 30
0.0
 11
57.436583383
 21
176.60030542
 31
0.0
  0
LINE
  8
0
  6
CONTINUOUS
 62
     2
 10
59.472297668
 20
176.60030542
 30
0.0
 11
59.472297668
 21
179.44405542
 31
0.0
  0
LINE
  8
0
  6
CONTINUOUS
 62
     2
 10
59.472297668
 20
179.44405542
 30
0.0
 11
58.400869097
 21
177.25655542
 31
0.0
  0
LINE
  8
0
  6
CONTINUOUS
 62
     2
 10
58.400869097
 20
177.25655542
 30
0.0
 11
60.008011954
 21
177.25655542
 31
0.0
  0
LINE
  8
0
  6
CONTINUOUS
 62
     2
 10
79.000007629
 20
32.000007629
 30
0.0
 11
20.999996185
 21
32.000007629
 31
0.0
  0
LINE
  8
0
  6
CONTINUOUS
 62
     2
 10
20.999996185
 20
83.000007629
 30
0.0
 11
20.999996185
 21
82.000007629
 31
0.0
  0
LINE
  8
0
  6
CONTINUOUS
 62
     2
 10
79.000007629
 20
83.000007629
 30
0.0
 11
79.000007629
 21
31.000007629
 31
0.0
  0
LINE
  8
0
  6
CONTINUOUS
 62
     2
 10
79.000007629
 20
31.000007629
 30
0.0
 11
20.999996185
 21
31.000007629
 31
0.0
  0
LINE
  8
0
  6
CONTINUOUS
 62
     2
 10
20.999996185
 20
31.000007629
 30
0.0
 11
20.999996185
 21
83.000007629
 31
0.0
  0
LINE
  8
0
  6
CONTINUOUS
 62
     2
 10
70.0
 20
72.0
 30
0.0
 11
70.0
 21
42.000003815
 31
0.0
  0
LINE
  8
0
  6
CONTINUOUS
 62
     2
 10
70.0
 20
42.000003815
 30
0.0
 11
30.0
 21
42.000003815
 31
0.0
  0
LINE
  8
0
  6
CONTINUOUS
 62
     2
 10
30.0
 20
42.000003815
 30
0.0
 11
30.0
 21
72.0
 31
0.0
  0
LINE
  8
0
  6
CONTINUOUS
 62
     2
 10
50.0
 20
70.0
 30
0.0
 11
31.0
 21
70.0
 31
0.0
  0
LINE
  8
0
  6
CONTINUOUS
 62
     2
 10
42.0
 20
70.0
 30
0.0
 11
42.0
 21
71.0
 31
0.0
  0
LINE
  8
0
  6
CONTINUOUS
 62
     2
 10
42.0
 20
71.0
 30
0.0
 11
40.894
 21
71.0
 31
0.0
  0
LINE
  8
0
  6
CONTINUOUS
 62
     2
 10
31.0
 20
71.0
 30
0.0
 11
31.0
 21
43.0
 31
0.0
  0
LINE
  8
0
  6
CONTINUOUS
 62
     2
 10
31.0
 20
43.0
 30
0.0
 11
43.0
 21
43.0
 31
0.0
  0
LINE
  8
0
  6
CONTINUOUS
 62
     2
 10
43.0
 20
43.0
 30
0.0
 11
43.0
 21
44.0
 31
0.0
  0
LINE
  8
0
  6
CONTINUOUS
 62
     2
 10
50.0
 20
44.0
 30
0.0
 11
31.0
 21
44.0
 31
0.0
  0
LINE
  8
0
  6
CONTINUOUS
 62
     2
 10
32.0
 20
44.0
 30
0.0
 11
32.0
 21
70.0
 31
0.0
  0
LINE
  8
0
  6
CONTINUOUS
 62
     2
 10
50.0
 20
70.0
 30
0.0
 11
69.0
 21
70.0
 31
0.0
  0
LINE
  8
0
  6
CONTINUOUS
 62
     2
 10
58.0
 20
70.0
 30
0.0
 11
58.0
 21
71.0
 31
0.0
  0
LINE
  8
0
  6
CONTINUOUS
 62
     2
 10
69.0
 20
71.0
 30
0.0
 11
69.0
 21
43.0
 31
0.0
  0
LINE
  8
0
  6
CONTINUOUS
 62
     2
 10
69.0
 20
43.0
 30
0.0
 11
57.0
 21
43.0
 31
0.0
  0
LINE
  8
0
  6
CONTINUOUS
 62
     2
 10
57.0
 20
43.0
 30
0.0
 11
57.0
 21
44.0
 31
0.0
  0
LINE
  8
0
  6
CONTINUOUS
 62
     2
 10
50.0
 20
44.0
 30
0.0
 11
69.0
 21
44.0
 31
0.0
  0
LINE
  8
0
  6
CONTINUOUS
 62
     2
 10
68.0
 20
44.0
 30
0.0
 11
68.0
 21
70.0
 31
0.0
  0
CIRCLE
  8
0
  6
CONTINUOUS
 62
     2
 10
25.0
 20
77.0
 30
0.0
 40
2.5
  0
CIRCLE
  8
0
  6
CONTINUOUS
 62
     2
 10
75.0
 20
77.0
 30
0.0
 40
2.5
  0
CIRCLE
  8
0
  6
CONTINUOUS
 62
     2
 10
25.0
 20
37.0
 30
0.0
 40
2.5
  0
CIRCLE
  8
0
  6
CONTINUOUS
 62
     2
 10
75.0
 20
37.0
 30
0.0
 40
2.5
  0
LINE
  8
0
  6
CONTINUOUS
 62
     2
 10
82.000007629
 20
86.000007629
 30
0.0
 11
74.082482305
 21
86.000007629
 31
0.0
  0
LINE
  8
0
  6
CONTINUOUS
 62
     2
 10
82.000007629
 20
83.000007629
 30
0.0
 11
74.082482305
 21
83.000007629
 31
0.0
  0
LINE
  8
0
  6
CONTINUOUS
 62
     2
 10
70.224908058
 20
83.000007629
 30
0.0
 11
60.618482305
 21
83.000007629
 31
0.0
  0
LINE
  8
0
  6
CONTINUOUS
 62
     2
 10
20.999996185
 20
82.000007629
 30
0.0
 11
28.969170848
 21
82.000007629
 31
0.0
  0
LINE
  8
0
  6
CONTINUOUS
 62
     2
 10
72.970101503
 20
82.000007629
 30
0.0
 11
79.000007629
 21
82.000007629
 31
0.0
  0
LINE
  8
0
  6
CONTINUOUS
 62
     2
 10
30.0
 20
72.0
 30
0.0
 11
38.446
 21
72.0
 31
0.0
  0
LINE
  8
0
  6
CONTINUOUS
 62
     2
 10
70.0
 20
72.0
 30
0.0
 11
61.554
 21
72.0
 31
0.0
  0
LINE
  8
0
  6
CONTINUOUS
 62
     2
 10
69.0
 20
71.0
 30
0.0
 11
61.554
 21
71.0
 31
0.0
  0
LINE
  8
0
  6
CONTINUOUS
 62
     2
 10
58.0
 20
71.0
 30
0.0
 11
59.106
 21
71.0
 31
0.0
  0
LINE
  8
0
  6
CONTINUOUS
 62
     2
 10
32.0
 20
33.000007629
 30
0.0
 11
32.0
 21
30.000007629
 31
0.0
  0
LINE
  8
0
  6
CONTINUOUS
 62
     2
 10
68.0
 20
33.000007629
 30
0.0
 11
68.0
 21
30.000007629
 31
0.0
  0
LINE
  8
0
  6
CONTINUOUS
 62
     2
 10
68.966087341
 20
30.193611145
 30
0.0
 11
70.71204941
 21
29.218102839
 31
0.0
  0
LINE
  8
0
  6
CONTINUOUS
 62
     2
 10
26.0
 20
84.174447213
 30
0.0
 11
26.0
 21
81.000007629
 31
0.0
  0
LINE
  8
0
  6
CONTINUOUS
 62
     2
 10
75.04
 20
86.000007629
 30
0.0
 11
74.082482305
 21
86.000007629
 31
0.0
  0
LINE
  8
0
  6
CONTINUOUS
 62
     2
 10
50.798002335
 20
86.000007629
 30
0.0
 11
58.113517695
 21
86.000007629
 31
0.0
  0
LINE
  8
0
  6
CONTINUOUS
 62
     2
 10
55.694
 20
92.160007629
 30
0.0
 11
58.113517695
 21
92.160007629
 31
0.0
  0
LINE
  8
0
  6
CONTINUOUS
 62
     2
 10
55.694
 20
99.952007629
 30
0.0
 11
55.694
 21
86.000007629
 31
0.0
  0
LINE
  8
0
  6
CONTINUOUS
 62
     2
 10
76.502
 20
99.952007629
 30
0.0
 11
76.502
 21
86.000007629
 31
0.0
  0
LINE
  8
0
  6
CONTINUOUS
 62
     2
 10
76.502
 20
89.712007629
 30
0.0
 11
81.398
 21
89.712007629
 31
0.0
  0
LINE
  8
0
  6
CONTINUOUS
 62
     2
 10
55.694
 20
89.712007629
 30
0.0
 11
50.798002335
 21
89.712007629
 31
0.0
  0
LINE
  8
0
  6
CONTINUOUS
 62
     2
 10
81.398
 20
89.712007629
 30
0.0
 11
81.398
 21
86.000007629
 31
0.0
  0
LINE
  8
0
  6
CONTINUOUS
 62
     2
 10
50.798002335
 20
89.712007629
 30
0.0
 11
50.798002335
 21
86.000007629
 31
0.0
  0
LINE
  8
0
  6
CONTINUOUS
 62
     2
 10
55.694
 20
89.712007629
 30
0.0
 11
55.694
 21
86.000007629
 31
0.0
  0
LINE
  8
0
  6
CONTINUOUS
 62
     2
 10
56.306
 20
98.320007629
 30
0.0
 11
56.306
 21
92.160007629
 31
0.0
  0
LINE
  8
0
  6
CONTINUOUS
 62
     2
 10
62.426
 20
98.320007629
 30
0.0
 11
62.426
 21
92.160007629
 31
0.0
  0
LINE
  8
0
  6
CONTINUOUS
 62
     2
 10
63.038
 20
98.320007629
 30
0.0
 11
63.038
 21
92.160007629
 31
0.0
  0
LINE
  8
0
  6
CONTINUOUS
 62
     2
 10
69.158
 20
98.320007629
 30
0.0
 11
69.158
 21
92.160007629
 31
0.0
  0
LINE
  8
0
  6
CONTINUOUS
 62
     2
 10
69.77
 20
98.320007629
 30
0.0
 11
69.77
 21
92.160007629
 31
0.0
  0
LINE
  8
0
  6
CONTINUOUS
 62
     2
 10
75.89
 20
98.320007629
 30
0.0
 11
75.89
 21
92.160007629
 31
0.0
  0
LINE
  8
0
  6
CONTINUOUS
 62
     2
 10
79.125517695
 20
91.344007629
 30
0.0
 11
79.125517695
 21
87.264007629
 31
0.0
  0
LINE
  8
0
  6
CONTINUOUS
 62
     2
 10
52.809517695
 20
91.344007629
 30
0.0
 11
52.809517695
 21
87.264007629
 31
0.0
  0
ARC
  8
0
  6
CONTINUOUS
 62
     2
 10
59.337517695
 20
94.240007629
 30
0.0
 40
1.224
 50
0.0
 51
180.0
  0
LINE
  8
0
  6
CONTINUOUS
 62
     2
 10
58.113517695
 20
94.240007629
 30
0.0
 11
58.113517695
 21
79.328868854
 31
0.0
  0
LINE
  8
0
  6
CONTINUOUS
 62
     2
 10
60.618482305
 20
94.240007629
 30
0.0
 11
60.618482305
 21
78.329014465
 31
0.0
  0
ARC
  8
0
  6
CONTINUOUS
 62
     2
 10
72.801517695
 20
94.240007629
 30
0.0
 40
1.224
 50
0.0
 51
180.0
  0
LINE
  8
0
  6
CONTINUOUS
 62
     2
 10
71.577517695
 20
94.240007629
 30
0.0
 11
71.577517695
 21
84.088289823
 31
0.0
  0
LINE
  8
0
  6
CONTINUOUS
 62
     2
 10
74.082482305
 20
94.240007629
 30
0.0
 11
74.082482305
 21
82.895006589
 31
0.0
  0
LINE
  8
0
  6
CONTINUOUS
 62
     2
 10
60.618482305
 20
92.160007629
 30
0.0
 11
71.577517695
 21
92.160007629
 31
0.0
  0
LINE
  8
0
  6
CONTINUOUS
 62
     2
 10
74.082482305
 20
92.160007629
 30
0.0
 11
76.502
 21
92.160007629
 31
0.0
  0
LINE
  8
0
  6
CONTINUOUS
 62
     2
 10
74.082482305
 20
86.000007629
 30
0.0
 11
81.398
 21
86.000007629
 31
0.0
  0
LINE
  8
0
  6
CONTINUOUS
 62
     2
 10
76.502
 20
98.320007629
 30
0.0
 11
55.694
 21
98.320007629
 31
0.0
  0
LINE
  8
0
  6
CONTINUOUS
 62
     2
 10
55.665517695
 20
99.952007629
 30
0.0
 11
54.849517695
 21
99.952007629
 31
0.0
  0
LINE
  8
0
  6
CONTINUOUS
 62
     2
 10
54.849517695
 20
99.952007629
 30
0.0
 11
54.849517695
 21
95.056007629
 31
0.0
  0
LINE
  8
0
  6
CONTINUOUS
 62
     2
 10
54.849517695
 20
95.056007629
 30
0.0
 11
55.665517695
 21
95.056007629
 31
0.0
  0
LINE
  8
0
  6
CONTINUOUS
 62
     2
 10
76.530482305
 20
99.952007629
 30
0.0
 11
77.346482305
 21
99.952007629
 31
0.0
  0
LINE
  8
0
  6
CONTINUOUS
 62
     2
 10
77.346482305
 20
99.952007629
 30
0.0
 11
77.346482305
 21
95.056007629
 31
0.0
  0
LINE
  8
0
  6
CONTINUOUS
 62
     2
 10
77.346482305
 20
95.056007629
 30
0.0
 11
76.530482305
 21
95.056007629
 31
0.0
  0
LINE
  8
0
  6
CONTINUOUS
 62
     2
 10
40.894
 20
74.053960438
 30
0.0
 11
40.894
 21
70.0
 31
0.0
  0
LINE
  8
0
  6
CONTINUOUS
 62
     2
 10
38.446
 20
73.000007629
 30
0.0
 11
38.446
 21
70.0
 31
0.0
  0
LINE
  8
0
  6
CONTINUOUS
 62
     2
 10
47.858
 20
74.053960438
 30
0.0
 11
47.858
 21
70.0
 31
0.0
  0
LINE
  8
0
  6
CONTINUOUS
 62
     2
 10
45.41
 20
73.000007629
 30
0.0
 11
45.41
 21
70.0
 31
0.0
  0
LINE
  8
0
  6
CONTINUOUS
 62
     2
 10
54.822
 20
73.000007629
 30
0.0
 11
54.822
 21
70.0
 31
0.0
  0
LINE
  8
0
  6
CONTINUOUS
 62
     2
 10
52.374
 20
73.878136502
 30
0.0
 11
52.374
 21
70.0
 31
0.0
  0
LINE
  8
0
  6
CONTINUOUS
 62
     2
 10
61.554
 20
72.814844639
 30
0.0
 11
61.554
 21
70.0
 31
0.0
  0
LINE
  8
0
  6
CONTINUOUS
 62
     2
 10
59.106
 20
74.053960438
 30
0.0
 11
59.106
 21
70.0
 31
0.0
  0
LINE
  8
0
  6
CONTINUOUS
 62
     2
 10
38.446
 20
73.000007629
 30
0.0
 11
24.776
 21
85.982197983
 31
0.0
  0
LINE
  8
0
  6
CONTINUOUS
 62
     2
 10
40.894
 20
74.053960438
 30
0.0
 11
27.224
 21
87.036150792
 31
0.0
  0
LINE
  8
0
  6
CONTINUOUS
 62
     2
 10
58.113517695
 20
83.000007629
 30
0.0
 11
42.224
 21
83.000007629
 31
0.0
  0
LINE
  8
0
  6
CONTINUOUS
 62
     2
 10
60.618482305
 20
82.000007629
 30
0.0
 11
68.982023036
 21
82.000007629
 31
0.0
  0
LINE
  8
0
  6
CONTINUOUS
 62
     2
 10
42.224
 20
82.000007629
 30
0.0
 11
58.113517695
 21
82.000007629
 31
0.0
  0
LINE
  8
0
  6
CONTINUOUS
 62
     2
 10
39.776
 20
83.000007629
 30
0.0
 11
31.473982132
 21
83.000007629
 31
0.0
  0
LINE
  8
0
  6
CONTINUOUS
 62
     2
 10
50.798002335
 20
86.000007629
 30
0.0
 11
42.224
 21
86.000007629
 31
0.0
  0
LINE
  8
0
  6
CONTINUOUS
 62
     2
 10
24.776
 20
86.000007629
 30
0.0
 11
17.999992371
 21
86.000007629
 31
0.0
  0
LINE
  8
0
  6
CONTINUOUS
 62
     2
 10
27.916189831
 20
83.000007629
 30
0.0
 11
17.999992371
 21
83.000007629
 31
0.0
  0
LINE
  8
0
  6
CONTINUOUS
 62
     2
 10
32.526963149
 20
82.000007629
 30
0.0
 11
39.776
 21
82.000007629
 31
0.0
  0
LINE
  8
0
  6
CONTINUOUS
 62
     2
 10
54.822
 20
72.0
 30
0.0
 11
59.106
 21
72.0
 31
0.0
  0
LINE
  8
0
  6
CONTINUOUS
 62
     2
 10
47.858
 20
72.0
 30
0.0
 11
52.374
 21
72.0
 31
0.0
  0
LINE
  8
0
  6
CONTINUOUS
 62
     2
 10
40.894
 20
72.0
 30
0.0
 11
45.41
 21
72.0
 31
0.0
  0
LINE
  8
0
  6
CONTINUOUS
 62
     2
 10
38.446
 20
71.0
 30
0.0
 11
31.0
 21
71.0
 31
0.0
  0
LINE
  8
0
  6
CONTINUOUS
 62
     2
 10
63.538
 20
92.160007629
 30
0.0
 11
63.538
 21
93.160007629
 31
0.0
  0
LINE
  8
0
  6
CONTINUOUS
 62
     2
 10
63.538
 20
93.160007629
 30
0.0
 11
68.538
 21
93.160007629
 31
0.0
  0
LINE
  8
0
  6
CONTINUOUS
 62
     2
 10
68.538
 20
93.160007629
 30
0.0
 11
68.538
 21
92.160007629
 31
0.0
  0
ARC
  8
0
  6
CONTINUOUS
 62
     2
 10
66.038
 20
93.160007629
 30
0.0
 40
1.5
 50
0.0
 51
180.0
  0
LINE
  8
0
  6
CONTINUOUS
 62
     2
 10
82.000007629
 20
86.000007629
 30
0.0
 11
82.000007629
 21
83.000007629
 31
0.0
  0
LINE
  8
0
  6
CONTINUOUS
 62
     2
 10
17.999992371
 20
86.000007629
 30
0.0
 11
17.999992371
 21
83.000007629
 31
0.0
  0
LINE
  8
0
  6
CONTINUOUS
 62
     2
 10
54.822
 20
72.824183693
 30
0.0
 11
60.618482305
 21
78.329014465
 31
0.0
  0
LINE
  8
0
  6
CONTINUOUS
 62
     2
 10
52.374
 20
73.878136502
 30
0.0
 11
58.113517695
 21
79.328868854
 31
0.0
  0
LINE
  8
0
  6
CONTINUOUS
 62
     2
 10
59.106
 20
74.053960438
 30
0.0
 11
71.577517695
 21
84.088289823
 31
0.0
  0
LINE
  8
0
  6
CONTINUOUS
 62
     2
 10
61.554
 20
72.814844639
 30
0.0
 11
74.082482305
 21
82.895006589
 31
0.0
  0
LINE
  8
0
  6
CONTINUOUS
 62
     2
 10
71.577517695
 20
86.000007629
 30
0.0
 11
60.618482305
 21
86.000007629
 31
0.0
  0
LINE
  8
0
  6
CONTINUOUS
 62
     2
 10
21.0
 20
86.000007629
 30
0.0
 11
21.0
 21
100.000007629
 31
0.0
  0
LINE
  8
0
  6
CONTINUOUS
 62
     2
 10
31.0
 20
100.000007629
 30
0.0
 11
31.0
 21
86.000007629
 31
0.0
  0
LINE
  8
0
  6
CONTINUOUS
 62
     2
 10
22.0
 20
100.000007629
 30
0.0
 11
22.0
 21
91.000007629
 31
0.0
  0
LINE
  8
0
  6
CONTINUOUS
 62
     2
 10
22.0
 20
91.000007629
 30
0.0
 11
24.776
 21
91.000007629
 31
0.0
  0
LINE
  8
0
  6
CONTINUOUS
 62
     2
 10
30.0
 20
91.000007629
 30
0.0
 11
30.0
 21
100.000007629
 31
0.0
  0
LINE
  8
0
  6
CONTINUOUS
 62
     2
 10
21.0
 20
100.000007629
 30
0.0
 11
22.0
 21
100.0
 31
0.0
  0
LINE
  8
0
  6
CONTINUOUS
 62
     2
 10
30.0
 20
100.0
 30
0.0
 11
31.0
 21
100.000007629
 31
0.0
  0
LINE
  8
0
  6
CONTINUOUS
 62
     2
 10
27.5
 20
97.500007629
 30
0.0
 11
28.0
 21
98.000007629
 31
0.0
  0
LINE
  8
0
  6
CONTINUOUS
 62
     2
 10
24.5
 20
97.500007629
 30
0.0
 11
24.0
 21
98.000007629
 31
0.0
  0
CIRCLE
  8
0
  6
CONTINUOUS
 62
     2
 10
26.0
 20
95.000007629
 30
0.0
 40
2.5
  0
LINE
  8
0
  6
CONTINUOUS
 62
     2
 10
28.75
 20
91.000007629
 30
0.0
 11
27.868858337
 21
92.762290955
 31
0.0
  0
ARC
  8
0
  6
CONTINUOUS
 62
     2
 10
26.0
 20
95.000007629
 30
0.0
 40
2.915475845
 50
309.867370605
 51
59.036239624
  0
ARC
  8
0
  6
CONTINUOUS
 62
     2
 10
26.0
 20
95.000007629
 30
0.0
 40
2.915475845
 50
120.963760376
 51
230.132629395
  0
LINE
  8
0
  6
CONTINUOUS
 62
     2
 10
23.25
 20
91.000007629
 30
0.0
 11
24.131141663
 21
92.762290955
 31
0.0
  0
LINE
  8
0
  6
CONTINUOUS
 62
     2
 10
28.0
 20
91.000007629
 30
0.0
 11
28.0
 21
90.500007629
 31
0.0
  0
LINE
  8
0
  6
CONTINUOUS
 62
     2
 10
28.0
 20
90.500007629
 30
0.0
 11
27.224
 21
90.500007629
 31
0.0
  0
LINE
  8
0
  6
CONTINUOUS
 62
     2
 10
24.0
 20
90.500007629
 30
0.0
 11
24.0
 21
91.000007629
 31
0.0
  0
LINE
  8
0
  6
CONTINUOUS
 62
     2
 10
24.5
 20
91.000007629
 30
0.0
 11
24.5
 21
91.250007629
 31
0.0
  0
LINE
  8
0
  6
CONTINUOUS
 62
     2
 10
24.5
 20
91.250007629
 30
0.0
 11
24.776
 21
91.250007629
 31
0.0
  0
LINE
  8
0
  6
CONTINUOUS
 62
     2
 10
27.5
 20
91.250007629
 30
0.0
 11
27.5
 21
91.000007629
 31
0.0
  0
LINE
  8
0
  6
CONTINUOUS
 62
     2
 10
36.0
 20
86.000007629
 30
0.0
 11
36.0
 21
100.000007629
 31
0.0
  0
LINE
  8
0
  6
CONTINUOUS
 62
     2
 10
46.0
 20
100.000007629
 30
0.0
 11
46.0
 21
86.000007629
 31
0.0
  0
LINE
  8
0
  6
CONTINUOUS
 62
     2
 10
37.0
 20
100.000007629
 30
0.0
 11
37.0
 21
91.000007629
 31
0.0
  0
LINE
  8
0
  6
CONTINUOUS
 62
     2
 10
37.0
 20
91.000007629
 30
0.0
 11
39.776
 21
91.000007629
 31
0.0
  0
LINE
  8
0
  6
CONTINUOUS
 62
     2
 10
45.0
 20
91.000007629
 30
0.0
 11
45.0
 21
100.000007629
 31
0.0
  0
LINE
  8
0
  6
CONTINUOUS
 62
     2
 10
36.0
 20
100.000007629
 30
0.0
 11
37.0
 21
100.0
 31
0.0
  0
LINE
  8
0
  6
CONTINUOUS
 62
     2
 10
45.0
 20
100.0
 30
0.0
 11
46.0
 21
100.000007629
 31
0.0
  0
LINE
  8
0
  6
CONTINUOUS
 62
     2
 10
42.5
 20
97.500007629
 30
0.0
 11
43.0
 21
98.000007629
 31
0.0
  0
LINE
  8
0
  6
CONTINUOUS
 62
     2
 10
39.5
 20
97.500007629
 30
0.0
 11
39.0
 21
98.000007629
 31
0.0
  0
CIRCLE
  8
0
  6
CONTINUOUS
 62
     2
 10
41.0
 20
95.000007629
 30
0.0
 40
2.5
  0
LINE
  8
0
  6
CONTINUOUS
 62
     2
 10
43.75
 20
91.000007629
 30
0.0
 11
42.868858337
 21
92.762290955
 31
0.0
  0
ARC
  8
0
  6
CONTINUOUS
 62
     2
 10
41.0
 20
95.000007629
 30
0.0
 40
2.915475845
 50
309.867370605
 51
59.036239624
  0
ARC
  8
0
  6
CONTINUOUS
 62
     2
 10
41.0
 20
95.000007629
 30
0.0
 40
2.915475845
 50
120.963760376
 51
230.132629395
  0
LINE
  8
0
  6
CONTINUOUS
 62
     2
 10
38.25
 20
91.000007629
 30
0.0
 11
39.131141663
 21
92.762290955
 31
0.0
  0
LINE
  8
0
  6
CONTINUOUS
 62
     2
 10
43.0
 20
91.000007629
 30
0.0
 11
43.0
 21
90.500007629
 31
0.0
  0
LINE
  8
0
  6
CONTINUOUS
 62
     2
 10
43.0
 20
90.500007629
 30
0.0
 11
42.224
 21
90.500007629
 31
0.0
  0
LINE
  8
0
  6
CONTINUOUS
 62
     2
 10
39.0
 20
90.500007629
 30
0.0
 11
39.0
 21
91.000007629
 31
0.0
  0
LINE
  8
0
  6
CONTINUOUS
 62
     2
 10
39.5
 20
91.000007629
 30
0.0
 11
39.5
 21
91.250007629
 31
0.0
  0
LINE
  8
0
  6
CONTINUOUS
 62
     2
 10
39.5
 20
91.250007629
 30
0.0
 11
39.776
 21
91.250007629
 31
0.0
  0
LINE
  8
0
  6
CONTINUOUS
 62
     2
 10
42.5
 20
91.250007629
 30
0.0
 11
42.5
 21
91.000007629
 31
0.0
  0
LINE
  8
0
  6
CONTINUOUS
 62
     2
 10
27.224
 20
91.250007629
 30
0.0
 11
27.5
 21
91.250007629
 31
0.0
  0
LINE
  8
0
  6
CONTINUOUS
 62
     2
 10
27.224
 20
91.000007629
 30
0.0
 11
30.0
 21
91.000007629
 31
0.0
  0
LINE
  8
0
  6
CONTINUOUS
 62
     2
 10
24.776
 20
90.500007629
 30
0.0
 11
24.0
 21
90.500007629
 31
0.0
  0
ARC
  8
0
  6
CONTINUOUS
 62
     2
 10
41.0
 20
91.276007629
 30
0.0
 40
1.224
 50
0.0
 51
180.0
  0
LINE
  8
0
  6
CONTINUOUS
 62
     2
 10
45.41
 20
73.000007629
 30
0.0
 11
39.776
 21
78.350531437
 31
0.0
  0
LINE
  8
0
  6
CONTINUOUS
 62
     2
 10
47.858
 20
74.053960438
 30
0.0
 11
42.224
 21
79.404484246
 31
0.0
  0
LINE
  8
0
  6
CONTINUOUS
 62
     2
 10
42.224
 20
91.276007629
 30
0.0
 11
42.224
 21
79.404484246
 31
0.0
  0
LINE
  8
0
  6
CONTINUOUS
 62
     2
 10
39.776
 20
91.276007629
 30
0.0
 11
39.776
 21
78.350531437
 31
0.0
  0
ARC
  8
0
  6
CONTINUOUS
 62
     2
 10
26.0
 20
91.276007629
 30
0.0
 40
1.224
 50
0.0
 51
180.0
  0
LINE
  8
0
  6
CONTINUOUS
 62
     2
 10
24.776
 20
91.276007629
 30
0.0
 11
24.776
 21
85.982197983
 31
0.0
  0
LINE
  8
0
  6
CONTINUOUS
 62
     2
 10
27.224
 20
91.276007629
 30
0.0
 11
27.224
 21
87.036150792
 31
0.0
  0
LINE
  8
0
  6
CONTINUOUS
 62
     2
 10
42.224
 20
91.250007629
 30
0.0
 11
42.5
 21
91.250007629
 31
0.0
  0
LINE
  8
0
  6
CONTINUOUS
 62
     2
 10
42.224
 20
91.000007629
 30
0.0
 11
45.0
 21
91.000007629
 31
0.0
  0
LINE
  8
0
  6
CONTINUOUS
 62
     2
 10
39.776
 20
90.500007629
 30
0.0
 11
39.0
 21
90.500007629
 31
0.0
  0
LINE
  8
0
  6
CONTINUOUS
 62
     2
 10
39.776
 20
86.000007629
 30
0.0
 11
28.315039081
 21
86.000007629
 31
0.0
  0
LINE
  8
0
  6
CONTINUOUS
 62
     2
 10
45.5
 20
100.000007629
 30
0.0
 11
45.5
 21
101.000007629
 31
0.0
  0
LINE
  8
0
  6
CONTINUOUS
 62
     2
 10
45.5
 20
101.000007629
 30
0.0
 11
36.5
 21
101.000007629
 31
0.0
  0
LINE
  8
0
  6
CONTINUOUS
 62
     2
 10
36.5
 20
101.000007629
 30
0.0
 11
36.5
 21
100.000007629
 31
0.0
  0
LINE
  8
0
  6
CONTINUOUS
 62
     2
 10
37.0
 20
100.000007629
 30
0.0
 11
45.0
 21
100.000007629
 31
0.0
  0
LINE
  8
0
  6
CONTINUOUS
 62
     2
 10
37.0
 20
96.000007629
 30
0.0
 11
45.0
 21
96.000007629
 31
0.0
  0
LINE
  8
0
  6
CONTINUOUS
 62
     2
 10
30.5
 20
100.000007629
 30
0.0
 11
30.5
 21
101.000007629
 31
0.0
  0
LINE
  8
0
  6
CONTINUOUS
 62
     2
 10
30.5
 20
101.000007629
 30
0.0
 11
21.5
 21
101.000007629
 31
0.0
  0
LINE
  8
0
  6
CONTINUOUS
 62
     2
 10
21.5
 20
101.000007629
 30
0.0
 11
21.5
 21
100.000007629
 31
0.0
  0
LINE
  8
0
  6
CONTINUOUS
 62
     2
 10
22.0
 20
100.000007629
 30
0.0
 11
30.0
 21
100.000007629
 31
0.0
  0
LINE
  8
0
  6
CONTINUOUS
 62
     2
 10
22.0
 20
96.000007629
 30
0.0
 11
30.0
 21
96.000007629
 31
0.0
  0
LINE
  8
0
  6
CONTINUOUS
 62
     2
 10
25.667789001
 20
95.086427382
 30
0.0
 11
32.308744006
 21
106.892569613
 31
0.0
  0
LINE
  8
0
  6
CONTINUOUS
 62
     2
 10
25.667789001
 20
95.086427382
 30
0.0
 11
26.163740291
 21
97.023959916
 31
0.0
  0
LINE
  8
0
  6
CONTINUOUS
 62
     2
 10
25.667789001
 20
95.086427382
 30
0.0
 11
27.066061684
 21
96.516404132
 31
0.0
  0
LINE
  8
0
  6
CONTINUOUS
 62
     2
 10
40.794408734
 20
94.90195641
 30
0.0
 11
32.308744006
 21
106.892569613
 31
0.0
  0
LINE
  8
0
  6
CONTINUOUS
 62
     2
 10
40.794408734
 20
94.90195641
 30
0.0
 11
39.255905126
 21
96.179847895
 31
0.0
  0
LINE
  8
0
  6
CONTINUOUS
 62
     2
 10
40.794408734
 20
94.90195641
 30
0.0
 11
40.100971268
 21
96.777894704
 31
0.0
  0
LINE
  8
0
  6
CONTINUOUS
 62
     2
 10
65.464544434
 20
98.315485642
 30
0.0
 11
71.464544434
 21
106.315485642
 31
0.0
  0
LINE
  8
0
  6
CONTINUOUS
 62
     2
 10
65.464544434
 20
98.315485642
 30
0.0
 11
66.209544954
 21
100.171549818
 31
0.0
  0
LINE
  8
0
  6
CONTINUOUS
 62
     2
 10
65.464544434
 20
98.315485642
 30
0.0
 11
67.037765898
 21
99.55038411
 31
0.0
  0
LINE
  8
0
  6
CONTINUOUS
 62
     2
 10
90.0
 20
101.000007629
 30
0.0
 11
90.0
 21
31.000007629
 31
0.0
  0
LINE
  8
0
  6
CONTINUOUS
 62
     2
 10
90.0
 20
101.000007629
 30
0.0
 11
89.48236191
 21
99.068155977
 31
0.0
  0
LINE
  8
0
  6
CONTINUOUS
 62
     2
 10
90.0
 20
101.000007629
 30
0.0
 11
90.51763809
 21
99.068155977
 31
0.0
  0
LINE
  8
0
  6
CONTINUOUS
 62
     2
 10
90.0
 20
31.000007629
 30
0.0
 11
89.48236191
 21
32.931859282
 31
0.0
  0
LINE
  8
0
  6
CONTINUOUS
 62
     2
 10
90.0
 20
31.000007629
 30
0.0
 11
90.51763809
 21
32.931859282
 31
0.0
  0
LINE
  8
0
  6
CONTINUOUS
 62
     2
 10
47.0
 20
101.000007629
 30
0.0
 11
92.0
 21
101.000007629
 31
0.0
  0
LINE
  8
0
  6
CONTINUOUS
 62
     2
 10
80.000007629
 20
31.000007629
 30
0.0
 11
92.0
 21
31.000007629
 31
0.0
  0
LINE
  8
0
  6
CONTINUOUS
 62
     2
 10
130.391599674
 20
67.370154816
 30
0.0
 11
130.391599674
 21
47.370154816
 31
0.0
  0
LINE
  8
0
  6
CONTINUOUS
 62
     2
 10
130.391599674
 20
47.370154816
 30
0.0
 11
120.391599674
 21
47.370154816
 31
0.0
  0
LINE
  8
0
  6
CONTINUOUS
 62
     2
 10
120.391599674
 20
47.370154816
 30
0.0
 11
120.391599674
 21
67.370154816
 31
0.0
  0
LINE
  8
0
  6
CONTINUOUS
 62
     2
 10
120.391599674
 20
67.370154816
 30
0.0
 11
130.391599674
 21
67.370154816
 31
0.0
  0
LINE
  8
0
  6
CONTINUOUS
 62
     2
 10
113.0
 20
82.000007629
 30
0.0
 11
113.0
 21
32.000007629
 31
0.0
  0
LINE
  8
0
  6
CONTINUOUS
 62
     2
 10
113.0
 20
32.000007629
 30
0.0
 11
102.999992371
 21
32.000007629
 31
0.0
  0
LINE
  8
0
  6
CONTINUOUS
 62
     2
 10
102.999992371
 20
32.000007629
 30
0.0
 11
102.999992371
 21
31.000007629
 31
0.0
  0
LINE
  8
0
  6
CONTINUOUS
 62
     2
 10
102.999992371
 20
31.000007629
 30
0.0
 11
113.0
 21
31.000007629
 31
0.0
  0
LINE
  8
0
  6
CONTINUOUS
 62
     2
 10
113.0
 20
71.0
 30
0.0
 11
110.0
 21
71.0
 31
0.0
  0
LINE
  8
0
  6
CONTINUOUS
 62
     2
 10
110.0
 20
71.0
 30
0.0
 11
110.0
 21
69.999992371
 31
0.0
  0
LINE
  8
0
  6
CONTINUOUS
 62
     2
 10
113.0
 20
69.999992371
 30
0.0
 11
101.000007629
 21
69.999992371
 31
0.0
  0
LINE
  8
0
  6
CONTINUOUS
 62
     2
 10
101.000007629
 20
69.999992371
 30
0.0
 11
101.000007629
 21
44.0
 31
0.0
  0
LINE
  8
0
  6
CONTINUOUS
 62
     2
 10
101.000007629
 20
44.0
 30
0.0
 11
113.0
 21
44.0
 31
0.0
  0
LINE
  8
0
  6
CONTINUOUS
 62
     2
 10
110.0
 20
44.0
 30
0.0
 11
110.0
 21
43.0
 31
0.0
  0
LINE
  8
0
  6
CONTINUOUS
 62
     2
 10
110.0
 20
43.0
 30
0.0
 11
113.0
 21
43.0
 31
0.0
  0
LINE
  8
0
  6
CONTINUOUS
 62
     2
 10
137.0
 20
82.000007629
 30
0.0
 11
137.0
 21
32.000007629
 31
0.0
  0
LINE
  8
0
  6
CONTINUOUS
 62
     2
 10
137.0
 20
32.000007629
 30
0.0
 11
147.0
 21
32.000007629
 31
0.0
  0
LINE
  8
0
  6
CONTINUOUS
 62
     2
 10
147.0
 20
32.000007629
 30
0.0
 11
147.0
 21
31.000007629
 31
0.0
  0
LINE
  8
0
  6
CONTINUOUS
 62
     2
 10
147.0
 20
31.000007629
 30
0.0
 11
137.0
 21
31.000007629
 31
0.0
  0
LINE
  8
0
  6
CONTINUOUS
 62
     2
 10
137.0
 20
71.0
 30
0.0
 11
140.0
 21
71.0
 31
0.0
  0
LINE
  8
0
  6
CONTINUOUS
 62
     2
 10
140.0
 20
71.0
 30
0.0
 11
140.0
 21
69.999992371
 31
0.0
  0
LINE
  8
0
  6
CONTINUOUS
 62
     2
 10
137.0
 20
69.999992371
 30
0.0
 11
149.0
 21
69.999992371
 31
0.0
  0
LINE
  8
0
  6
CONTINUOUS
 62
     2
 10
149.0
 20
69.999992371
 30
0.0
 11
149.0
 21
44.0
 31
0.0
  0
LINE
  8
0
  6
CONTINUOUS
 62
     2
 10
149.0
 20
44.0
 30
0.0
 11
137.0
 21
44.0
 31
0.0
  0
LINE
  8
0
  6
CONTINUOUS
 62
     2
 10
140.0
 20
44.0
 30
0.0
 11
140.0
 21
43.0
 31
0.0
  0
LINE
  8
0
  6
CONTINUOUS
 62
     2
 10
140.0
 20
43.0
 30
0.0
 11
137.0
 21
43.0
 31
0.0
  0
LINE
  8
0
  6
CONTINUOUS
 62
     2
 10
110.0
 20
77.000007629
 30
0.0
 11
115.0
 21
77.000007629
 31
0.0
  0
LINE
  8
0
  6
CONTINUOUS
 62
     2
 10
135.0
 20
77.000007629
 30
0.0
 11
140.0
 21
77.000007629
 31
0.0
  0
LINE
  8
0
  6
CONTINUOUS
 62
     2
 10
135.0
 20
37.000007629
 30
0.0
 11
140.0
 21
37.000007629
 31
0.0
  0
LINE
  8
0
  6
CONTINUOUS
 62
     2
 10
110.0
 20
37.000007629
 30
0.0
 11
115.0
 21
37.000007629
 31
0.0
  0
LINE
  8
0
  6
CONTINUOUS
 62
     2
 10
133.0
 20
73.000007629
 30
0.0
 11
133.0
 21
82.000007629
 31
0.0
  0
LINE
  8
0
  6
CONTINUOUS
 62
     2
 10
132.0
 20
76.000007629
 30
0.0
 11
132.0
 21
82.000007629
 31
0.0
  0
LINE
  8
0
  6
CONTINUOUS
 62
     2
 10
131.0
 20
79.000007629
 30
0.0
 11
131.0
 21
82.000007629
 31
0.0
  0
LINE
  8
0
  6
CONTINUOUS
 62
     2
 10
137.0
 20
83.000007629
 30
0.0
 11
141.0
 21
83.000007629
 31
0.0
  0
LINE
  8
0
  6
CONTINUOUS
 62
     2
 10
141.0
 20
86.000007629
 30
0.0
 11
141.0
 21
82.000007629
 31
0.0
  0
LINE
  8
0
  6
CONTINUOUS
 62
     2
 10
141.0
 20
82.000007629
 30
0.0
 11
137.0
 21
82.000007629
 31
0.0
  0
LINE
  8
0
  6
CONTINUOUS
 62
     2
 10
114.0
 20
83.000007629
 30
0.0
 11
108.0
 21
83.000007629
 31
0.0
  0
LINE
  8
0
  6
CONTINUOUS
 62
     2
 10
109.0
 20
83.000007629
 30
0.0
 11
109.0
 21
82.000007629
 31
0.0
  0
LINE
  8
0
  6
CONTINUOUS
 62
     2
 10
109.0
 20
82.000007629
 30
0.0
 11
113.0
 21
82.000007629
 31
0.0
  0
LINE
  8
0
  6
CONTINUOUS
 62
     2
 10
114.0
 20
82.000007629
 30
0.0
 11
136.0
 21
82.000007629
 31
0.0
  0
LINE
  8
0
  6
CONTINUOUS
 62
     2
 10
114.0
 20
32.000007629
 30
0.0
 11
136.0
 21
32.000007629
 31
0.0
  0
LINE
  8
0
  6
CONTINUOUS
 62
     2
 10
108.0
 20
86.000007629
 30
0.0
 11
141.0
 21
86.000007629
 31
0.0
  0
LINE
  8
0
  6
CONTINUOUS
 62
     2
 10
137.0
 20
83.000007629
 30
0.0
 11
114.0
 21
83.000007629
 31
0.0
  0
LINE
  8
0
  6
CONTINUOUS
 62
     2
 10
108.0
 20
33.000007629
 30
0.0
 11
108.0
 21
30.000007629
 31
0.0
  0
LINE
  8
0
  6
CONTINUOUS
 62
     2
 10
142.0
 20
33.000007629
 30
0.0
 11
142.0
 21
30.000007629
 31
0.0
  0
ARC
  8
0
  6
CONTINUOUS
 62
     2
 10
113.0
 20
32.000007629
 30
0.0
 40
1.0
 50
269.999992371
 51
0.0
  0
ARC
  8
0
  6
CONTINUOUS
 62
     2
 10
113.0
 20
82.000007629
 30
0.0
 40
1.0
 50
0.0
 51
90.0
  0
ARC
  8
0
  6
CONTINUOUS
 62
     2
 10
137.0
 20
32.000007629
 30
0.0
 40
1.0
 50
180.0
 51
270.0
  0
ARC
  8
0
  6
CONTINUOUS
 62
     2
 10
137.0
 20
82.000007629
 30
0.0
 40
1.0
 50
90.0
 51
180.0
  0
LINE
  8
0
  6
CONTINUOUS
 62
     2
 10
108.0
 20
86.000007629
 30
0.0
 11
108.0
 21
83.000007629
 31
0.0
  0
LINE
  8
0
  6
CONTINUOUS
 62
     2
 10
136.0
 20
32.000007629
 30
0.0
 11
136.0
 21
82.000007629
 31
0.0
  0
LINE
  8
0
  6
CONTINUOUS
 62
     2
 10
134.0
 20
70.000007629
 30
0.0
 11
134.0
 21
82.000007629
 31
0.0
  0
LINE
  8
0
  6
CONTINUOUS
 62
     2
 10
135.0
 20
67.000007629
 30
0.0
 11
135.0
 21
82.000007629
 31
0.0
  0
LINE
  8
0
  6
CONTINUOUS
 62
     2
 10
117.0
 20
41.000007629
 30
0.0
 11
117.0
 21
32.000007629
 31
0.0
  0
LINE
  8
0
  6
CONTINUOUS
 62
     2
 10
118.0
 20
38.000007629
 30
0.0
 11
118.0
 21
32.000007629
 31
0.0
  0
LINE
  8
0
  6
CONTINUOUS
 62
     2
 10
119.0
 20
35.000007629
 30
0.0
 11
119.0
 21
32.000007629
 31
0.0
  0
LINE
  8
0
  6
CONTINUOUS
 62
     2
 10
116.0
 20
44.000007629
 30
0.0
 11
116.0
 21
32.000007629
 31
0.0
  0
LINE
  8
0
  6
CONTINUOUS
 62
     2
 10
115.0
 20
47.000007629
 30
0.0
 11
115.0
 21
32.000007629
 31
0.0
  0
LINE
  8
0
  6
CONTINUOUS
 62
     2
 10
114.0
 20
82.000007629
 30
0.0
 11
114.0
 21
32.000007629
 31
0.0
  0
LINE
  8
0
  6
CONTINUOUS
 62
     2
 10
135.88
 20
86.000007629
 30
0.0
 11
114.12
 21
86.000007629
 31
0.0
  0
LINE
  8
0
  6
CONTINUOUS
 62
     2
 10
114.392
 20
88.896007629
 30
0.0
 11
114.392
 21
98.320007629
 31
0.0
  0
LINE
  8
0
  6
CONTINUOUS
 62
     2
 10
135.608
 20
88.080007629
 30
0.0
 11
135.608
 21
98.320007629
 31
0.0
  0
LINE
  8
0
  6
CONTINUOUS
 62
     2
 10
114.392
 20
98.320007629
 30
0.0
 11
121.736
 21
98.320007629
 31
0.0
  0
LINE
  8
0
  6
CONTINUOUS
 62
     2
 10
121.736
 20
99.952007629
 30
0.0
 11
128.264
 21
99.952007629
 31
0.0
  0
LINE
  8
0
  6
CONTINUOUS
 62
     2
 10
128.264
 20
99.952007629
 30
0.0
 11
128.264
 21
95.056007629
 31
0.0
  0
LINE
  8
0
  6
CONTINUOUS
 62
     2
 10
128.264
 20
95.056007629
 30
0.0
 11
121.736
 21
95.056007629
 31
0.0
  0
LINE
  8
0
  6
CONTINUOUS
 62
     2
 10
121.736
 20
95.056007629
 30
0.0
 11
121.736
 21
99.952007629
 31
0.0
  0
LINE
  8
0
  6
CONTINUOUS
 62
     2
 10
128.264
 20
98.320007629
 30
0.0
 11
135.608
 21
98.320007629
 31
0.0
  0
LINE
  8
0
  6
CONTINUOUS
 62
     2
 10
133.976
 20
86.000007629
 30
0.0
 11
133.976
 21
89.712007629
 31
0.0
  0
LINE
  8
0
  6
CONTINUOUS
 62
     2
 10
133.976
 20
89.712007629
 30
0.0
 11
129.08
 21
89.712007629
 31
0.0
  0
LINE
  8
0
  6
CONTINUOUS
 62
     2
 10
129.08
 20
89.712007629
 30
0.0
 11
129.08
 21
86.000007629
 31
0.0
  0
LINE
  8
0
  6
CONTINUOUS
 62
     2
 10
131.528
 20
91.344007629
 30
0.0
 11
131.528
 21
87.264007629
 31
0.0
  0
LINE
  8
0
  6
CONTINUOUS
 62
     2
 10
135.608
 20
88.080007629
 30
0.0
 11
133.976
 21
88.080007629
 31
0.0
  0
LINE
  8
0
  6
CONTINUOUS
 62
     2
 10
114.392
 20
88.896007629
 30
0.0
 11
117.656
 21
88.896007629
 31
0.0
  0
LINE
  8
0
  6
CONTINUOUS
 62
     2
 10
117.656
 20
88.896007629
 30
0.0
 11
117.656
 21
86.000007629
 31
0.0
  0
LINE
  8
0
  6
CONTINUOUS
 62
     2
 10
114.12
 20
95.240007629
 30
0.0
 11
110.64
 21
95.240007629
 31
0.0
  0
LINE
  8
0
  6
CONTINUOUS
 62
     2
 10
103.16
 20
87.760007629
 30
0.0
 11
103.16
 21
69.999992371
 31
0.0
  0
LINE
  8
0
  6
CONTINUOUS
 62
     2
 10
114.12
 20
93.200007629
 30
0.0
 11
110.64
 21
93.200007629
 31
0.0
  0
LINE
  8
0
  6
CONTINUOUS
 62
     2
 10
105.2
 20
87.760007629
 30
0.0
 11
105.2
 21
69.999992371
 31
0.0
  0
ARC
  8
0
  6
CONTINUOUS
 62
     2
 10
110.64
 20
87.760007629
 30
0.0
 40
5.44
 50
90.0
 51
180.0
  0
ARC
  8
0
  6
CONTINUOUS
 62
     2
 10
110.64
 20
87.760007629
 30
0.0
 40
7.48
 50
90.0
 51
180.0
  0
LINE
  8
0
  6
CONTINUOUS
 62
     2
 10
119.0
 20
86.000007629
 30
0.0
 11
131.0
 21
86.000007629
 31
0.0
  0
LINE
  8
0
  6
CONTINUOUS
 62
     2
 10
130.0
 20
100.000007629
 30
0.0
 11
138.0
 21
100.000007629
 31
0.0
  0
ARC
  8
0
  6
CONTINUOUS
 62
     2
 10
138.0
 20
99.0
 30
0.0
 40
1.0
 50
0.0
 51
90.0
  0
LINE
  8
0
  6
CONTINUOUS
 62
     2
 10
139.0
 20
99.0
 30
0.0
 11
139.0
 21
87.0
 31
0.0
  0
LINE
  8
0
  6
CONTINUOUS
 62
     2
 10
131.0
 20
86.000007629
 30
0.0
 11
138.0
 21
86.000007629
 31
0.0
  0
ARC
  8
0
  6
CONTINUOUS
 62
     2
 10
138.0
 20
87.0
 30
0.0
 40
1.0
 50
270.0
 51
0.0
  0
LINE
  8
0
  6
CONTINUOUS
 62
     2
 10
119.0
 20
86.000007629
 30
0.0
 11
112.0
 21
86.000007629
 31
0.0
  0
ARC
  8
0
  6
CONTINUOUS
 62
     2
 10
112.0
 20
87.0
 30
0.0
 40
1.0
 50
180.0
 51
270.0
  0
LINE
  8
0
  6
CONTINUOUS
 62
     2
 10
120.0
 20
100.000007629
 30
0.0
 11
112.0
 21
100.000007629
 31
0.0
  0
LINE
  8
0
  6
CONTINUOUS
 62
     2
 10
111.0
 20
87.0
 30
0.0
 11
111.0
 21
99.0
 31
0.0
  0
ARC
  8
0
  6
CONTINUOUS
 62
     2
 10
112.0
 20
99.0
 30
0.0
 40
1.0
 50
90.0
 51
180.0
  0
LINE
  8
0
  6
CONTINUOUS
 62
     2
 10
121.0
 20
99.0
 30
0.0
 11
121.736
 21
99.0
 31
0.0
  0
LINE
  8
0
  6
CONTINUOUS
 62
     2
 10
121.0
 20
99.000007629
 30
0.0
 11
121.0
 21
98.320007629
 31
0.0
  0
LINE
  8
0
  6
CONTINUOUS
 62
     2
 10
129.0
 20
98.320007629
 30
0.0
 11
129.0
 21
99.000007629
 31
0.0
  0
ARC
  8
0
  6
CONTINUOUS
 62
     2
 10
130.0
 20
99.000007629
 30
0.0
 40
1.0
 50
90.0
 51
180.0
  0
ARC
  8
0
  6
CONTINUOUS
 62
     2
 10
120.0
 20
99.000007629
 30
0.0
 40
1.0
 50
0.0
 51
90.0
  0
LINE
  8
0
  6
CONTINUOUS
 62
     2
 10
139.0
 20
101.000007629
 30
0.0
 11
111.0
 21
101.000007629
 31
0.0
  0
LINE
  8
0
  6
CONTINUOUS
 62
     2
 10
111.0
 20
101.000007629
 30
0.0
 11
111.0
 21
100.000007629
 31
0.0
  0
LINE
  8
0
  6
CONTINUOUS
 62
     2
 10
111.0
 20
100.000007629
 30
0.0
 11
139.0
 21
100.000007629
 31
0.0
  0
LINE
  8
0
  6
CONTINUOUS
 62
     2
 10
139.0
 20
100.000007629
 30
0.0
 11
139.0
 21
101.000007629
 31
0.0
  0
LINE
  8
0
  6
CONTINUOUS
 62
     2
 10
128.264
 20
99.0
 30
0.0
 11
129.0
 21
99.0
 31
0.0
  0
LINE
  8
0
  6
CONTINUOUS
 62
     2
 10
123.204101563
 20
61.90586962
 30
0.0
 11
127.266601563
 21
61.90586962
 31
0.0
  0
LINE
  8
0
  6
CONTINUOUS
 62
     2
 10
127.266601563
 20
61.90586962
 30
0.0
 11
123.204101563
 21
58.691583906
 31
0.0
  0
LINE
  8
0
  6
CONTINUOUS
 62
     2
 10
123.204101563
 20
58.691583906
 30
0.0
 11
127.266601563
 21
58.691583906
 31
0.0
  0
LINE
  8
0
  6
CONTINUOUS
 62
     2
 10
123.204101563
 20
56.40586962
 30
0.0
 11
127.266601563
 21
56.40586962
 31
0.0
  0
LINE
  8
0
  6
CONTINUOUS
 62
     2
 10
127.266601563
 20
56.40586962
 30
0.0
 11
127.266601563
 21
54.263012477
 31
0.0
  0
LINE
  8
0
  6
CONTINUOUS
 62
     2
 10
127.266601563
 20
54.263012477
 30
0.0
 11
126.954101563
 21
53.548726763
 31
0.0
  0
LINE
  8
0
  6
CONTINUOUS
 62
     2
 10
126.954101563
 20
53.548726763
 30
0.0
 11
126.329101563
 21
53.191583906
 31
0.0
  0
LINE
  8
0
  6
CONTINUOUS
 62
     2
 10
126.329101563
 20
53.191583906
 30
0.0
 11
126.016601563
 21
53.191583906
 31
0.0
  0
LINE
  8
0
  6
CONTINUOUS
 62
     2
 10
126.016601563
 20
53.191583906
 30
0.0
 11
125.391601563
 21
53.548726763
 31
0.0
  0
LINE
  8
0
  6
CONTINUOUS
 62
     2
 10
125.391601563
 20
53.548726763
 30
0.0
 11
125.079101563
 21
54.263012477
 31
0.0
  0
LINE
  8
0
  6
CONTINUOUS
 62
     2
 10
125.079101563
 20
54.263012477
 30
0.0
 11
125.079101563
 21
56.40586962
 31
0.0
  0
LINE
  8
0
  6
CONTINUOUS
 62
     2
 10
32.308744006
 20
106.892569613
 30
0.0
 11
47.058744006
 21
106.892569613
 31
0.0
  0
LINE
  8
0
  6
CONTINUOUS
 62
     2
 10
34.665889195
 20
110.517070496
 30
0.0
 11
34.665889195
 21
108.110820496
 31
0.0
  0
LINE
  8
0
  6
CONTINUOUS
 62
     2
 10
34.665889195
 20
108.110820496
 30
0.0
 11
34.844460624
 21
107.892070496
 31
0.0
  0
LINE
  8
0
  6
CONTINUOUS
 62
     2
 10
34.844460624
 20
107.892070496
 30
0.0
 11
36.273032052
 21
107.892070496
 31
0.0
  0
LINE
  8
0
  6
CONTINUOUS
 62
     2
 10
34.665889195
 20
109.423320496
 30
0.0
 11
36.273032052
 21
109.860820496
 31
0.0
  0
LINE
  8
0
  6
CONTINUOUS
 62
     2
 10
37.415889195
 20
107.892070496
 30
0.0
 11
39.023032052
 21
107.892070496
 31
0.0
  0
LINE
  8
0
  6
CONTINUOUS
 62
     2
 10
38.308746338
 20
107.892070496
 30
0.0
 11
38.665889195
 21
108.985820496
 31
0.0
  0
LINE
  8
0
  6
CONTINUOUS
 62
     2
 10
38.665889195
 20
108.985820496
 30
0.0
 11
37.594460624
 21
108.985820496
 31
0.0
  0
LINE
  8
0
  6
CONTINUOUS
 62
     2
 10
39.808746338
 20
109.204570496
 30
0.0
 11
40.344460624
 21
108.985820496
 31
0.0
  0
LINE
  8
0
  6
CONTINUOUS
 62
     2
 10
40.344460624
 20
108.985820496
 30
0.0
 11
42.130174909
 21
108.985820496
 31
0.0
  0
LINE
  8
0
  6
CONTINUOUS
 62
     2
 10
42.737317766
 20
107.673320496
 30
0.0
 11
43.273032052
 21
108.110820496
 31
0.0
  0
LINE
  8
0
  6
CONTINUOUS
 62
     2
 10
43.273032052
 20
108.110820496
 30
0.0
 11
43.808746338
 21
108.767070496
 31
0.0
  0
LINE
  8
0
  6
CONTINUOUS
 62
     2
 10
43.808746338
 20
108.767070496
 30
0.0
 11
44.344460624
 21
109.860820496
 31
0.0
  0
LINE
  8
0
  6
CONTINUOUS
 62
     2
 10
44.344460624
 20
109.860820496
 30
0.0
 11
42.737317766
 21
109.860820496
 31
0.0
  0
LINE
  8
0
  6
CONTINUOUS
 62
     2
 10
44.880174909
 20
110.079570496
 30
0.0
 11
44.523032052
 21
110.517070496
 31
0.0
  0
LINE
  8
0
  6
CONTINUOUS
 62
     2
 10
44.344460624
 20
110.298320496
 30
0.0
 11
44.701603481
 21
109.860820496
 31
0.0
  0
LINE
  8
0
  6
CONTINUOUS
 62
     2
 10
43.630174909
 20
108.548320496
 30
0.0
 11
44.344460624
 21
107.892070496
 31
0.0
  0
LINE
  8
0
  6
CONTINUOUS
 62
     2
 10
44.344460624
 20
107.892070496
 30
0.0
 11
44.701603481
 21
107.673320496
 31
0.0
  0
LINE
  8
0
  6
CONTINUOUS
 62
     2
 10
71.464544434
 20
106.315485642
 30
0.0
 11
86.993776145
 21
106.315485642
 31
0.0
  0
LINE
  8
0
  6
CONTINUOUS
 62
     2
 10
73.464538574
 20
107.315248352
 30
0.0
 11
75.785967146
 21
107.315248352
 31
0.0
  0
LINE
  8
0
  6
CONTINUOUS
 62
     2
 10
73.821681431
 20
109.283998352
 30
0.0
 11
75.428824289
 21
109.283998352
 31
0.0
  0
LINE
  8
0
  6
CONTINUOUS
 62
     2
 10
76.214538574
 20
107.096498352
 30
0.0
 11
76.75025286
 21
108.408998352
 31
0.0
  0
LINE
  8
0
  6
CONTINUOUS
 62
     2
 10
76.75025286
 20
109.721498352
 30
0.0
 11
76.214538574
 21
110.377748352
 31
0.0
  0
LINE
  8
0
  6
CONTINUOUS
 62
     2
 10
77.464538574
 20
110.377748352
 30
0.0
 11
77.107395717
 21
108.846498352
 31
0.0
  0
LINE
  8
0
  6
CONTINUOUS
 62
     2
 10
77.285967146
 20
109.721498352
 30
0.0
 11
78.535967146
 21
109.721498352
 31
0.0
  0
LINE
  8
0
  6
CONTINUOUS
 62
     2
 10
78.535967146
 20
109.721498352
 30
0.0
 11
78.357395717
 21
108.846498352
 31
0.0
  0
LINE
  8
0
  6
CONTINUOUS
 62
     2
 10
77.821681431
 20
109.721498352
 30
0.0
 11
77.821681431
 21
108.846498352
 31
0.0
  0
LINE
  8
0
  6
CONTINUOUS
 62
     2
 10
77.821681431
 20
108.846498352
 30
0.0
 11
77.464538574
 21
107.971498352
 31
0.0
  0
LINE
  8
0
  6
CONTINUOUS
 62
     2
 10
77.464538574
 20
107.971498352
 30
0.0
 11
77.107395717
 21
107.096498352
 31
0.0
  0
LINE
  8
0
  6
CONTINUOUS
 62
     2
 10
77.821681431
 20
108.846498352
 30
0.0
 11
78.00025286
 21
108.190248352
 31
0.0
  0
LINE
  8
0
  6
CONTINUOUS
 62
     2
 10
78.00025286
 20
108.190248352
 30
0.0
 11
78.178824289
 21
107.752748352
 31
0.0
  0
LINE
  8
0
  6
CONTINUOUS
 62
     2
 10
78.178824289
 20
107.752748352
 30
0.0
 11
78.535967146
 21
107.096498352
 31
0.0
  0
LINE
  8
0
  6
CONTINUOUS
 62
     2
 10
78.964538574
 20
107.315248352
 30
0.0
 11
79.678824289
 21
107.533998352
 31
0.0
  0
LINE
  8
0
  6
CONTINUOUS
 62
     2
 10
79.50025286
 20
107.533998352
 30
0.0
 11
79.678824289
 21
108.846498352
 31
0.0
  0
LINE
  8
0
  6
CONTINUOUS
 62
     2
 10
79.678824289
 20
109.502748352
 30
0.0
 11
78.964538574
 21
109.502748352
 31
0.0
  0
LINE
  8
0
  6
CONTINUOUS
 62
     2
 10
79.321681431
 20
110.158998352
 30
0.0
 11
79.321681431
 21
109.502748352
 31
0.0
  0
LINE
  8
0
  6
CONTINUOUS
 62
     2
 10
78.964538574
 20
108.846498352
 30
0.0
 11
79.143110003
 21
107.533998352
 31
0.0
  0
LINE
  8
0
  6
CONTINUOUS
 62
     2
 10
79.857395717
 20
110.158998352
 30
0.0
 11
79.857395717
 21
109.502748352
 31
0.0
  0
LINE
  8
0
  6
CONTINUOUS
 62
     2
 10
79.857395717
 20
109.502748352
 30
0.0
 11
81.107395717
 21
109.502748352
 31
0.0
  0
LINE
  8
0
  6
CONTINUOUS
 62
     2
 10
81.107395717
 20
109.502748352
 30
0.0
 11
81.107395717
 21
110.158998352
 31
0.0
  0
LINE
  8
0
  6
CONTINUOUS
 62
     2
 10
80.571681431
 20
110.377748352
 30
0.0
 11
80.571681431
 21
109.502748352
 31
0.0
  0
LINE
  8
0
  6
CONTINUOUS
 62
     2
 10
79.857395717
 20
108.846498352
 30
0.0
 11
81.107395717
 21
108.846498352
 31
0.0
  0
LINE
  8
0
  6
CONTINUOUS
 62
     2
 10
80.571681431
 20
108.846498352
 30
0.0
 11
80.214538574
 21
108.408998352
 31
0.0
  0
LINE
  8
0
  6
CONTINUOUS
 62
     2
 10
80.214538574
 20
108.408998352
 30
0.0
 11
80.214538574
 21
107.096498352
 31
0.0
  0
LINE
  8
0
  6
CONTINUOUS
 62
     2
 10
80.75025286
 20
107.096498352
 30
0.0
 11
80.75025286
 21
108.408998352
 31
0.0
  0
LINE
  8
0
  6
CONTINUOUS
 62
     2
 10
79.857395717
 20
107.096498352
 30
0.0
 11
79.857395717
 21
108.408998352
 31
0.0
  0
LINE
  8
0
  6
CONTINUOUS
 62
     2
 10
79.857395717
 20
108.408998352
 30
0.0
 11
81.107395717
 21
108.408998352
 31
0.0
  0
LINE
  8
0
  6
CONTINUOUS
 62
     2
 10
81.107395717
 20
108.408998352
 30
0.0
 11
81.107395717
 21
107.096498352
 31
0.0
  0
LINE
  8
0
  6
CONTINUOUS
 62
     2
 10
81.107395717
 20
107.096498352
 30
0.0
 11
80.928824289
 21
107.096498352
 31
0.0
  0
LINE
  8
0
  6
CONTINUOUS
 62
     2
 10
82.428824289
 20
107.533998352
 30
0.0
 11
82.785967146
 21
107.096498352
 31
0.0
  0
LINE
  8
0
  6
CONTINUOUS
 62
     2
 10
82.785967146
 20
107.096498352
 30
0.0
 11
82.964538574
 21
107.533998352
 31
0.0
  0
LINE
  8
0
  6
CONTINUOUS
 62
     2
 10
82.964538574
 20
107.533998352
 30
0.0
 11
82.964538574
 21
108.846498352
 31
0.0
  0
LINE
  8
0
  6
CONTINUOUS
 62
     2
 10
82.964538574
 20
108.846498352
 30
0.0
 11
82.785967146
 21
109.502748352
 31
0.0
  0
LINE
  8
0
  6
CONTINUOUS
 62
     2
 10
82.785967146
 20
109.502748352
 30
0.0
 11
83.678824289
 21
110.377748352
 31
0.0
  0
LINE
  8
0
  6
CONTINUOUS
 62
     2
 10
83.678824289
 20
110.377748352
 30
0.0
 11
82.25025286
 21
110.377748352
 31
0.0
  0
LINE
  8
0
  6
CONTINUOUS
 62
     2
 10
81.714538574
 20
108.846498352
 30
0.0
 11
84.035967146
 21
108.846498352
 31
0.0
  0
LINE
  8
0
  6
CONTINUOUS
 62
     2
 10
84.821681431
 20
107.096498352
 30
0.0
 11
84.821681431
 21
108.408998352
 31
0.0
  0
LINE
  8
0
  6
CONTINUOUS
 62
     2
 10
84.821681431
 20
108.408998352
 30
0.0
 11
86.428824289
 21
108.408998352
 31
0.0
  0
LINE
  8
0
  6
CONTINUOUS
 62
     2
 10
86.428824289
 20
108.408998352
 30
0.0
 11
86.428824289
 21
107.096498352
 31
0.0
  0
LINE
  8
0
  6
CONTINUOUS
 62
     2
 10
86.428824289
 20
107.096498352
 30
0.0
 11
84.821681431
 21
107.096498352
 31
0.0
  0
LINE
  8
0
  6
CONTINUOUS
 62
     2
 10
85.357395717
 20
110.377748352
 30
0.0
 11
85.178824289
 21
109.721498352
 31
0.0
  0
LINE
  8
0
  6
CONTINUOUS
 62
     2
 10
85.178824289
 20
109.721498352
 30
0.0
 11
84.821681431
 21
108.846498352
 31
0.0
  0
LINE
  8
0
  6
CONTINUOUS
 62
     2
 10
84.464538574
 20
108.846498352
 30
0.0
 11
86.607395717
 21
108.846498352
 31
0.0
  0
LINE
  8
0
  6
CONTINUOUS
 62
     2
 10
86.428824289
 20
109.721498352
 30
0.0
 11
86.607395717
 21
108.846498352
 31
0.0
  0
LINE
  8
0
  6
CONTINUOUS
 62
     2
 10
86.607395717
 20
108.846498352
 30
0.0
 11
86.785967146
 21
108.408998352
 31
0.0
  0
LINE
  8
0
  6
CONTINUOUS
 62
     2
 10
50.0
 20
119.0
 30
0.0
 11
68.000030518
 21
119.0
 31
0.0
  0
LINE
  8
0
  6
CONTINUOUS
 62
     2
 10
68.000030518
 20
119.0
 30
0.0
 11
68.000030518
 21
114.0
 31
0.0
  0
LINE
  8
0
  6
CONTINUOUS
 62
     2
 10
68.000030518
 20
114.0
 30
0.0
 11
50.0
 21
114.0
 31
0.0
  0
LINE
  8
0
  6
CONTINUOUS
 62
     2
 10
50.0
 20
114.0
 30
0.0
 11
50.0
 21
119.0
 31
0.0
  0
LINE
  8
0
  6
CONTINUOUS
 62
     2
 10
56.000030518
 20
114.0
 30
0.0
 11
56.000030518
 21
119.0
 31
0.0
  0
LINE
  8
0
  6
CONTINUOUS
 62
     2
 10
62.000030518
 20
114.0
 30
0.0
 11
62.000030518
 21
119.0
 31
0.0
  0
LINE
  8
0
  6
CONTINUOUS
 62
     2
 10
24.709512668
 20
115.031543462
 30
0.0
 11
27.959512668
 21
115.031543462
 31
0.0
  0
LINE
  8
0
  6
CONTINUOUS
 62
     2
 10
25.209512668
 20
117.000293462
 30
0.0
 11
27.459512668
 21
117.000293462
 31
0.0
  0
LINE
  8
0
  6
CONTINUOUS
 62
     2
 10
28.559512662
 20
114.812793462
 30
0.0
 11
29.309512662
 21
116.125293462
 31
0.0
  0
LINE
  8
0
  6
CONTINUOUS
 62
     2
 10
29.309512662
 20
117.437793462
 30
0.0
 11
28.559512662
 21
118.094043462
 31
0.0
  0
LINE
  8
0
  6
CONTINUOUS
 62
     2
 10
30.309512662
 20
118.094043462
 30
0.0
 11
29.809512662
 21
116.562793462
 31
0.0
  0
LINE
  8
0
  6
CONTINUOUS
 62
     2
 10
30.059512662
 20
117.437793462
 30
0.0
 11
31.809512662
 21
117.437793462
 31
0.0
  0
LINE
  8
0
  6
CONTINUOUS
 62
     2
 10
31.809512662
 20
117.437793462
 30
0.0
 11
31.559512662
 21
116.562793462
 31
0.0
  0
LINE
  8
0
  6
CONTINUOUS
 62
     2
 10
30.809512662
 20
117.437793462
 30
0.0
 11
30.809512662
 21
116.562793462
 31
0.0
  0
LINE
  8
0
  6
CONTINUOUS
 62
     2
 10
30.809512662
 20
116.562793462
 30
0.0
 11
30.309512662
 21
115.687793462
 31
0.0
  0
LINE
  8
0
  6
CONTINUOUS
 62
     2
 10
30.309512662
 20
115.687793462
 30
0.0
 11
29.809512662
 21
114.812793462
 31
0.0
  0
LINE
  8
0
  6
CONTINUOUS
 62
     2
 10
30.809512662
 20
116.562793462
 30
0.0
 11
31.059512662
 21
115.906543462
 31
0.0
  0
LINE
  8
0
  6
CONTINUOUS
 62
     2
 10
31.059512662
 20
115.906543462
 30
0.0
 11
31.309512662
 21
115.469043462
 31
0.0
  0
LINE
  8
0
  6
CONTINUOUS
 62
     2
 10
31.309512662
 20
115.469043462
 30
0.0
 11
31.809512662
 21
114.812793462
 31
0.0
  0
LINE
  8
0
  6
CONTINUOUS
 62
     2
 10
32.409512656
 20
115.031543462
 30
0.0
 11
33.409512656
 21
115.250293462
 31
0.0
  0
LINE
  8
0
  6
CONTINUOUS
 62
     2
 10
33.159512656
 20
115.250293462
 30
0.0
 11
33.409512656
 21
116.562793462
 31
0.0
  0
LINE
  8
0
  6
CONTINUOUS
 62
     2
 10
33.409512656
 20
117.219043462
 30
0.0
 11
32.409512656
 21
117.219043462
 31
0.0
  0
LINE
  8
0
  6
CONTINUOUS
 62
     2
 10
32.909512656
 20
117.875293462
 30
0.0
 11
32.909512656
 21
117.219043462
 31
0.0
  0
LINE
  8
0
  6
CONTINUOUS
 62
     2
 10
32.409512656
 20
116.562793462
 30
0.0
 11
32.659512656
 21
115.250293462
 31
0.0
  0
LINE
  8
0
  6
CONTINUOUS
 62
     2
 10
33.659512656
 20
117.875293462
 30
0.0
 11
33.659512656
 21
117.219043462
 31
0.0
  0
LINE
  8
0
  6
CONTINUOUS
 62
     2
 10
33.659512656
 20
117.219043462
 30
0.0
 11
35.409512656
 21
117.219043462
 31
0.0
  0
LINE
  8
0
  6
CONTINUOUS
 62
     2
 10
35.409512656
 20
117.219043462
 30
0.0
 11
35.409512656
 21
117.875293462
 31
0.0
  0
LINE
  8
0
  6
CONTINUOUS
 62
     2
 10
34.659512656
 20
118.094043462
 30
0.0
 11
34.659512656
 21
117.219043462
 31
0.0
  0
LINE
  8
0
  6
CONTINUOUS
 62
     2
 10
33.659512656
 20
116.562793462
 30
0.0
 11
35.409512656
 21
116.562793462
 31
0.0
  0
LINE
  8
0
  6
CONTINUOUS
 62
     2
 10
34.659512656
 20
116.562793462
 30
0.0
 11
34.159512656
 21
116.125293462
 31
0.0
  0
LINE
  8
0
  6
CONTINUOUS
 62
     2
 10
34.159512656
 20
116.125293462
 30
0.0
 11
34.159512656
 21
114.812793462
 31
0.0
  0
LINE
  8
0
  6
CONTINUOUS
 62
     2
 10
34.909512656
 20
114.812793462
 30
0.0
 11
34.909512656
 21
116.125293462
 31
0.0
  0
LINE
  8
0
  6
CONTINUOUS
 62
     2
 10
33.659512656
 20
114.812793462
 30
0.0
 11
33.659512656
 21
116.125293462
 31
0.0
  0
LINE
  8
0
  6
CONTINUOUS
 62
     2
 10
33.659512656
 20
116.125293462
 30
0.0
 11
35.409512656
 21
116.125293462
 31
0.0
  0
LINE
  8
0
  6
CONTINUOUS
 62
     2
 10
35.409512656
 20
116.125293462
 30
0.0
 11
35.409512656
 21
114.812793462
 31
0.0
  0
LINE
  8
0
  6
CONTINUOUS
 62
     2
 10
35.409512656
 20
114.812793462
 30
0.0
 11
35.159512656
 21
114.812793462
 31
0.0
  0
LINE
  8
0
  6
CONTINUOUS
 62
     2
 10
37.25951265
 20
115.250293462
 30
0.0
 11
37.75951265
 21
114.812793462
 31
0.0
  0
LINE
  8
0
  6
CONTINUOUS
 62
     2
 10
37.75951265
 20
114.812793462
 30
0.0
 11
38.00951265
 21
115.250293462
 31
0.0
  0
LINE
  8
0
  6
CONTINUOUS
 62
     2
 10
38.00951265
 20
115.250293462
 30
0.0
 11
38.00951265
 21
116.562793462
 31
0.0
  0
LINE
  8
0
  6
CONTINUOUS
 62
     2
 10
38.00951265
 20
116.562793462
 30
0.0
 11
37.75951265
 21
117.219043462
 31
0.0
  0
LINE
  8
0
  6
CONTINUOUS
 62
     2
 10
37.75951265
 20
117.219043462
 30
0.0
 11
39.00951265
 21
118.094043462
 31
0.0
  0
LINE
  8
0
  6
CONTINUOUS
 62
     2
 10
39.00951265
 20
118.094043462
 30
0.0
 11
37.00951265
 21
118.094043462
 31
0.0
  0
LINE
  8
0
  6
CONTINUOUS
 62
     2
 10
36.25951265
 20
116.562793462
 30
0.0
 11
39.50951265
 21
116.562793462
 31
0.0
  0
LINE
  8
0
  6
CONTINUOUS
 62
     2
 10
40.109512644
 20
115.469043462
 30
0.0
 11
41.359512644
 21
115.469043462
 31
0.0
  0
LINE
  8
0
  6
CONTINUOUS
 62
     2
 10
41.359512644
 20
115.469043462
 30
0.0
 11
41.359512644
 21
114.812793462
 31
0.0
  0
LINE
  8
0
  6
CONTINUOUS
 62
     2
 10
41.359512644
 20
114.812793462
 30
0.0
 11
40.109512644
 21
114.812793462
 31
0.0
  0
LINE
  8
0
  6
CONTINUOUS
 62
     2
 10
40.109512644
 20
114.812793462
 30
0.0
 11
40.109512644
 21
117.437793462
 31
0.0
  0
LINE
  8
0
  6
CONTINUOUS
 62
     2
 10
40.109512644
 20
117.437793462
 30
0.0
 11
41.359512644
 21
117.437793462
 31
0.0
  0
LINE
  8
0
  6
CONTINUOUS
 62
     2
 10
41.359512644
 20
117.437793462
 30
0.0
 11
41.359512644
 21
115.469043462
 31
0.0
  0
LINE
  8
0
  6
CONTINUOUS
 62
     2
 10
41.359512644
 20
116.344043462
 30
0.0
 11
40.859512644
 21
116.344043462
 31
0.0
  0
LINE
  8
0
  6
CONTINUOUS
 62
     2
 10
40.859512644
 20
116.344043462
 30
0.0
 11
40.859512644
 21
118.094043462
 31
0.0
  0
LINE
  8
0
  6
CONTINUOUS
 62
     2
 10
41.359512644
 20
118.094043462
 30
0.0
 11
40.109512644
 21
118.094043462
 31
0.0
  0
LINE
  8
0
  6
CONTINUOUS
 62
     2
 10
40.609512644
 20
118.094043462
 30
0.0
 11
40.609512644
 21
116.781543462
 31
0.0
  0
LINE
  8
0
  6
CONTINUOUS
 62
     2
 10
40.609512644
 20
116.781543462
 30
0.0
 11
40.359512644
 21
116.125293462
 31
0.0
  0
LINE
  8
0
  6
CONTINUOUS
 62
     2
 10
40.359512644
 20
116.125293462
 30
0.0
 11
40.109512644
 21
115.906543462
 31
0.0
  0
LINE
  8
0
  6
CONTINUOUS
 62
     2
 10
41.609512644
 20
117.875293462
 30
0.0
 11
43.109512644
 21
117.875293462
 31
0.0
  0
LINE
  8
0
  6
CONTINUOUS
 62
     2
 10
43.109512644
 20
117.875293462
 30
0.0
 11
43.109512644
 21
116.562793462
 31
0.0
  0
LINE
  8
0
  6
CONTINUOUS
 62
     2
 10
43.109512644
 20
116.562793462
 30
0.0
 11
41.609512644
 21
116.562793462
 31
0.0
  0
LINE
  8
0
  6
CONTINUOUS
 62
     2
 10
41.609512644
 20
116.562793462
 30
0.0
 11
41.609512644
 21
115.031543462
 31
0.0
  0
LINE
  8
0
  6
CONTINUOUS
 62
     2
 10
41.609512644
 20
115.031543462
 30
0.0
 11
41.859512644
 21
114.812793462
 31
0.0
  0
LINE
  8
0
  6
CONTINUOUS
 62
     2
 10
41.859512644
 20
114.812793462
 30
0.0
 11
43.359512644
 21
114.812793462
 31
0.0
  0
LINE
  8
0
  6
CONTINUOUS
 62
     2
 10
43.359512644
 20
114.812793462
 30
0.0
 11
43.359512644
 21
115.250293462
 31
0.0
  0
LINE
  8
0
  6
CONTINUOUS
 62
     2
 10
43.959512638
 20
114.812793462
 30
0.0
 11
44.459512638
 21
115.031543462
 31
0.0
  0
LINE
  8
0
  6
CONTINUOUS
 62
     2
 10
44.459512638
 20
115.031543462
 30
0.0
 11
44.709512638
 21
115.250293462
 31
0.0
  0
LINE
  8
0
  6
CONTINUOUS
 62
     2
 10
44.709512638
 20
115.250293462
 30
0.0
 11
45.209512638
 21
116.125293462
 31
0.0
  0
LINE
  8
0
  6
CONTINUOUS
 62
     2
 10
45.209512638
 20
116.125293462
 30
0.0
 11
45.459512638
 21
117.219043462
 31
0.0
  0
LINE
  8
0
  6
CONTINUOUS
 62
     2
 10
45.459512638
 20
117.219043462
 30
0.0
 11
44.459512638
 21
117.219043462
 31
0.0
  0
LINE
  8
0
  6
CONTINUOUS
 62
     2
 10
45.209512638
 20
116.125293462
 30
0.0
 11
44.209512638
 21
116.344043462
 31
0.0
  0
LINE
  8
0
  6
CONTINUOUS
 62
     2
 10
43.959512638
 20
116.125293462
 30
0.0
 11
44.209512638
 21
116.344043462
 31
0.0
  0
LINE
  8
0
  6
CONTINUOUS
 62
     2
 10
44.209512638
 20
116.344043462
 30
0.0
 11
44.459512638
 21
117.219043462
 31
0.0
  0
LINE
  8
0
  6
CONTINUOUS
 62
     2
 10
44.459512638
 20
117.219043462
 30
0.0
 11
44.709512638
 21
118.094043462
 31
0.0
  0
LINE
  8
0
  6
CONTINUOUS
 62
     2
 10
43.959512638
 20
118.094043462
 30
0.0
 11
45.709512638
 21
118.094043462
 31
0.0
  0
LINE
  8
0
  6
CONTINUOUS
 62
     2
 10
46.209512638
 20
117.875293462
 30
0.0
 11
46.209512638
 21
115.469043462
 31
0.0
  0
LINE
  8
0
  6
CONTINUOUS
 62
     2
 10
46.959512638
 20
114.812793462
 30
0.0
 11
47.209512638
 21
114.812793462
 31
0.0
  0
LINE
  8
0
  6
CONTINUOUS
 62
     2
 10
47.209512638
 20
114.812793462
 30
0.0
 11
47.209512638
 21
118.094043462
 31
0.0
  0
LINE
  8
0
  6
CONTINUOUS
 62
     2
 10
51.758130424
 20
117.359454839
 30
0.0
 11
51.936701853
 21
117.359454839
 31
0.0
  0
LINE
  8
0
  6
CONTINUOUS
 62
     2
 10
51.936701853
 20
117.359454839
 30
0.0
 11
51.936701853
 21
116.046954839
 31
0.0
  0
LINE
  8
0
  6
CONTINUOUS
 62
     2
 10
51.936701853
 20
116.046954839
 30
0.0
 11
52.115273282
 21
115.609454839
 31
0.0
  0
LINE
  8
0
  6
CONTINUOUS
 62
     2
 10
52.115273282
 20
115.609454839
 30
0.0
 11
52.829558996
 21
115.609454839
 31
0.0
  0
LINE
  8
0
  6
CONTINUOUS
 62
     2
 10
52.829558996
 20
115.609454839
 30
0.0
 11
53.008130424
 21
115.828204839
 31
0.0
  0
LINE
  8
0
  6
CONTINUOUS
 62
     2
 10
53.008130424
 20
115.828204839
 30
0.0
 11
53.008130424
 21
117.359454839
 31
0.0
  0
LINE
  8
0
  6
CONTINUOUS
 62
     2
 10
53.008130424
 20
115.828204839
 30
0.0
 11
53.186701853
 21
115.609454839
 31
0.0
  0
LINE
  8
0
  6
CONTINUOUS
 62
     2
 10
53.186701853
 20
115.609454839
 30
0.0
 11
53.365273282
 21
115.609454839
 31
0.0
  0
LINE
  8
0
  6
CONTINUOUS
 62
     2
 10
53.365273282
 20
115.609454839
 30
0.0
 11
53.54384471
 21
115.828204839
 31
0.0
  0
LINE
  8
0
  6
CONTINUOUS
 62
     2
 10
64.11604821
 20
117.487704961
 30
0.0
 11
64.294619639
 21
117.487704961
 31
0.0
  0
LINE
  8
0
  6
CONTINUOUS
 62
     2
 10
64.294619639
 20
117.487704961
 30
0.0
 11
64.294619639
 21
116.393954961
 31
0.0
  0
LINE
  8
0
  6
CONTINUOUS
 62
     2
 10
64.294619639
 20
116.393954961
 30
0.0
 11
64.473191067
 21
115.956454961
 31
0.0
  0
LINE
  8
0
  6
CONTINUOUS
 62
     2
 10
64.473191067
 20
115.956454961
 30
0.0
 11
64.651762496
 21
115.737704961
 31
0.0
  0
LINE
  8
0
  6
CONTINUOUS
 62
     2
 10
64.651762496
 20
115.737704961
 30
0.0
 11
65.008905353
 21
115.737704961
 31
0.0
  0
LINE
  8
0
  6
CONTINUOUS
 62
     2
 10
65.008905353
 20
115.737704961
 30
0.0
 11
65.187476782
 21
115.956454961
 31
0.0
  0
LINE
  8
0
  6
CONTINUOUS
 62
     2
 10
65.187476782
 20
115.956454961
 30
0.0
 11
65.36604821
 21
116.393954961
 31
0.0
  0
LINE
  8
0
  6
CONTINUOUS
 62
     2
 10
65.36604821
 20
116.393954961
 30
0.0
 11
65.36604821
 21
117.487704961
 31
0.0
  0
LINE
  8
0
  6
CONTINUOUS
 62
     2
 10
65.36604821
 20
117.487704961
 30
0.0
 11
65.723191067
 21
117.487704961
 31
0.0
  0
LINE
  8
0
  6
CONTINUOUS
 62
     2
 10
68.966087341
 20
30.193611145
 30
0.0
 11
69.990380694
 21
28.475815136
 31
0.0
  0
LINE
  8
0
  6
CONTINUOUS
 62
     2
 10
68.966087341
 20
30.193611145
 30
0.0
 11
76.365229044
 21
23.0
 31
0.0
  0
LINE
  8
0
  6
CONTINUOUS
 62
     2
 10
76.365229044
 20
23.0
 30
0.0
 11
96.253153238
 21
23.0
 31
0.0
  0
LINE
  8
0
  6
CONTINUOUS
 62
     2
 10
108.0
 20
25.0
 30
0.0
 11
142.0
 21
25.0
 31
0.0
  0
LINE
  8
0
  6
CONTINUOUS
 62
     2
 10
108.0
 20
25.0
 30
0.0
 11
109.931851653
 21
25.51763809
 31
0.0
  0
LINE
  8
0
  6
CONTINUOUS
 62
     2
 10
108.0
 20
25.0
 30
0.0
 11
109.931851653
 21
24.48236191
 31
0.0
  0
LINE
  8
0
  6
CONTINUOUS
 62
     2
 10
142.0
 20
25.0
 30
0.0
 11
140.068148347
 21
25.51763809
 31
0.0
  0
LINE
  8
0
  6
CONTINUOUS
 62
     2
 10
142.0
 20
25.0
 30
0.0
 11
140.068148347
 21
24.48236191
 31
0.0
  0
LINE
  8
0
  6
CONTINUOUS
 62
     2
 10
32.0
 20
25.0
 30
0.0
 11
68.0
 21
25.0
 31
0.0
  0
LINE
  8
0
  6
CONTINUOUS
 62
     2
 10
32.0
 20
25.0
 30
0.0
 11
33.931851653
 21
25.51763809
 31
0.0
  0
LINE
  8
0
  6
CONTINUOUS
 62
     2
 10
32.0
 20
25.0
 30
0.0
 11
33.931851653
 21
24.48236191
 31
0.0
  0
LINE
  8
0
  6
CONTINUOUS
 62
     2
 10
68.0
 20
25.0
 30
0.0
 11
66.068148347
 21
25.51763809
 31
0.0
  0
LINE
  8
0
  6
CONTINUOUS
 62
     2
 10
68.0
 20
25.0
 30
0.0
 11
66.068148347
 21
24.48236191
 31
0.0
  0
LINE
  8
0
  6
CONTINUOUS
 62
     2
 10
32.0
 20
29.000007629
 30
0.0
 11
32.0
 21
23.0
 31
0.0
  0
LINE
  8
0
  6
CONTINUOUS
 62
     2
 10
68.0
 20
29.000007629
 30
0.0
 11
68.0
 21
23.0
 31
0.0
  0
LINE
  8
0
  6
CONTINUOUS
 62
     2
 10
108.0
 20
29.000007629
 30
0.0
 11
108.0
 21
23.0
 31
0.0
  0
LINE
  8
0
  6
CONTINUOUS
 62
     2
 10
142.0
 20
29.000007629
 30
0.0
 11
142.0
 21
23.0
 31
0.0
  0
LINE
  8
0
  6
LTYPE3
 62
     2
 10
25.0
 20
80.0
 30
0.0
 11
25.0
 21
74.0
 31
0.0
  0
LINE
  8
0
  6
LTYPE3
 62
     2
 10
22.0
 20
77.0
 30
0.0
 11
28.0
 21
77.0
 31
0.0
  0
LINE
  8
0
  6
LTYPE3
 62
     2
 10
75.0
 20
80.0
 30
0.0
 11
75.0
 21
74.0
 31
0.0
  0
LINE
  8
0
  6
LTYPE3
 62
     2
 10
78.0
 20
77.0
 30
0.0
 11
72.0
 21
77.0
 31
0.0
  0
LINE
  8
0
  6
LTYPE3
 62
     2
 10
75.0
 20
40.0
 30
0.0
 11
75.0
 21
34.0
 31
0.0
  0
LINE
  8
0
  6
LTYPE3
 62
     2
 10
78.0
 20
37.0
 30
0.0
 11
72.0
 21
37.0
 31
0.0
  0
LINE
  8
0
  6
LTYPE3
 62
     2
 10
25.0
 20
40.0
 30
0.0
 11
25.0
 21
34.0
 31
0.0
  0
LINE
  8
0
  6
LTYPE3
 62
     2
 10
22.0
 20
37.0
 30
0.0
 11
28.0
 21
37.0
 31
0.0
  0
LINE
  8
0
  6
CONTINUOUS
 62
     2
 10
155.0
 20
145.0
 30
0.0
 11
155.0
 21
75.0
 31
0.0
  0
LINE
  8
0
  6
LTYPE2
 62
     2
 10
125.0
 20
105.0
 30
0.0
 11
125.0
 21
30.000007629
 31
0.0
  0
LINE
  8
0
  6
LTYPE2
 62
     2
 10
50.0
 20
105.0
 30
0.0
 11
50.0
 21
29.000007629
 31
0.0
  0
TEXT
  8
0
  6
CONTINUOUS
 62
     3
 10
233.0
 20
33.0
 30
0.2
 40
5.8
  1
ＭＳ－９１５５Ｂ
 50
0.0
 41
0.827586207
 51
0.0
  7
KANJI9
  0
TEXT
  8
0
  6
CONTINUOUS
 62
     1
 10
233.0
 20
55.0
 30
0.0
 40
4.0
  1
ＰＤ－１（Ｂ，Ｃ，Ｄ，Ｅ）Ｚｂ
 50
0.0
 41
0.9
 51
0.0
  7
KANJI10
  0
TEXT
  8
0
  6
CONTINUOUS
 62
     1
 10
233.0
 20
48.5
 30
0.4
 40
4.0
  1
ヒューズ付
 50
0.0
 41
0.9
 51
0.0
  7
KANJI11
  0
TEXT
  8
0
  6
CONTINUOUS
 62
     1
 10
233.0
 20
44.0
 30
0.4
 40
4.0
  1
計器用変圧器　外形図
 50
0.0
 41
0.9
 51
0.0
  7
KANJI11
  0
ENDSEC
  0
EOF
