  0
SECTION
  2
HEADER
  9
$ACADVER
  1
AC1009
  9
$DWGCODEPAGE
  3
dos932
  9
$EXTMIN
 10
0.0
 20
0.0
 30
0.0
  9
$EXTMAX
 10
297.0
 20
210.0
 30
0.0
  9
$LIMMIN
 10
0.0
 20
0.0
  9
$LIMMAX
 10
297.0
 20
210.0
  9
$LTSCALE
 40
1.0
  9
$PDMODE
 70
     0
  0
ENDSEC
  0
SECTION
  2
TABLES
  0
TABLE
  2
VPORT
 70
     1
  0
VPORT
  2
*ACTIVE
 70
     0
 10
0.0
 20
0.0
 11
1.0
 21
1.0
 12
148.5
 22
105.0
 13
0.0
 23
0.0
 14
10.0
 24
10.0
 15
10.0
 25
10.0
 16
0.0
 26
0.0
 36
1.0
 17
0.0
 27
0.0
 37
0.0
 40
297.0
 41
1.414285714
 42
50.0
 43
0.0
 44
0.0
 50
0.0
 51
0.0
 71
     0
 72
  1000
 73
     1
 74
     3
 75
     0
 76
     0
 77
     0
 78
     0
  0
ENDTAB
  0
TABLE
  2
LTYPE
 70
     3
  0
LTYPE
  2
CONTINUOUS
 70
    64
  3
Solid line
 72
    65
 73
     0
 40
0.0
  0
LTYPE
  2
LTYPE1
 70
    64
  3
CENTER
 72
    65
 73
     4
 40
5.0
 49
3.5
 49
-0.5
 49
0.5
 49
-0.5
  0
LTYPE
  2
LTYPE2
 70
    64
  3
HIDDEN
 72
    65
 73
     2
 40
2.0
 49
1.2
 49
-0.8
  0
ENDTAB
  0
TABLE
  2
LAYER
 70
   128
  0
LAYER
  2
0
 70
     0
 62
     7
  6
CONTINUOUS
  0
LAYER
  2
2
 70
     0
 62
     7
  6
CONTINUOUS
  0
LAYER
  2
3
 70
     0
 62
     7
  6
CONTINUOUS
  0
LAYER
  2
4
 70
     0
 62
     7
  6
CONTINUOUS
  0
LAYER
  2
5
 70
     0
 62
     7
  6
CONTINUOUS
  0
LAYER
  2
6
 70
     0
 62
     7
  6
CONTINUOUS
  0
LAYER
  2
7
 70
     0
 62
     7
  6
CONTINUOUS
  0
LAYER
  2
8
 70
     0
 62
     7
  6
CONTINUOUS
  0
LAYER
  2
9
 70
     0
 62
     7
  6
CONTINUOUS
  0
LAYER
  2
10
 70
     0
 62
     7
  6
CONTINUOUS
  0
LAYER
  2
11
 70
     0
 62
     7
  6
CONTINUOUS
  0
LAYER
  2
12
 70
     0
 62
     7
  6
CONTINUOUS
  0
LAYER
  2
13
 70
     0
 62
     7
  6
CONTINUOUS
  0
LAYER
  2
14
 70
     0
 62
     7
  6
CONTINUOUS
  0
LAYER
  2
15
 70
     0
 62
     7
  6
CONTINUOUS
  0
LAYER
  2
16
 70
     0
 62
     7
  6
CONTINUOUS
  0
LAYER
  2
17
 70
     0
 62
     7
  6
CONTINUOUS
  0
LAYER
  2
18
 70
     0
 62
     7
  6
CONTINUOUS
  0
LAYER
  2
19
 70
     0
 62
     7
  6
CONTINUOUS
  0
LAYER
  2
20
 70
     0
 62
     7
  6
CONTINUOUS
  0
LAYER
  2
21
 70
     0
 62
     7
  6
CONTINUOUS
  0
LAYER
  2
22
 70
     0
 62
     7
  6
CONTINUOUS
  0
LAYER
  2
23
 70
     0
 62
     7
  6
CONTINUOUS
  0
LAYER
  2
24
 70
     0
 62
     7
  6
CONTINUOUS
  0
LAYER
  2
25
 70
     0
 62
     7
  6
CONTINUOUS
  0
LAYER
  2
26
 70
     0
 62
     7
  6
CONTINUOUS
  0
LAYER
  2
27
 70
     0
 62
     7
  6
CONTINUOUS
  0
LAYER
  2
28
 70
     0
 62
     7
  6
CONTINUOUS
  0
LAYER
  2
29
 70
     0
 62
     7
  6
CONTINUOUS
  0
LAYER
  2
30
 70
     0
 62
     7
  6
CONTINUOUS
  0
LAYER
  2
31
 70
     0
 62
     7
  6
CONTINUOUS
  0
LAYER
  2
32
 70
     0
 62
     7
  6
CONTINUOUS
  0
LAYER
  2
33
 70
     0
 62
     7
  6
CONTINUOUS
  0
LAYER
  2
34
 70
     0
 62
     7
  6
CONTINUOUS
  0
LAYER
  2
35
 70
     0
 62
     7
  6
CONTINUOUS
  0
LAYER
  2
36
 70
     0
 62
     7
  6
CONTINUOUS
  0
LAYER
  2
37
 70
     0
 62
     7
  6
CONTINUOUS
  0
LAYER
  2
38
 70
     0
 62
     7
  6
CONTINUOUS
  0
LAYER
  2
39
 70
     0
 62
     7
  6
CONTINUOUS
  0
LAYER
  2
40
 70
     0
 62
     7
  6
CONTINUOUS
  0
LAYER
  2
41
 70
     0
 62
     7
  6
CONTINUOUS
  0
LAYER
  2
42
 70
     0
 62
     7
  6
CONTINUOUS
  0
LAYER
  2
43
 70
     0
 62
     7
  6
CONTINUOUS
  0
LAYER
  2
44
 70
     0
 62
     7
  6
CONTINUOUS
  0
LAYER
  2
45
 70
     0
 62
     7
  6
CONTINUOUS
  0
LAYER
  2
46
 70
     0
 62
     7
  6
CONTINUOUS
  0
LAYER
  2
47
 70
     0
 62
     7
  6
CONTINUOUS
  0
LAYER
  2
48
 70
     0
 62
     7
  6
CONTINUOUS
  0
LAYER
  2
49
 70
     0
 62
     7
  6
CONTINUOUS
  0
LAYER
  2
50
 70
     0
 62
     7
  6
CONTINUOUS
  0
LAYER
  2
51
 70
     0
 62
     7
  6
CONTINUOUS
  0
LAYER
  2
52
 70
     0
 62
     7
  6
CONTINUOUS
  0
LAYER
  2
53
 70
     0
 62
     7
  6
CONTINUOUS
  0
LAYER
  2
54
 70
     0
 62
     7
  6
CONTINUOUS
  0
LAYER
  2
55
 70
     0
 62
     7
  6
CONTINUOUS
  0
LAYER
  2
56
 70
     0
 62
     7
  6
CONTINUOUS
  0
LAYER
  2
57
 70
     0
 62
     7
  6
CONTINUOUS
  0
LAYER
  2
58
 70
     0
 62
     7
  6
CONTINUOUS
  0
LAYER
  2
59
 70
     0
 62
     7
  6
CONTINUOUS
  0
LAYER
  2
60
 70
     0
 62
     7
  6
CONTINUOUS
  0
LAYER
  2
61
 70
     0
 62
     7
  6
CONTINUOUS
  0
LAYER
  2
62
 70
     0
 62
     7
  6
CONTINUOUS
  0
LAYER
  2
63
 70
     0
 62
     7
  6
CONTINUOUS
  0
LAYER
  2
64
 70
     0
 62
     7
  6
CONTINUOUS
  0
LAYER
  2
65
 70
     0
 62
     7
  6
CONTINUOUS
  0
LAYER
  2
66
 70
     0
 62
     7
  6
CONTINUOUS
  0
LAYER
  2
67
 70
     0
 62
     7
  6
CONTINUOUS
  0
LAYER
  2
68
 70
     0
 62
     7
  6
CONTINUOUS
  0
LAYER
  2
69
 70
     0
 62
     7
  6
CONTINUOUS
  0
LAYER
  2
70
 70
     0
 62
     7
  6
CONTINUOUS
  0
LAYER
  2
71
 70
     0
 62
     7
  6
CONTINUOUS
  0
LAYER
  2
72
 70
     0
 62
     7
  6
CONTINUOUS
  0
LAYER
  2
73
 70
     0
 62
     7
  6
CONTINUOUS
  0
LAYER
  2
74
 70
     0
 62
     7
  6
CONTINUOUS
  0
LAYER
  2
75
 70
     0
 62
     7
  6
CONTINUOUS
  0
LAYER
  2
76
 70
     0
 62
     7
  6
CONTINUOUS
  0
LAYER
  2
77
 70
     0
 62
     7
  6
CONTINUOUS
  0
LAYER
  2
78
 70
     0
 62
     7
  6
CONTINUOUS
  0
LAYER
  2
79
 70
     0
 62
     7
  6
CONTINUOUS
  0
LAYER
  2
80
 70
     0
 62
     7
  6
CONTINUOUS
  0
LAYER
  2
81
 70
     0
 62
     7
  6
CONTINUOUS
  0
LAYER
  2
82
 70
     0
 62
     7
  6
CONTINUOUS
  0
LAYER
  2
83
 70
     0
 62
     7
  6
CONTINUOUS
  0
LAYER
  2
84
 70
     0
 62
     7
  6
CONTINUOUS
  0
LAYER
  2
85
 70
     0
 62
     7
  6
CONTINUOUS
  0
LAYER
  2
86
 70
     0
 62
     7
  6
CONTINUOUS
  0
LAYER
  2
87
 70
     0
 62
     7
  6
CONTINUOUS
  0
LAYER
  2
88
 70
     0
 62
     7
  6
CONTINUOUS
  0
LAYER
  2
89
 70
     0
 62
     7
  6
CONTINUOUS
  0
LAYER
  2
90
 70
     0
 62
     7
  6
CONTINUOUS
  0
LAYER
  2
91
 70
     0
 62
     7
  6
CONTINUOUS
  0
LAYER
  2
92
 70
     0
 62
     7
  6
CONTINUOUS
  0
LAYER
  2
93
 70
     0
 62
     7
  6
CONTINUOUS
  0
LAYER
  2
94
 70
     0
 62
     7
  6
CONTINUOUS
  0
LAYER
  2
95
 70
     0
 62
     7
  6
CONTINUOUS
  0
LAYER
  2
96
 70
     0
 62
     7
  6
CONTINUOUS
  0
LAYER
  2
97
 70
     0
 62
     7
  6
CONTINUOUS
  0
LAYER
  2
98
 70
     0
 62
     7
  6
CONTINUOUS
  0
LAYER
  2
99
 70
     0
 62
     7
  6
CONTINUOUS
  0
LAYER
  2
100
 70
     0
 62
     7
  6
CONTINUOUS
  0
LAYER
  2
101
 70
     0
 62
     7
  6
CONTINUOUS
  0
LAYER
  2
102
 70
     0
 62
     7
  6
CONTINUOUS
  0
LAYER
  2
103
 70
     0
 62
     7
  6
CONTINUOUS
  0
LAYER
  2
104
 70
     0
 62
     7
  6
CONTINUOUS
  0
LAYER
  2
105
 70
     0
 62
     7
  6
CONTINUOUS
  0
LAYER
  2
106
 70
     0
 62
     7
  6
CONTINUOUS
  0
LAYER
  2
107
 70
     0
 62
     7
  6
CONTINUOUS
  0
LAYER
  2
108
 70
     0
 62
     7
  6
CONTINUOUS
  0
LAYER
  2
109
 70
     0
 62
     7
  6
CONTINUOUS
  0
LAYER
  2
110
 70
     0
 62
     7
  6
CONTINUOUS
  0
LAYER
  2
111
 70
     0
 62
     7
  6
CONTINUOUS
  0
LAYER
  2
112
 70
     0
 62
     7
  6
CONTINUOUS
  0
LAYER
  2
113
 70
     0
 62
     7
  6
CONTINUOUS
  0
LAYER
  2
114
 70
     0
 62
     7
  6
CONTINUOUS
  0
LAYER
  2
115
 70
     0
 62
     7
  6
CONTINUOUS
  0
LAYER
  2
116
 70
     0
 62
     7
  6
CONTINUOUS
  0
LAYER
  2
117
 70
     0
 62
     7
  6
CONTINUOUS
  0
LAYER
  2
118
 70
     0
 62
     7
  6
CONTINUOUS
  0
LAYER
  2
119
 70
     0
 62
     7
  6
CONTINUOUS
  0
LAYER
  2
120
 70
     0
 62
     7
  6
CONTINUOUS
  0
LAYER
  2
121
 70
     0
 62
     7
  6
CONTINUOUS
  0
LAYER
  2
122
 70
     0
 62
     7
  6
CONTINUOUS
  0
LAYER
  2
123
 70
     0
 62
     7
  6
CONTINUOUS
  0
LAYER
  2
124
 70
     0
 62
     7
  6
CONTINUOUS
  0
LAYER
  2
125
 70
     0
 62
     7
  6
CONTINUOUS
  0
LAYER
  2
126
 70
     0
 62
     7
  6
CONTINUOUS
  0
LAYER
  2
127
 70
     0
 62
     7
  6
CONTINUOUS
  0
LAYER
  2
128
 70
     0
 62
     7
  6
CONTINUOUS
  0
ENDTAB
  0
TABLE
  2
STYLE
 70
    17
  0
STYLE
  2
STANDARD
 70
     0
 40
0.0
 41
1.0
 50
0.0
 71
     0
 42
0.2
  3
txt.shx
  4
extfont.shx
  0
STYLE
  2
KANJI0
 70
     0
 40
3.0
 41
0.9
 50
0.0
 71
     0
 42
3.0
  3
txt.shx
  4
extfont.shx
  0
STYLE
  2
KANJI1
 70
     0
 40
3.0
 41
1.0
 50
0.0
 71
     0
 42
3.0
  3
txt.shx
  4
extfont.shx
  0
STYLE
  2
KANJI2
 70
     0
 40
3.0
 41
0.9
 50
0.0
 71
     0
 42
3.0
  3
txt.shx
  4
extfont.shx
  0
STYLE
  2
KANJI3
 70
     0
 40
3.0
 41
0.6
 50
0.0
 71
     0
 42
3.0
  3
txt.shx
  4
extfont.shx
  0
STYLE
  2
KANJI4
 70
     0
 40
3.0
 41
1.0
 50
0.0
 71
     0
 42
3.0
  3
txt.shx
  4
extfont.shx
  0
STYLE
  2
KANJI5
 70
     0
 40
3.0
 41
1.0
 50
0.0
 71
     0
 42
3.0
  3
txt.shx
  4
extfont.shx
  0
STYLE
  2
KANJI6
 70
     0
 40
3.0
 41
0.7
 50
0.0
 71
     0
 42
3.0
  3
txt.shx
  4
extfont.shx
  0
STYLE
  2
KANJI7
 70
     0
 40
3.0
 41
0.8
 50
0.0
 71
     0
 42
3.0
  3
txt.shx
  4
extfont.shx
  0
STYLE
  2
KANJI8
 70
     0
 40
3.0
 41
0.9
 50
0.0
 71
     0
 42
3.0
  3
txt.shx
  4
extfont.shx
  0
STYLE
  2
KANJI9
 70
     0
 40
3.0
 41
0.433333333
 50
0.0
 71
     0
 42
3.0
  3
txt.shx
  4
extfont.shx
  0
STYLE
  2
KANJI10
 70
     0
 40
2.5
 41
0.88
 50
0.0
 71
     0
 42
2.5
  3
txt.shx
  4
extfont.shx
  0
STYLE
  2
KANJI11
 70
     0
 40
2.0
 41
0.9
 50
0.0
 71
     0
 42
2.0
  3
txt.shx
  4
extfont.shx
  0
STYLE
  2
KANJI12
 70
     0
 40
3.0
 41
0.833333333
 50
0.0
 71
     0
 42
3.0
  3
txt.shx
  4
extfont.shx
  0
STYLE
  2
KANJI13
 70
     0
 40
4.0
 41
0.75
 50
0.0
 71
     0
 42
4.0
  3
txt.shx
  4
extfont.shx
  0
STYLE
  2
KANJI14
 70
     0
 40
5.8
 41
0.827586207
 50
0.0
 71
     0
 42
5.8
  3
txt.shx
  4
extfont.shx
  0
STYLE
  2
KANJI15
 70
     0
 40
4.0
 41
0.9
 50
0.0
 71
     0
 42
4.0
  3
txt.shx
  4
extfont.shx
  0
ENDTAB
  0
TABLE
  2
VIEW
 70
     0
  0
ENDTAB
  0
ENDSEC
  0
SECTION
  2
BLOCKS
  0
ENDSEC
  0
SECTION
  2
ENTITIES
  0
LINE
  8
0
  6
CONTINUOUS
 62
     2
 10
28.333
 20
150.0
 30
0.0
 11
28.333
 21
149.934234619
 31
0.0
  0
LINE
  8
0
  6
CONTINUOUS
 62
     2
 10
28.333
 20
183.483001709
 30
0.0
 11
30.264851653
 21
184.000639799
 31
0.0
  0
LINE
  8
0
  6
CONTINUOUS
 62
     2
 10
28.333
 20
183.483001709
 30
0.0
 11
30.264851653
 21
182.965363619
 31
0.0
  0
LINE
  8
0
  6
CONTINUOUS
 62
     2
 10
81.666666667
 20
183.483001709
 30
0.0
 11
79.734815014
 21
184.000639799
 31
0.0
  0
LINE
  8
0
  6
CONTINUOUS
 62
     2
 10
81.666666667
 20
183.483001709
 30
0.0
 11
79.734815014
 21
182.965363619
 31
0.0
  0
LINE
  8
0
  6
CONTINUOUS
 62
     2
 10
28.333
 20
183.483001709
 30
0.0
 11
81.666666667
 21
183.483001709
 31
0.0
  0
LINE
  8
0
  6
CONTINUOUS
 62
     2
 10
28.333
 20
177.666666667
 30
0.0
 11
28.333
 21
185.483001709
 31
0.0
  0
LINE
  8
0
  6
CONTINUOUS
 62
     2
 10
81.667648376
 20
177.666666667
 30
0.0
 11
81.666666667
 21
185.483001709
 31
0.0
  0
LINE
  8
0
  6
CONTINUOUS
 62
     2
 10
81.666666667
 20
150.0
 30
0.0
 11
80.017253405
 21
172.039812676
 31
0.0
  0
ARC
  8
0
  6
CONTINUOUS
 62
     2
 10
75.031196641
 20
171.666666667
 30
0.0
 40
5.0
 50
4.279917431
 51
90.0
  0
LINE
  8
0
  6
CONTINUOUS
 62
     2
 10
81.666666667
 20
150.0
 30
0.0
 11
80.017249424
 21
127.959858629
 31
0.0
  0
ARC
  8
0
  6
CONTINUOUS
 62
     2
 10
75.031192313
 20
128.333
 30
0.0
 40
5.0
 50
270.0
 51
355.720135869
  0
LINE
  8
0
  6
CONTINUOUS
 62
     2
 10
28.333333333
 20
150.0
 30
0.0
 11
29.982746595
 21
172.039812676
 31
0.0
  0
ARC
  8
0
  6
CONTINUOUS
 62
     2
 10
34.968803359
 20
171.666666667
 30
0.0
 40
5.0
 50
90.0
 51
175.720082569
  0
LINE
  8
0
  6
CONTINUOUS
 62
     2
 10
28.333333333
 20
150.0
 30
0.0
 11
29.982750576
 21
127.959858629
 31
0.0
  0
ARC
  8
0
  6
CONTINUOUS
 62
     2
 10
34.968807687
 20
128.333
 30
0.0
 40
5.0
 50
184.279864131
 51
270.0
  0
LINE
  8
0
  6
CONTINUOUS
 62
     2
 10
34.968803359
 20
176.666666667
 30
0.0
 11
75.031196641
 21
176.666666667
 31
0.0
  0
LINE
  8
0
  6
CONTINUOUS
 62
     2
 10
75.031192313
 20
123.333
 30
0.0
 11
34.968807687
 21
123.333
 31
0.0
  0
TEXT
  8
0
  6
CONTINUOUS
 62
     2
 10
50.653
 20
183.816335042
 30
0.3
 40
3.0
  1
１６０
 50
0.0
 41
0.9
 51
0.0
  7
KANJI0
  0
ARC
  8
0
  6
CONTINUOUS
 62
     2
 10
32.333
 20
150.0
 30
0.0
 40
2.0
 50
90.0
 51
270.0
  0
ARC
  8
0
  6
CONTINUOUS
 62
     2
 10
77.675312086
 20
150.0
 30
0.0
 40
2.0
 50
270.0
 51
90.0
  0
LINE
  8
0
  6
CONTINUOUS
 62
     2
 10
32.333
 20
148.0
 30
0.0
 11
77.675312086
 21
148.0
 31
0.0
  0
LINE
  8
0
  6
CONTINUOUS
 62
     2
 10
32.333
 20
152.0
 30
0.0
 11
77.675312086
 21
152.0
 31
0.0
  0
ARC
  8
0
  6
CONTINUOUS
 62
     2
 10
32.333
 20
150.0
 30
0.0
 40
4.0
 50
90.0
 51
270.0
  0
ARC
  8
0
  6
CONTINUOUS
 62
     2
 10
77.675312086
 20
150.0
 30
0.0
 40
4.0
 50
270.0
 51
90.0
  0
LINE
  8
0
  6
CONTINUOUS
 62
     2
 10
32.333
 20
146.0
 30
0.0
 11
77.675312086
 21
146.0
 31
0.0
  0
LINE
  8
0
  6
CONTINUOUS
 62
     2
 10
32.333
 20
154.0
 30
0.0
 11
77.675312086
 21
154.0
 31
0.0
  0
LINE
  8
0
  6
CONTINUOUS
 62
     2
 10
223.0
 20
185.0
 30
0.0
 11
178.0
 21
185.0
 31
0.0
  0
LINE
  8
0
  6
CONTINUOUS
 62
     2
 10
223.0
 20
176.0
 30
0.0
 11
178.0
 21
176.0
 31
0.0
  0
TEXT
  8
0
  6
CONTINUOUS
 62
     2
 10
179.5
 20
178.773
 30
12.0
 40
3.0
  1
形名
 50
0.0
 41
1.0
 51
0.0
  7
KANJI1
  0
TEXT
  8
0
  6
CONTINUOUS
 62
     2
 10
200.0
 20
177.498
 30
0.0
 40
3.0
  1
ＰＭｅ－３Ｃａ
 50
0.0
 41
0.9
 51
0.0
  7
KANJI2
  0
TEXT
  8
0
  6
CONTINUOUS
 62
     2
 10
210.679
 20
180.742
 30
0.0
 40
3.0
  1
６
 50
0.0
 41
0.9
 51
0.0
  7
KANJI2
  0
ARC
  8
0
  6
CONTINUOUS
 62
     2
 10
140.000015259
 20
110.833
 30
0.0
 40
1.5
 50
0.001457107
 51
180.002624512
  0
TEXT
  8
0
  6
CONTINUOUS
 62
     2
 10
137.04861685
 20
117.666333333
 30
0.3
 40
3.0
  1
７０
 50
0.0
 41
0.9
 51
0.0
  7
KANJI0
  0
LINE
  8
0
  6
CONTINUOUS
 62
     2
 10
128.333
 20
117.333
 30
0.0
 11
130.264851653
 21
117.85063809
 31
0.0
  0
LINE
  8
0
  6
CONTINUOUS
 62
     2
 10
128.333
 20
117.333
 30
0.0
 11
130.264851653
 21
116.81536191
 31
0.0
  0
LINE
  8
0
  6
CONTINUOUS
 62
     2
 10
151.666666667
 20
117.333
 30
0.0
 11
149.734815014
 21
117.85063809
 31
0.0
  0
LINE
  8
0
  6
CONTINUOUS
 62
     2
 10
151.666666667
 20
117.333
 30
0.0
 11
149.734815014
 21
116.81536191
 31
0.0
  0
LINE
  8
0
  6
CONTINUOUS
 62
     2
 10
128.333
 20
117.333
 30
0.0
 11
151.667
 21
117.333
 31
0.0
  0
LINE
  8
0
  6
CONTINUOUS
 62
     2
 10
128.333
 20
119.333
 30
0.0
 11
128.333
 21
106.452664958
 31
0.0
  0
LINE
  8
0
  6
CONTINUOUS
 62
     2
 10
151.666666667
 20
106.452664958
 30
0.0
 11
151.666666667
 21
119.333
 31
0.0
  0
POINT
  8
2
  6
CONTINUOUS
 62
     2
 10
73.333333333
 20
30.0
 30
0.0
  0
LINE
  8
0
  6
CONTINUOUS
 62
     2
 10
36.667
 20
30.0
 30
0.0
 11
38.598851653
 21
30.51763809
 31
0.0
  0
LINE
  8
0
  6
CONTINUOUS
 62
     2
 10
36.667
 20
30.0
 30
0.0
 11
38.598851653
 21
29.48236191
 31
0.0
  0
LINE
  8
0
  6
CONTINUOUS
 62
     2
 10
36.667
 20
30.0
 30
0.0
 11
73.333333333
 21
30.0
 31
0.0
  0
LINE
  8
0
  6
CONTINUOUS
 62
     2
 10
73.333
 20
30.0
 30
0.0
 11
71.401148347
 21
30.51763809
 31
0.0
  0
LINE
  8
0
  6
CONTINUOUS
 62
     2
 10
73.333
 20
30.0
 30
0.0
 11
71.401148347
 21
29.48236191
 31
0.0
  0
TEXT
  8
0
  6
CONTINUOUS
 62
     2
 10
50.653
 20
30.333333333
 30
0.3
 40
3.0
  1
１１０
 50
0.0
 41
0.9
 51
0.0
  7
KANJI0
  0
LINE
  8
0
  6
CONTINUOUS
 62
     2
 10
36.667
 20
39.0
 30
0.0
 11
36.667
 21
29.0
 31
0.0
  0
LINE
  8
0
  6
CONTINUOUS
 62
     2
 10
73.333333333
 20
39.0
 30
0.0
 11
73.333333333
 21
29.0
 31
0.0
  0
POINT
  8
2
  6
CONTINUOUS
 62
     2
 10
160.0
 20
30.0
 30
0.0
  0
LINE
  8
0
  6
CONTINUOUS
 62
     2
 10
159.999666667
 20
30.0
 30
0.0
 11
158.067815014
 21
30.51763809
 31
0.0
  0
LINE
  8
0
  6
CONTINUOUS
 62
     2
 10
159.999666667
 20
30.0
 30
0.0
 11
158.067815014
 21
29.48236191
 31
0.0
  0
LINE
  8
0
  6
CONTINUOUS
 62
     2
 10
160.0
 20
39.0
 30
0.0
 11
160.0
 21
29.0
 31
0.0
  0
LINE
  8
0
  6
CONTINUOUS
 62
     2
 10
120.0
 20
30.0
 30
0.0
 11
121.931851653
 21
30.51763809
 31
0.0
  0
LINE
  8
0
  6
CONTINUOUS
 62
     2
 10
120.0
 20
30.0
 30
0.0
 11
121.931851653
 21
29.48236191
 31
0.0
  0
LINE
  8
0
  6
CONTINUOUS
 62
     2
 10
120.0
 20
39.0
 30
0.0
 11
120.0
 21
29.0
 31
0.0
  0
LINE
  8
0
  6
CONTINUOUS
 62
     2
 10
120.0
 20
30.0
 30
0.0
 11
160.0
 21
30.0
 31
0.0
  0
TEXT
  8
0
  6
CONTINUOUS
 62
     2
 10
135.653
 20
30.333333333
 30
0.3
 40
3.0
  1
１２０
 50
0.0
 41
0.9
 51
0.0
  7
KANJI0
  0
TEXT
  8
0
  6
CONTINUOUS
 62
     2
 10
50.653
 20
25.333333333
 30
0.3
 40
3.0
  1
１３０
 50
0.0
 41
0.9
 51
0.0
  7
KANJI0
  0
LINE
  8
0
  6
CONTINUOUS
 62
     2
 10
33.332999992
 20
25.0
 30
0.0
 11
35.264851644
 21
25.51763809
 31
0.0
  0
LINE
  8
0
  6
CONTINUOUS
 62
     2
 10
33.332999992
 20
25.0
 30
0.0
 11
35.264851644
 21
24.48236191
 31
0.0
  0
LINE
  8
0
  6
CONTINUOUS
 62
     2
 10
33.332999992
 20
39.0
 30
0.0
 11
33.332999992
 21
24.0
 31
0.0
  0
POINT
  8
2
  6
CONTINUOUS
 62
     2
 10
76.666666658
 20
25.0
 30
0.0
  0
LINE
  8
0
  6
CONTINUOUS
 62
     2
 10
76.666999992
 20
25.0
 30
0.0
 11
74.735148339
 21
25.51763809
 31
0.0
  0
LINE
  8
0
  6
CONTINUOUS
 62
     2
 10
76.666999992
 20
25.0
 30
0.0
 11
74.735148339
 21
24.48236191
 31
0.0
  0
LINE
  8
0
  6
CONTINUOUS
 62
     2
 10
76.666666658
 20
39.0
 30
0.0
 11
76.666666658
 21
24.0
 31
0.0
  0
LINE
  8
0
  6
CONTINUOUS
 62
     2
 10
33.332999992
 20
25.0
 30
0.0
 11
76.666666658
 21
25.0
 31
0.0
  0
LINE
  8
0
  6
CONTINUOUS
 62
     2
 10
73.333333325
 20
40.0
 30
0.0
 11
75.748147891
 21
39.352952387
 31
0.0
  0
LINE
  8
0
  6
CONTINUOUS
 62
     2
 10
73.333333325
 20
40.0
 30
0.0
 11
75.101100278
 21
38.232233047
 31
0.0
  0
LINE
  8
0
  6
CONTINUOUS
 62
     2
 10
33.332999992
 20
40.0
 30
0.0
 11
44.046990304
 21
40.0
 31
0.0
  0
ARC
  8
0
  6
CONTINUOUS
 62
     2
 10
44.046990304
 20
41.0
 30
0.0
 40
1.0
 50
270.0
 51
351.869897646
  0
LINE
  8
0
  6
CONTINUOUS
 62
     2
 10
65.953009696
 20
40.0
 30
0.0
 11
76.666666658
 21
40.0
 31
0.0
  0
ARC
  8
0
  6
CONTINUOUS
 62
     2
 10
65.953009696
 20
41.0
 30
0.0
 40
1.0
 50
188.130102354
 51
270.0
  0
ARC
  8
0
  6
CONTINUOUS
 62
     2
 10
65.953009696
 20
41.0
 30
0.0
 40
0.4
 50
188.130102354
 51
270.0
  0
ARC
  8
0
  6
CONTINUOUS
 62
     2
 10
44.046990304
 20
41.0
 30
0.0
 40
0.4
 50
270.0
 51
351.869897646
  0
ARC
  8
0
  6
CONTINUOUS
 62
     2
 10
33.934047052
 20
108.333005609
 30
0.0
 40
4.0
 50
89.999984744
 51
173.990996711
  0
LINE
  8
0
  6
CONTINUOUS
 62
     2
 10
76.072821325
 20
112.332994389
 30
0.0
 11
33.934048117
 21
112.333005609
 31
0.0
  0
ARC
  8
0
  6
CONTINUOUS
 62
     2
 10
76.07282026
 20
108.332994389
 30
0.0
 40
4.0
 50
5.986149284
 51
89.999984744
  0
LINE
  8
0
  6
CONTINUOUS
 62
     2
 10
66.0
 20
164.066666667
 30
0.0
 11
66.0
 21
159.266666667
 31
0.0
  0
LINE
  8
0
  6
CONTINUOUS
 62
     2
 10
69.0
 20
164.066666667
 30
0.0
 11
69.0
 21
159.266666667
 31
0.0
  0
LINE
  8
0
  6
CONTINUOUS
 62
     2
 10
37.5
 20
164.066666667
 30
0.0
 11
37.5
 21
159.266666667
 31
0.0
  0
LINE
  8
0
  6
CONTINUOUS
 62
     2
 10
40.5
 20
164.066666667
 30
0.0
 11
40.5
 21
159.266666667
 31
0.0
  0
ARC
  8
0
  6
CONTINUOUS
 62
     2
 10
38.4
 20
161.666666667
 30
0.0
 40
2.0
 50
116.74368395
 51
243.25631605
  0
ARC
  8
0
  6
CONTINUOUS
 62
     2
 10
38.4
 20
161.666666667
 30
0.0
 40
2.4
 50
112.024312837
 51
247.975687163
  0
LINE
  8
0
  6
LTYPE1
 62
     2
 10
39.0
 20
165.666666667
 30
0.0
 11
39.0
 21
157.666666667
 31
0.0
  0
ARC
  8
0
  6
CONTINUOUS
 62
     2
 10
72.1
 20
161.666666667
 30
0.0
 40
2.4
 50
270.000022767
 51
89.999960566
  0
ARC
  8
0
  6
CONTINUOUS
 62
     2
 10
72.1
 20
161.666666667
 30
0.0
 40
2.0
 50
270.000022767
 51
89.999960566
  0
LINE
  8
0
  6
CONTINUOUS
 62
     2
 10
37.5
 20
164.066666667
 30
0.0
 11
72.100001652
 21
164.066666667
 31
0.0
  0
LINE
  8
0
  6
CONTINUOUS
 62
     2
 10
37.5
 20
159.266666667
 30
0.0
 11
72.100000954
 21
159.266666667
 31
0.0
  0
LINE
  8
0
  6
CONTINUOUS
 62
     2
 10
72.100001377
 20
163.666666667
 30
0.0
 11
69.0
 21
163.666666667
 31
0.0
  0
LINE
  8
0
  6
CONTINUOUS
 62
     2
 10
72.100000795
 20
159.666666667
 30
0.0
 11
69.0
 21
159.666666667
 31
0.0
  0
CIRCLE
  8
0
  6
CONTINUOUS
 62
     2
 10
71.5
 20
161.666666667
 30
0.0
 40
1.5
  0
LINE
  8
0
  6
CONTINUOUS
 62
     2
 10
66.0
 20
135.933333333
 30
0.0
 11
66.0
 21
140.733333333
 31
0.0
  0
LINE
  8
0
  6
CONTINUOUS
 62
     2
 10
69.0
 20
135.933333333
 30
0.0
 11
69.0
 21
140.733333333
 31
0.0
  0
LINE
  8
0
  6
CONTINUOUS
 62
     2
 10
37.5
 20
135.933333333
 30
0.0
 11
37.5
 21
140.733333333
 31
0.0
  0
LINE
  8
0
  6
CONTINUOUS
 62
     2
 10
40.5
 20
135.933333333
 30
0.0
 11
40.5
 21
140.733333333
 31
0.0
  0
ARC
  8
0
  6
CONTINUOUS
 62
     2
 10
38.4
 20
138.333333333
 30
0.0
 40
2.0
 50
116.74368395
 51
243.25631605
  0
ARC
  8
0
  6
CONTINUOUS
 62
     2
 10
38.4
 20
138.333333333
 30
0.0
 40
2.4
 50
112.024312837
 51
247.975687163
  0
ARC
  8
0
  6
CONTINUOUS
 62
     2
 10
72.1
 20
138.333333333
 30
0.0
 40
2.4
 50
270.000039434
 51
89.999977233
  0
ARC
  8
0
  6
CONTINUOUS
 62
     2
 10
72.1
 20
138.333333333
 30
0.0
 40
2.0
 50
270.000039434
 51
89.999977233
  0
LINE
  8
0
  6
CONTINUOUS
 62
     2
 10
37.5
 20
135.933333333
 30
0.0
 11
72.100001652
 21
135.933333333
 31
0.0
  0
LINE
  8
0
  6
CONTINUOUS
 62
     2
 10
37.5
 20
140.733333333
 30
0.0
 11
72.100000954
 21
140.733333333
 31
0.0
  0
LINE
  8
0
  6
CONTINUOUS
 62
     2
 10
72.100001377
 20
136.333333333
 30
0.0
 11
69.0
 21
136.333333333
 31
0.0
  0
LINE
  8
0
  6
CONTINUOUS
 62
     2
 10
72.100000795
 20
140.333333333
 30
0.0
 11
69.0
 21
140.333333333
 31
0.0
  0
CIRCLE
  8
0
  6
CONTINUOUS
 62
     2
 10
71.5
 20
138.333333333
 30
0.0
 40
1.5
  0
LINE
  8
0
  6
CONTINUOUS
 62
     2
 10
33.332999992
 20
40.6
 30
0.0
 11
33.332999992
 21
40.0
 31
0.0
  0
LINE
  8
0
  6
CONTINUOUS
 62
     2
 10
33.332999992
 20
40.6
 30
0.0
 11
44.046990304
 21
40.6
 31
0.0
  0
LINE
  8
0
  6
CONTINUOUS
 62
     2
 10
76.666666658
 20
40.6
 30
0.0
 11
76.666666658
 21
40.0
 31
0.0
  0
LINE
  8
0
  6
CONTINUOUS
 62
     2
 10
65.953009696
 20
40.6
 30
0.0
 11
76.666666658
 21
40.6
 31
0.0
  0
LINE
  8
0
  6
CONTINUOUS
 62
     2
 10
116.667
 20
45.0
 30
0.0
 11
116.667
 21
40.0
 31
0.0
  0
LINE
  8
0
  6
CONTINUOUS
 62
     2
 10
163.333333333
 20
40.0
 30
0.0
 11
163.333333333
 21
45.0
 31
0.0
  0
LINE
  8
0
  6
CONTINUOUS
 62
     2
 10
163.333333333
 20
45.0
 30
0.0
 11
116.667
 21
45.0
 31
0.0
  0
LINE
  8
0
  6
CONTINUOUS
 62
     2
 10
50.0
 20
43.8
 30
0.0
 11
60.0
 21
43.8
 31
0.0
  0
LINE
  8
0
  6
CONTINUOUS
 62
     2
 10
46.346918152
 20
44.4
 30
0.0
 11
50.0
 21
44.4
 31
0.0
  0
ARC
  8
0
  6
CONTINUOUS
 62
     2
 10
46.346918152
 20
44.0
 30
0.0
 40
0.4
 50
90.0
 51
171.869897646
  0
LINE
  8
0
  6
CONTINUOUS
 62
     2
 10
46.346918152
 20
45.0
 30
0.0
 11
50.0
 21
45.0
 31
0.0
  0
ARC
  8
0
  6
CONTINUOUS
 62
     2
 10
46.346918152
 20
44.0
 30
0.0
 40
1.0
 50
90.0
 51
171.869897646
  0
LINE
  8
0
  6
CONTINUOUS
 62
     2
 10
45.950938355
 20
44.056568542
 30
0.0
 11
45.036939798
 21
40.858578644
 31
0.0
  0
LINE
  8
0
  6
CONTINUOUS
 62
     2
 10
60.0
 20
45.0
 30
0.0
 11
63.653081848
 21
45.0
 31
0.0
  0
ARC
  8
0
  6
CONTINUOUS
 62
     2
 10
63.653081848
 20
44.0
 30
0.0
 40
1.0
 50
8.130102354
 51
90.0
  0
LINE
  8
0
  6
CONTINUOUS
 62
     2
 10
60.0
 20
44.4
 30
0.0
 11
63.653081848
 21
44.4
 31
0.0
  0
LINE
  8
0
  6
CONTINUOUS
 62
     2
 10
64.049061645
 20
44.056568542
 30
0.0
 11
64.963060202
 21
40.858578644
 31
0.0
  0
ARC
  8
0
  6
CONTINUOUS
 62
     2
 10
63.653081848
 20
44.0
 30
0.0
 40
0.4
 50
8.130102354
 51
90.0
  0
LINE
  8
0
  6
CONTINUOUS
 62
     2
 10
64.643031341
 20
44.141421356
 30
0.0
 11
65.557029898
 21
40.943431458
 31
0.0
  0
LINE
  8
0
  6
CONTINUOUS
 62
     2
 10
45.356968659
 20
44.141421356
 30
0.0
 11
44.442970102
 21
40.943431458
 31
0.0
  0
LINE
  8
0
  6
CONTINUOUS
 62
     2
 10
50.0
 20
41.3
 30
0.0
 11
60.0
 21
41.3
 31
0.0
  0
LINE
  8
0
  6
CONTINUOUS
 62
     2
 10
116.667
 20
25.0
 30
0.0
 11
118.598851653
 21
25.51763809
 31
0.0
  0
LINE
  8
0
  6
CONTINUOUS
 62
     2
 10
116.667
 20
25.0
 30
0.0
 11
118.598851653
 21
24.48236191
 31
0.0
  0
LINE
  8
0
  6
CONTINUOUS
 62
     2
 10
116.667
 20
39.0
 30
0.0
 11
116.667
 21
24.0
 31
0.0
  0
POINT
  8
2
  6
CONTINUOUS
 62
     2
 10
163.333333333
 20
25.0
 30
0.0
  0
LINE
  8
0
  6
CONTINUOUS
 62
     2
 10
163.333666667
 20
25.0
 30
0.0
 11
161.401815014
 21
25.51763809
 31
0.0
  0
LINE
  8
0
  6
CONTINUOUS
 62
     2
 10
163.333666667
 20
25.0
 30
0.0
 11
161.401815014
 21
24.48236191
 31
0.0
  0
LINE
  8
0
  6
CONTINUOUS
 62
     2
 10
163.333333333
 20
39.0
 30
0.0
 11
163.333333333
 21
24.0
 31
0.0
  0
LINE
  8
0
  6
CONTINUOUS
 62
     2
 10
116.667
 20
25.0
 30
0.0
 11
163.333333333
 21
25.0
 31
0.0
  0
TEXT
  8
0
  6
CONTINUOUS
 62
     2
 10
135.653
 20
25.333333333
 30
0.3
 40
3.0
  1
１４０
 50
0.0
 41
0.9
 51
0.0
  7
KANJI0
  0
LINE
  8
0
  6
CONTINUOUS
 62
     2
 10
155.333333333
 20
45.0
 30
0.0
 11
153.333333333
 21
45.0
 31
0.0
  0
ARC
  8
0
  6
CONTINUOUS
 62
     2
 10
155.333333333
 20
53.0
 30
0.0
 40
8.0
 50
270.0
 51
0.0
  0
LINE
  8
0
  6
CONTINUOUS
 62
     2
 10
126.667
 20
45.0
 30
0.0
 11
124.667
 21
45.0
 31
0.0
  0
ARC
  8
0
  6
CONTINUOUS
 62
     2
 10
124.667
 20
53.0
 30
0.0
 40
8.0
 50
180.0
 51
270.0
  0
TEXT
  8
0
  6
CONTINUOUS
 62
     2
 10
84.147660172
 20
126.127339933
 30
0.3
 40
3.0
  1
２－Ｍ６一次端子
 50
0.0
 41
0.9
 51
0.0
  7
KANJI0
  0
LINE
  8
0
  6
CONTINUOUS
 62
     2
 10
84.147660172
 20
125.685673162
 30
0.0
 11
107.855660172
 21
125.685673162
 31
0.0
  0
LINE
  8
0
  6
CONTINUOUS
 62
     2
 10
72.560660172
 20
137.272673162
 30
0.0
 11
73.810660172
 21
135.107609652
 31
0.0
  0
LINE
  8
0
  6
CONTINUOUS
 62
     2
 10
72.560660172
 20
137.272673162
 30
0.0
 11
74.725723681
 21
136.022673162
 31
0.0
  0
LINE
  8
0
  6
CONTINUOUS
 62
     2
 10
72.560660172
 20
137.272673162
 30
0.0
 11
84.147660172
 21
125.685673162
 31
0.0
  0
LINE
  8
0
  6
CONTINUOUS
 62
     2
 10
84.385629263
 20
110.245791425
 30
0.0
 11
108.093629263
 21
110.245791425
 31
0.0
  0
TEXT
  8
0
  6
CONTINUOUS
 62
     2
 10
84.385629263
 20
110.687458196
 30
0.3
 40
3.0
  1
２－Ｍ４二次端子
 50
0.0
 41
0.9
 51
0.0
  7
KANJI0
  0
CIRCLE
  8
0
  6
CONTINUOUS
 62
     2
 10
152.333333333
 20
140.000030518
 30
0.0
 40
0.75
  0
POLYLINE
  8
0
  6
CONTINUOUS
 62
     2
 66
     1
  0
VERTEX
  8
0
  6
CONTINUOUS
 62
     2
 10
151.44047619
 20
137.937652588
 30
0.0
  0
VERTEX
  8
0
  6
CONTINUOUS
 62
     2
 10
151.619047619
 20
137.937652588
 30
0.0
  0
VERTEX
  8
0
  6
CONTINUOUS
 62
     2
 10
151.619047619
 20
136.843902588
 30
0.0
  0
VERTEX
  8
0
  6
CONTINUOUS
 62
     2
 10
151.797619048
 20
136.406402588
 30
0.0
  0
VERTEX
  8
0
  6
CONTINUOUS
 62
     2
 10
151.976190476
 20
136.187652588
 30
0.0
  0
VERTEX
  8
0
  6
CONTINUOUS
 62
     2
 10
152.333333333
 20
136.187652588
 30
0.0
  0
VERTEX
  8
0
  6
CONTINUOUS
 62
     2
 10
152.511904762
 20
136.406402588
 30
0.0
  0
VERTEX
  8
0
  6
CONTINUOUS
 62
     2
 10
152.69047619
 20
136.843902588
 30
0.0
  0
VERTEX
  8
0
  6
CONTINUOUS
 62
     2
 10
152.69047619
 20
137.937652588
 30
0.0
  0
VERTEX
  8
0
  6
CONTINUOUS
 62
     2
 10
153.047619048
 20
137.937652588
 30
0.0
  0
SEQEND
  0
CIRCLE
  8
0
  6
CONTINUOUS
 62
     2
 10
152.333333333
 20
165.00012207
 30
0.0
 40
0.75
  0
LINE
  8
0
  6
CONTINUOUS
 62
     2
 10
151.333333333
 20
162.00012207
 30
0.0
 11
153.333333333
 21
162.00012207
 31
0.0
  0
LINE
  8
0
  6
CONTINUOUS
 62
     2
 10
153.333333333
 20
162.00012207
 30
0.0
 11
153.333333333
 21
158.00012207
 31
0.0
  0
LINE
  8
0
  6
CONTINUOUS
 62
     2
 10
153.333333333
 20
158.00012207
 30
0.0
 11
151.333333333
 21
158.00012207
 31
0.0
  0
LINE
  8
0
  6
CONTINUOUS
 62
     2
 10
151.333333333
 20
158.00012207
 30
0.0
 11
151.333333333
 21
162.00012207
 31
0.0
  0
LINE
  8
0
  6
CONTINUOUS
 62
     2
 10
153.333333333
 20
162.00012207
 30
0.0
 11
151.333333333
 21
158.00012207
 31
0.0
  0
LINE
  8
0
  6
CONTINUOUS
 62
     2
 10
152.333333333
 20
162.00012207
 30
0.0
 11
152.333333333
 21
164.25012207
 31
0.0
  0
POLYLINE
  8
0
  6
CONTINUOUS
 62
     2
 66
     1
  0
VERTEX
  8
0
  6
CONTINUOUS
 62
     2
 10
151.44047619
 20
169.31262207
 30
0.0
  0
VERTEX
  8
0
  6
CONTINUOUS
 62
     2
 10
152.154761905
 20
166.46887207
 30
0.0
  0
VERTEX
  8
0
  6
CONTINUOUS
 62
     2
 10
153.047619048
 20
169.31262207
 30
0.0
  0
SEQEND
  0
LINE
  8
0
  6
CONTINUOUS
 62
     2
 10
150.333333333
 20
152.00012207
 30
0.0
 11
148.333333333
 21
154.00012207
 31
0.0
  0
LINE
  8
0
  6
CONTINUOUS
 62
     2
 10
148.333333333
 20
154.00012207
 30
0.0
 11
146.333333333
 21
152.00012207
 31
0.0
  0
LINE
  8
0
  6
CONTINUOUS
 62
     2
 10
146.333333333
 20
152.00012207
 30
0.0
 11
144.333333333
 21
154.00012207
 31
0.0
  0
LINE
  8
0
  6
CONTINUOUS
 62
     2
 10
144.333333333
 20
154.00012207
 30
0.0
 11
142.333333333
 21
152.00012207
 31
0.0
  0
LINE
  8
0
  6
CONTINUOUS
 62
     2
 10
142.333333333
 20
152.00012207
 30
0.0
 11
140.333333333
 21
154.00012207
 31
0.0
  0
LINE
  8
0
  6
CONTINUOUS
 62
     2
 10
140.333333333
 20
154.00012207
 30
0.0
 11
138.333333333
 21
152.00012207
 31
0.0
  0
LINE
  8
0
  6
CONTINUOUS
 62
     2
 10
138.333333333
 20
152.00012207
 30
0.0
 11
136.333333333
 21
154.00012207
 31
0.0
  0
LINE
  8
0
  6
CONTINUOUS
 62
     2
 10
136.333333333
 20
154.00012207
 30
0.0
 11
134.333333333
 21
152.00012207
 31
0.0
  0
LINE
  8
0
  6
CONTINUOUS
 62
     2
 10
134.333333333
 20
152.00012207
 30
0.0
 11
132.333333333
 21
154.00012207
 31
0.0
  0
LINE
  8
0
  6
CONTINUOUS
 62
     2
 10
132.333333333
 20
154.00012207
 30
0.0
 11
130.333333333
 21
152.00012207
 31
0.0
  0
LINE
  8
0
  6
CONTINUOUS
 62
     2
 10
130.333333333
 20
152.00012207
 30
0.0
 11
128.333333333
 21
154.00012207
 31
0.0
  0
LINE
  8
0
  6
CONTINUOUS
 62
     2
 10
128.333333333
 20
154.00012207
 30
0.0
 11
126.333333333
 21
152.00012207
 31
0.0
  0
LINE
  8
0
  6
CONTINUOUS
 62
     2
 10
126.333333333
 20
152.00012207
 30
0.0
 11
124.333333333
 21
154.00012207
 31
0.0
  0
LINE
  8
0
  6
CONTINUOUS
 62
     2
 10
124.333333333
 20
154.00012207
 30
0.0
 11
122.333333333
 21
152.00012207
 31
0.0
  0
CIRCLE
  8
0
  6
CONTINUOUS
 62
     2
 10
120.333333333
 20
140.000030518
 30
0.0
 40
0.75
  0
POLYLINE
  8
0
  6
CONTINUOUS
 62
     2
 66
     1
  0
VERTEX
  8
0
  6
CONTINUOUS
 62
     2
 10
119.44047619
 20
137.718902588
 30
0.0
  0
VERTEX
  8
0
  6
CONTINUOUS
 62
     2
 10
119.619047619
 20
137.718902588
 30
0.0
  0
VERTEX
  8
0
  6
CONTINUOUS
 62
     2
 10
119.619047619
 20
136.406402588
 30
0.0
  0
VERTEX
  8
0
  6
CONTINUOUS
 62
     2
 10
119.797619048
 20
135.968902588
 30
0.0
  0
VERTEX
  8
0
  6
CONTINUOUS
 62
     2
 10
120.511904762
 20
135.968902588
 30
0.0
  0
VERTEX
  8
0
  6
CONTINUOUS
 62
     2
 10
120.69047619
 20
136.187652588
 30
0.0
  0
VERTEX
  8
0
  6
CONTINUOUS
 62
     2
 10
120.69047619
 20
137.718902588
 30
0.0
  0
SEQEND
  0
LINE
  8
0
  6
CONTINUOUS
 62
     2
 10
120.69047619
 20
136.187652588
 30
0.0
 11
120.869047619
 21
135.968902588
 31
0.0
  0
LINE
  8
0
  6
CONTINUOUS
 62
     2
 10
120.869047619
 20
135.968902588
 30
0.0
 11
121.047619048
 21
135.968902588
 31
0.0
  0
LINE
  8
0
  6
CONTINUOUS
 62
     2
 10
121.047619048
 20
135.968902588
 30
0.0
 11
121.226190476
 21
136.187652588
 31
0.0
  0
LINE
  8
0
  6
LTYPE2
 62
     2
 10
119.333333333
 20
150.0
 30
0.0
 11
153.333333333
 21
150.0
 31
0.0
  0
CIRCLE
  8
0
  6
CONTINUOUS
 62
     2
 10
120.333333333
 20
165.00012207
 30
0.0
 40
0.75
  0
LINE
  8
0
  6
CONTINUOUS
 62
     2
 10
119.333333333
 20
162.00012207
 30
0.0
 11
121.333333333
 21
162.00012207
 31
0.0
  0
LINE
  8
0
  6
CONTINUOUS
 62
     2
 10
121.333333333
 20
162.00012207
 30
0.0
 11
121.333333333
 21
158.00012207
 31
0.0
  0
LINE
  8
0
  6
CONTINUOUS
 62
     2
 10
121.333333333
 20
158.00012207
 30
0.0
 11
119.333333333
 21
158.00012207
 31
0.0
  0
LINE
  8
0
  6
CONTINUOUS
 62
     2
 10
119.333333333
 20
158.00012207
 30
0.0
 11
119.333333333
 21
162.00012207
 31
0.0
  0
LINE
  8
0
  6
CONTINUOUS
 62
     2
 10
121.333333333
 20
162.00012207
 30
0.0
 11
119.333333333
 21
158.00012207
 31
0.0
  0
LINE
  8
0
  6
CONTINUOUS
 62
     2
 10
120.333333333
 20
162.00012207
 30
0.0
 11
120.333333333
 21
164.25012207
 31
0.0
  0
POLYLINE
  8
0
  6
CONTINUOUS
 62
     2
 66
     1
  0
VERTEX
  8
0
  6
CONTINUOUS
 62
     2
 10
119.44047619
 20
167.12512207
 30
0.0
  0
VERTEX
  8
0
  6
CONTINUOUS
 62
     2
 10
119.619047619
 20
166.68762207
 30
0.0
  0
VERTEX
  8
0
  6
CONTINUOUS
 62
     2
 10
119.976190476
 20
166.46887207
 30
0.0
  0
VERTEX
  8
0
  6
CONTINUOUS
 62
     2
 10
120.511904762
 20
166.46887207
 30
0.0
  0
VERTEX
  8
0
  6
CONTINUOUS
 62
     2
 10
120.869047619
 20
166.68762207
 30
0.0
  0
VERTEX
  8
0
  6
CONTINUOUS
 62
     2
 10
121.047619048
 20
167.12512207
 30
0.0
  0
VERTEX
  8
0
  6
CONTINUOUS
 62
     2
 10
121.047619048
 20
169.31262207
 30
0.0
  0
SEQEND
  0
LINE
  8
0
  6
CONTINUOUS
 62
     2
 10
119.44047619
 20
167.12512207
 30
0.0
 11
119.44047619
 21
169.31262207
 31
0.0
  0
LINE
  8
0
  6
CONTINUOUS
 62
     2
 10
150.333333333
 20
147.99987793
 30
0.0
 11
148.333333333
 21
145.99987793
 31
0.0
  0
LINE
  8
0
  6
CONTINUOUS
 62
     2
 10
148.333333333
 20
145.99987793
 30
0.0
 11
146.333333333
 21
147.99987793
 31
0.0
  0
LINE
  8
0
  6
CONTINUOUS
 62
     2
 10
146.333333333
 20
147.99987793
 30
0.0
 11
144.333333333
 21
145.99987793
 31
0.0
  0
LINE
  8
0
  6
CONTINUOUS
 62
     2
 10
144.333333333
 20
145.99987793
 30
0.0
 11
142.333333333
 21
147.99987793
 31
0.0
  0
LINE
  8
0
  6
CONTINUOUS
 62
     2
 10
142.333333333
 20
147.99987793
 30
0.0
 11
140.333333333
 21
145.99987793
 31
0.0
  0
LINE
  8
0
  6
CONTINUOUS
 62
     2
 10
140.333333333
 20
145.99987793
 30
0.0
 11
138.333333333
 21
147.99987793
 31
0.0
  0
LINE
  8
0
  6
CONTINUOUS
 62
     2
 10
138.333333333
 20
147.99987793
 30
0.0
 11
136.333333333
 21
145.99987793
 31
0.0
  0
LINE
  8
0
  6
CONTINUOUS
 62
     2
 10
136.333333333
 20
145.99987793
 30
0.0
 11
134.333333333
 21
147.99987793
 31
0.0
  0
LINE
  8
0
  6
CONTINUOUS
 62
     2
 10
134.333333333
 20
147.99987793
 30
0.0
 11
132.333333333
 21
145.99987793
 31
0.0
  0
LINE
  8
0
  6
CONTINUOUS
 62
     2
 10
132.333333333
 20
145.99987793
 30
0.0
 11
130.333333333
 21
147.99987793
 31
0.0
  0
LINE
  8
0
  6
CONTINUOUS
 62
     2
 10
130.333333333
 20
147.99987793
 30
0.0
 11
128.333333333
 21
145.99987793
 31
0.0
  0
LINE
  8
0
  6
CONTINUOUS
 62
     2
 10
128.333333333
 20
145.99987793
 30
0.0
 11
126.333333333
 21
147.99987793
 31
0.0
  0
LINE
  8
0
  6
CONTINUOUS
 62
     2
 10
126.333333333
 20
147.99987793
 30
0.0
 11
124.333333333
 21
145.99987793
 31
0.0
  0
LINE
  8
0
  6
CONTINUOUS
 62
     2
 10
124.333333333
 20
145.99987793
 30
0.0
 11
122.333333333
 21
147.99987793
 31
0.0
  0
POLYLINE
  8
0
  6
CONTINUOUS
 62
     2
 66
     1
  0
VERTEX
  8
0
  6
CONTINUOUS
 62
     2
 10
122.333333333
 20
147.99987793
 30
0.0
  0
VERTEX
  8
0
  6
CONTINUOUS
 62
     2
 10
120.333333333
 20
145.99987793
 30
0.0
  0
VERTEX
  8
0
  6
CONTINUOUS
 62
     2
 10
120.333333333
 20
140.750030518
 30
0.0
  0
SEQEND
  0
LINE
  8
0
  6
CONTINUOUS
 62
     2
 10
152.333333333
 20
145.99987793
 30
0.0
 11
150.333333333
 21
147.99987793
 31
0.0
  0
LINE
  8
0
  6
CONTINUOUS
 62
     2
 10
152.333333333
 20
145.99987793
 30
0.0
 11
152.333333333
 21
140.750030518
 31
0.0
  0
LINE
  8
0
  6
CONTINUOUS
 62
     2
 10
152.333333333
 20
154.00012207
 30
0.0
 11
150.333333333
 21
152.00012207
 31
0.0
  0
LINE
  8
0
  6
CONTINUOUS
 62
     2
 10
152.333333333
 20
154.00012207
 30
0.0
 11
152.333333333
 21
158.00012207
 31
0.0
  0
LINE
  8
0
  6
CONTINUOUS
 62
     2
 10
122.333333333
 20
152.00012207
 30
0.0
 11
120.333333333
 21
154.00012207
 31
0.0
  0
LINE
  8
0
  6
CONTINUOUS
 62
     2
 10
120.333333333
 20
154.00012207
 30
0.0
 11
120.333333333
 21
158.00012207
 31
0.0
  0
TEXT
  8
0
  6
CONTINUOUS
 62
     2
 10
154.732333333
 20
154.255335042
 30
0.3
 40
3.0
  1
一次
 50
0.0
 41
0.9
 51
0.0
  7
KANJI0
  0
TEXT
  8
0
  6
CONTINUOUS
 62
     2
 10
154.732333333
 20
142.588335042
 30
0.3
 40
3.0
  1
二次
 50
0.0
 41
0.9
 51
0.0
  7
KANJI0
  0
POLYLINE
  8
0
  6
CONTINUOUS
 62
     2
 66
     1
  0
VERTEX
  8
0
  6
CONTINUOUS
 62
     2
 10
127.440142857
 20
123.6455
 30
0.0
  0
VERTEX
  8
0
  6
CONTINUOUS
 62
     2
 10
128.154428571
 20
120.80175
 30
0.0
  0
VERTEX
  8
0
  6
CONTINUOUS
 62
     2
 10
129.047285714
 20
123.6455
 30
0.0
  0
SEQEND
  0
POLYLINE
  8
0
  6
CONTINUOUS
 62
     2
 66
     1
  0
VERTEX
  8
0
  6
CONTINUOUS
 62
     2
 10
150.773809524
 20
121.458
 30
0.0
  0
VERTEX
  8
0
  6
CONTINUOUS
 62
     2
 10
150.952380952
 20
121.0205
 30
0.0
  0
VERTEX
  8
0
  6
CONTINUOUS
 62
     2
 10
151.30952381
 20
120.80175
 30
0.0
  0
VERTEX
  8
0
  6
CONTINUOUS
 62
     2
 10
151.845238095
 20
120.80175
 30
0.0
  0
VERTEX
  8
0
  6
CONTINUOUS
 62
     2
 10
152.202380952
 20
121.0205
 30
0.0
  0
VERTEX
  8
0
  6
CONTINUOUS
 62
     2
 10
152.380952381
 20
121.458
 30
0.0
  0
VERTEX
  8
0
  6
CONTINUOUS
 62
     2
 10
152.380952381
 20
123.6455
 30
0.0
  0
SEQEND
  0
LINE
  8
0
  6
CONTINUOUS
 62
     2
 10
150.773809524
 20
121.458
 30
0.0
 11
150.773809524
 21
123.6455
 31
0.0
  0
LINE
  8
0
  6
CONTINUOUS
 62
     2
 10
95.0
 20
40.0
 30
0.0
 11
94.48236191
 21
41.931851653
 31
0.0
  0
LINE
  8
0
  6
CONTINUOUS
 62
     2
 10
95.0
 20
40.0
 30
0.0
 11
95.51763809
 21
41.931851653
 31
0.0
  0
LINE
  8
0
  6
CONTINUOUS
 62
     2
 10
79.675312086
 20
40.000007497
 30
0.0
 11
97.0
 21
40.0
 31
0.0
  0
LINE
  8
0
  6
CONTINUOUS
 62
     2
 10
20.0
 20
112.333
 30
0.0
 11
19.48236191
 21
110.401148347
 31
0.0
  0
LINE
  8
0
  6
CONTINUOUS
 62
     2
 10
20.0
 20
112.333
 30
0.0
 11
20.51763809
 21
110.401148347
 31
0.0
  0
LINE
  8
0
  6
CONTINUOUS
 62
     2
 10
20.0
 20
40.0
 30
0.0
 11
19.48236191
 21
41.931851653
 31
0.0
  0
LINE
  8
0
  6
CONTINUOUS
 62
     2
 10
20.0
 20
40.0
 30
0.0
 11
20.51763809
 21
41.931851653
 31
0.0
  0
LINE
  8
0
  6
CONTINUOUS
 62
     2
 10
32.0
 20
40.0
 30
0.0
 11
19.0
 21
40.0
 31
0.0
  0
LINE
  8
0
  6
CONTINUOUS
 62
     2
 10
20.0
 20
112.333
 30
0.0
 11
20.0
 21
40.0
 31
0.0
  0
TEXT
  8
0
  6
CONTINUOUS
 62
     2
 10
19.336666667
 20
69.76
 30
0.3
 40
3.0
  1
２１７
 50
90.0
 41
0.9
 51
0.0
  7
KANJI0
  0
LINE
  8
0
  6
CONTINUOUS
 62
     2
 10
28.333
 20
112.333
 30
0.0
 11
19.0
 21
112.333
 31
0.0
  0
LINE
  8
0
  6
CONTINUOUS
 62
     2
 10
20.0
 20
176.666666667
 30
0.0
 11
19.48236191
 21
174.734815014
 31
0.0
  0
LINE
  8
0
  6
CONTINUOUS
 62
     2
 10
20.0
 20
176.666666667
 30
0.0
 11
20.51763809
 21
174.734815014
 31
0.0
  0
LINE
  8
0
  6
CONTINUOUS
 62
     2
 10
20.0
 20
123.333
 30
0.0
 11
19.48236191
 21
125.264851653
 31
0.0
  0
LINE
  8
0
  6
CONTINUOUS
 62
     2
 10
20.0
 20
123.333
 30
0.0
 11
20.51763809
 21
125.264851653
 31
0.0
  0
LINE
  8
0
  6
CONTINUOUS
 62
     2
 10
20.0
 20
176.666666667
 30
0.0
 11
20.0
 21
123.333
 31
0.0
  0
LINE
  8
0
  6
CONTINUOUS
 62
     2
 10
27.333
 20
176.66667947
 30
0.0
 11
18.0
 21
176.666666667
 31
0.0
  0
LINE
  8
0
  6
CONTINUOUS
 62
     2
 10
27.333
 20
123.333
 30
0.0
 11
18.0
 21
123.333
 31
0.0
  0
TEXT
  8
0
  6
CONTINUOUS
 62
     2
 10
19.253852275
 20
145.790001628
 30
0.3
 40
3.0
  1
１６０
 50
90.0
 41
0.9
 51
0.0
  7
KANJI0
  0
TEXT
  8
0
  6
CONTINUOUS
 62
     2
 10
95.6
 20
17.0
 30
0.3
 40
3.0
  1
３
 50
0.0
 41
0.6
 51
0.0
  7
KANJI3
  0
LINE
  8
0
  6
CONTINUOUS
 62
     2
 10
95.0
 20
30.5
 30
0.0
 11
98.0
 21
30.5
 31
0.0
  0
LINE
  8
0
  6
CONTINUOUS
 62
     2
 10
95.0
 20
21.5
 30
0.0
 11
98.0
 21
21.5
 31
0.0
  0
ARC
  8
0
  6
CONTINUOUS
 62
     2
 10
98.0
 20
26.0
 30
0.0
 40
4.5
 50
270.0
 51
90.0
  0
ARC
  8
0
  6
CONTINUOUS
 62
     2
 10
95.0
 20
26.0
 30
0.0
 40
4.5
 50
90.0
 51
270.0
  0
LINE
  8
0
  6
LTYPE1
 62
     2
 10
96.5
 20
31.5
 30
0.0
 11
96.5
 21
20.5
 31
0.0
  0
LINE
  8
0
  6
LTYPE1
 62
     2
 10
89.5
 20
26.0
 30
0.0
 11
103.5
 21
26.0
 31
0.0
  0
LINE
  8
0
  6
LTYPE1
 62
     2
 10
98.0
 20
31.5
 30
0.0
 11
98.0
 21
20.5
 31
0.0
  0
LINE
  8
0
  6
LTYPE1
 62
     2
 10
95.0
 20
31.5
 30
0.0
 11
95.0
 21
20.5
 31
0.0
  0
LINE
  8
0
  6
CONTINUOUS
 62
     2
 10
95.0
 20
19.5
 30
0.0
 11
95.0
 21
15.5
 31
0.0
  0
LINE
  8
0
  6
CONTINUOUS
 62
     2
 10
98.0
 20
19.5
 30
0.0
 11
98.0
 21
15.5
 31
0.0
  0
LINE
  8
0
  6
CONTINUOUS
 62
     2
 10
98.0
 20
16.5
 30
0.0
 11
100.414814566
 21
15.852952387
 31
0.0
  0
LINE
  8
0
  6
CONTINUOUS
 62
     2
 10
98.0
 20
16.5
 30
0.0
 11
100.414814566
 21
17.147047613
 31
0.0
  0
LINE
  8
0
  6
CONTINUOUS
 62
     2
 10
95.0
 20
16.5
 30
0.0
 11
92.585185434
 21
17.147047613
 31
0.0
  0
LINE
  8
0
  6
CONTINUOUS
 62
     2
 10
95.0
 20
16.5
 30
0.0
 11
92.585185434
 21
15.852952387
 31
0.0
  0
LINE
  8
0
  6
CONTINUOUS
 62
     2
 10
91.5
 20
16.5
 30
0.0
 11
101.5
 21
16.5
 31
0.0
  0
LINE
  8
0
  6
CONTINUOUS
 62
     2
 10
95.0
 20
26.0
 30
0.0
 11
88.5
 21
19.5
 31
0.0
  0
TEXT
  8
0
  6
CONTINUOUS
 62
     2
 10
65.926
 20
19.941666771
 30
0.3
 40
3.0
  1
４－４．５Ｒ長穴
 50
0.0
 41
0.9
 51
0.0
  7
KANJI0
  0
LINE
  8
0
  6
CONTINUOUS
 62
     2
 10
65.926
 20
19.5
 30
0.0
 11
88.5
 21
19.5
 31
0.0
  0
LINE
  8
0
  6
CONTINUOUS
 62
     2
 10
73.333333325
 20
40.0
 30
0.0
 11
91.293883165
 21
29.630471715
 31
0.0
  0
LINE
  8
0
  6
CONTINUOUS
 62
     2
 10
38.666999992
 20
40.6
 30
0.0
 11
38.666999992
 21
40.0
 31
0.0
  0
LINE
  8
0
  6
CONTINUOUS
 62
     2
 10
34.666999992
 20
40.6
 30
0.0
 11
34.666999992
 21
40.0
 31
0.0
  0
LINE
  8
0
  6
CONTINUOUS
 62
     2
 10
75.333333325
 20
40.6
 30
0.0
 11
75.333333325
 21
40.0
 31
0.0
  0
LINE
  8
0
  6
CONTINUOUS
 62
     2
 10
71.333333325
 20
40.6
 30
0.0
 11
71.333333325
 21
40.0
 31
0.0
  0
LINE
  8
0
  6
CONTINUOUS
 62
     2
 10
122.0
 20
40.6
 30
0.0
 11
122.0
 21
40.0
 31
0.0
  0
LINE
  8
0
  6
CONTINUOUS
 62
     2
 10
118.0
 20
40.6
 30
0.0
 11
118.0
 21
40.0
 31
0.0
  0
LINE
  8
0
  6
CONTINUOUS
 62
     2
 10
162.0
 20
40.6
 30
0.0
 11
162.0
 21
40.0
 31
0.0
  0
LINE
  8
0
  6
CONTINUOUS
 62
     2
 10
158.0
 20
40.6
 30
0.0
 11
158.0
 21
40.0
 31
0.0
  0
LINE
  8
0
  6
CONTINUOUS
 62
     2
 10
138.500015259
 20
110.833
 30
0.0
 11
137.596328735
 21
100.39679718
 31
0.0
  0
ARC
  8
0
  6
CONTINUOUS
 62
     2
 10
136.099899292
 20
100.5
 30
0.0
 40
1.5
 50
270.0
 51
356.05480957
  0
LINE
  8
0
  6
CONTINUOUS
 62
     2
 10
141.500015259
 20
110.833
 30
0.0
 11
142.403701782
 21
100.39679718
 31
0.0
  0
ARC
  8
0
  6
CONTINUOUS
 62
     2
 10
143.900100708
 20
100.5
 30
0.0
 40
1.5
 50
183.945220947
 51
270.0
  0
LINE
  8
0
  6
CONTINUOUS
 62
     2
 10
129.602226074
 20
105.487180074
 30
0.0
 11
130.166343506
 21
106.333333333
 31
0.0
  0
LINE
  8
0
  6
CONTINUOUS
 62
     2
 10
126.499671753
 20
106.333333333
 30
0.0
 11
127.063758667
 21
105.487180074
 31
0.0
  0
LINE
  8
0
  6
CONTINUOUS
 62
     2
 10
130.333
 20
105.397908529
 30
0.0
 11
126.333
 21
105.397908529
 31
0.0
  0
LINE
  8
0
  6
CONTINUOUS
 62
     2
 10
130.333
 20
105.397908529
 30
0.0
 11
130.333
 21
100.0
 31
0.0
  0
LINE
  8
0
  6
CONTINUOUS
 62
     2
 10
126.333
 20
105.397908529
 30
0.0
 11
126.333
 21
100.0
 31
0.0
  0
ARC
  8
0
  6
CONTINUOUS
 62
     2
 10
128.333
 20
103.333333333
 30
0.0
 40
2.5
 50
120.510536194
 51
124.327261045
  0
ARC
  8
0
  6
CONTINUOUS
 62
     2
 10
128.333
 20
103.333333333
 30
0.0
 40
2.5
 50
55.672738955
 51
59.489860535
  0
ARC
  8
0
  6
CONTINUOUS
 62
     2
 10
128.333
 20
103.333333333
 30
0.0
 40
2.5
 50
323.130102354
 51
36.869897646
  0
ARC
  8
0
  6
CONTINUOUS
 62
     2
 10
128.333
 20
103.333333333
 30
0.0
 40
2.5
 50
143.130102354
 51
216.869897646
  0
LINE
  8
0
  6
CONTINUOUS
 62
     2
 10
126.333
 20
101.0
 30
0.0
 11
125.833
 21
101.0
 31
0.0
  0
LINE
  8
0
  6
CONTINUOUS
 62
     2
 10
125.333
 20
100.5
 30
0.0
 11
125.333
 21
100.0
 31
0.0
  0
ARC
  8
0
  6
CONTINUOUS
 62
     2
 10
125.833
 20
100.5
 30
0.0
 40
0.5
 50
90.0
 51
180.0
  0
LINE
  8
0
  6
CONTINUOUS
 62
     2
 10
130.833
 20
101.0
 30
0.0
 11
130.333
 21
101.0
 31
0.0
  0
LINE
  8
0
  6
CONTINUOUS
 62
     2
 10
131.333
 20
100.5
 30
0.0
 11
131.333
 21
100.0
 31
0.0
  0
ARC
  8
0
  6
CONTINUOUS
 62
     2
 10
130.833
 20
100.5
 30
0.0
 40
0.5
 50
0.0
 51
90.0
  0
LINE
  8
0
  6
CONTINUOUS
 62
     2
 10
137.514112854
 20
100.0
 30
0.0
 11
124.5
 21
100.0
 31
0.0
  0
LINE
  8
0
  6
CONTINUOUS
 62
     2
 10
124.0
 20
99.0
 30
0.0
 11
124.0
 21
99.5
 31
0.0
  0
ARC
  8
0
  6
CONTINUOUS
 62
     2
 10
124.5
 20
99.5
 30
0.0
 40
0.5
 50
90.0
 51
180.0
  0
LINE
  8
0
  6
CONTINUOUS
 62
     2
 10
155.5
 20
100.0
 30
0.0
 11
142.485887146
 21
100.0
 31
0.0
  0
LINE
  8
0
  6
CONTINUOUS
 62
     2
 10
156.0
 20
99.0
 30
0.0
 11
156.0
 21
99.5
 31
0.0
  0
ARC
  8
0
  6
CONTINUOUS
 62
     2
 10
155.5
 20
99.5
 30
0.0
 40
0.5
 50
0.0
 51
90.0
  0
LINE
  8
0
  6
CONTINUOUS
 62
     2
 10
150.397773926
 20
105.487180074
 30
0.0
 11
149.833656494
 21
106.333333333
 31
0.0
  0
LINE
  8
0
  6
CONTINUOUS
 62
     2
 10
153.500328247
 20
106.333333333
 30
0.0
 11
152.936241333
 21
105.487180074
 31
0.0
  0
LINE
  8
0
  6
CONTINUOUS
 62
     2
 10
149.667
 20
105.397908529
 30
0.0
 11
153.667
 21
105.397908529
 31
0.0
  0
LINE
  8
0
  6
CONTINUOUS
 62
     2
 10
149.667
 20
105.397908529
 30
0.0
 11
149.667
 21
100.0
 31
0.0
  0
LINE
  8
0
  6
CONTINUOUS
 62
     2
 10
153.667
 20
105.397908529
 30
0.0
 11
153.667
 21
100.0
 31
0.0
  0
ARC
  8
0
  6
CONTINUOUS
 62
     2
 10
151.667
 20
103.333333333
 30
0.0
 40
2.5
 50
55.672738955
 51
59.489463806
  0
ARC
  8
0
  6
CONTINUOUS
 62
     2
 10
151.667
 20
103.333333333
 30
0.0
 40
2.5
 50
120.510139465
 51
124.327261045
  0
ARC
  8
0
  6
CONTINUOUS
 62
     2
 10
151.667
 20
103.333333333
 30
0.0
 40
2.5
 50
143.130102354
 51
216.869897646
  0
ARC
  8
0
  6
CONTINUOUS
 62
     2
 10
151.667
 20
103.333333333
 30
0.0
 40
2.5
 50
323.130102354
 51
36.869897646
  0
LINE
  8
0
  6
CONTINUOUS
 62
     2
 10
153.667
 20
101.0
 30
0.0
 11
154.167
 21
101.0
 31
0.0
  0
LINE
  8
0
  6
CONTINUOUS
 62
     2
 10
154.667
 20
100.5
 30
0.0
 11
154.667
 21
100.0
 31
0.0
  0
ARC
  8
0
  6
CONTINUOUS
 62
     2
 10
154.167
 20
100.5
 30
0.0
 40
0.5
 50
0.0
 51
90.0
  0
LINE
  8
0
  6
CONTINUOUS
 62
     2
 10
149.167
 20
101.0
 30
0.0
 11
149.667
 21
101.0
 31
0.0
  0
LINE
  8
0
  6
CONTINUOUS
 62
     2
 10
148.667
 20
100.5
 30
0.0
 11
148.667
 21
100.0
 31
0.0
  0
ARC
  8
0
  6
CONTINUOUS
 62
     2
 10
149.167
 20
100.5
 30
0.0
 40
0.5
 50
90.0
 51
180.0
  0
ARC
  8
0
  6
CONTINUOUS
 62
     2
 10
165.167
 20
97.5
 30
0.0
 40
1.5
 50
0.0
 51
90.0
  0
ARC
  8
0
  6
CONTINUOUS
 62
     2
 10
165.167
 20
97.5
 30
0.0
 40
1.5
 50
270.0
 51
0.0
  0
LINE
  8
0
  6
CONTINUOUS
 62
     2
 10
140.0
 20
96.000007629
 30
0.0
 11
165.167
 21
96.0
 31
0.0
  0
ARC
  8
0
  6
CONTINUOUS
 62
     2
 10
114.833
 20
97.5
 30
0.0
 40
1.5
 50
90.0
 51
180.0
  0
ARC
  8
0
  6
CONTINUOUS
 62
     2
 10
114.833
 20
97.5
 30
0.0
 40
1.5
 50
180.0
 51
270.0
  0
LINE
  8
0
  6
CONTINUOUS
 62
     2
 10
114.833
 20
96.0
 30
0.0
 11
140.0
 21
96.0
 31
0.0
  0
LINE
  8
0
  6
CONTINUOUS
 62
     2
 10
114.833
 20
99.0
 30
0.0
 11
165.167
 21
99.0
 31
0.0
  0
LINE
  8
0
  6
CONTINUOUS
 62
     2
 10
114.833
 20
96.0
 30
0.0
 11
126.667
 21
92.999998372
 31
0.0
  0
LINE
  8
0
  6
CONTINUOUS
 62
     2
 10
165.167
 20
96.0
 30
0.0
 11
153.333333333
 21
92.999998372
 31
0.0
  0
LINE
  8
0
  6
CONTINUOUS
 62
     2
 10
126.667
 20
86.699998221
 30
0.0
 11
122.667
 21
85.199998221
 31
0.0
  0
LINE
  8
0
  6
CONTINUOUS
 62
     2
 10
122.667
 20
70.399998221
 30
0.0
 11
122.667
 21
85.199998221
 31
0.0
  0
LINE
  8
0
  6
CONTINUOUS
 62
     2
 10
126.667
 20
68.899998221
 30
0.0
 11
122.667
 21
70.399998221
 31
0.0
  0
LINE
  8
0
  6
CONTINUOUS
 62
     2
 10
121.667
 20
83.399998221
 30
0.0
 11
121.667
 21
82.199998221
 31
0.0
  0
LINE
  8
0
  6
CONTINUOUS
 62
     2
 10
121.667
 20
78.399998221
 30
0.0
 11
121.667
 21
77.199998221
 31
0.0
  0
LINE
  8
0
  6
CONTINUOUS
 62
     2
 10
121.667
 20
78.399998221
 30
0.0
 11
122.667
 21
78.576468809
 31
0.0
  0
LINE
  8
0
  6
CONTINUOUS
 62
     2
 10
121.667
 20
77.199998221
 30
0.0
 11
122.667
 21
77.023527633
 31
0.0
  0
LINE
  8
0
  6
CONTINUOUS
 62
     2
 10
121.667
 20
82.199998221
 30
0.0
 11
122.667
 21
82.023527633
 31
0.0
  0
LINE
  8
0
  6
CONTINUOUS
 62
     2
 10
121.667
 20
83.399998221
 30
0.0
 11
122.667
 21
83.576468809
 31
0.0
  0
LINE
  8
0
  6
CONTINUOUS
 62
     2
 10
155.333333333
 20
86.299998372
 30
0.0
 11
153.333333333
 21
86.299998372
 31
0.0
  0
ARC
  8
0
  6
CONTINUOUS
 62
     2
 10
155.333333333
 20
78.299998372
 30
0.0
 40
8.0
 50
0.0
 51
90.0
  0
ARC
  8
0
  6
CONTINUOUS
 62
     2
 10
124.666666667
 20
78.299998372
 30
0.0
 40
8.0
 50
90.0
 51
180.0
  0
LINE
  8
0
  6
CONTINUOUS
 62
     2
 10
116.667
 20
78.299998372
 30
0.0
 11
116.667
 21
53.0
 31
0.0
  0
LINE
  8
0
  6
CONTINUOUS
 62
     2
 10
163.333333333
 20
78.299998372
 30
0.0
 11
163.333333333
 21
53.0
 31
0.0
  0
LINE
  8
0
  6
CONTINUOUS
 62
     2
 10
124.666666667
 20
86.299998372
 30
0.0
 11
125.600333737
 21
86.299998372
 31
0.0
  0
LINE
  8
0
  6
CONTINUOUS
 62
     2
 10
65.099990845
 20
100.0
 30
0.0
 11
64.5
 21
99.0
 31
0.0
  0
LINE
  8
0
  6
CONTINUOUS
 62
     2
 10
66.0
 20
105.833333333
 30
0.0
 11
66.0
 21
100.0
 31
0.0
  0
LINE
  8
0
  6
CONTINUOUS
 62
     2
 10
69.0
 20
100.0
 30
0.0
 11
69.0
 21
105.833333333
 31
0.0
  0
LINE
  8
0
  6
CONTINUOUS
 62
     2
 10
66.0
 20
105.397908529
 30
0.0
 11
69.0
 21
105.397908529
 31
0.0
  0
LINE
  8
0
  6
CONTINUOUS
 62
     2
 10
69.0
 20
105.833333333
 30
0.0
 11
66.0
 21
105.833333333
 31
0.0
  0
LINE
  8
0
  6
CONTINUOUS
 62
     2
 10
36.5
 20
100.000003815
 30
0.0
 11
41.500003815
 21
99.999996185
 31
0.0
  0
LINE
  8
0
  6
CONTINUOUS
 62
     2
 10
36.0
 20
99.0
 30
0.0
 11
36.5
 21
99.999996185
 31
0.0
  0
LINE
  8
0
  6
CONTINUOUS
 62
     2
 10
41.500003815
 20
99.999996185
 30
0.0
 11
42.000003815
 21
99.0
 31
0.0
  0
LINE
  8
0
  6
CONTINUOUS
 62
     2
 10
40.5
 20
105.833333333
 30
0.0
 11
40.5
 21
99.999996185
 31
0.0
  0
LINE
  8
0
  6
CONTINUOUS
 62
     2
 10
37.5
 20
100.000003815
 30
0.0
 11
37.5
 21
105.833333333
 31
0.0
  0
LINE
  8
0
  6
CONTINUOUS
 62
     2
 10
40.5
 20
105.397908529
 30
0.0
 11
37.5
 21
105.397908529
 31
0.0
  0
LINE
  8
0
  6
CONTINUOUS
 62
     2
 10
37.5
 20
105.833333333
 30
0.0
 11
40.5
 21
105.833333333
 31
0.0
  0
LINE
  8
0
  6
CONTINUOUS
 62
     2
 10
37.5
 20
101.833333333
 30
0.0
 11
37.0
 21
101.833333333
 31
0.0
  0
LINE
  8
0
  6
CONTINUOUS
 62
     2
 10
37.5
 20
104.833333333
 30
0.0
 11
37.0
 21
104.833333333
 31
0.0
  0
LINE
  8
0
  6
CONTINUOUS
 62
     2
 10
37.0
 20
101.833333333
 30
0.0
 11
37.0
 21
104.833333333
 31
0.0
  0
LINE
  8
0
  6
CONTINUOUS
 62
     2
 10
66.0
 20
104.833333333
 30
0.0
 11
40.5
 21
104.833333333
 31
0.0
  0
LINE
  8
0
  6
CONTINUOUS
 62
     2
 10
40.5
 20
101.833333333
 30
0.0
 11
66.0
 21
101.833333333
 31
0.0
  0
LINE
  8
0
  6
CONTINUOUS
 62
     2
 10
34.0
 20
95.999998637
 30
0.0
 11
76.0
 21
95.999998107
 31
0.0
  0
LINE
  8
0
  6
CONTINUOUS
 62
     2
 10
36.999999992
 20
92.999998599
 30
0.0
 11
72.999999992
 21
92.999998145
 31
0.0
  0
LINE
  8
0
  6
CONTINUOUS
 62
     2
 10
74.5
 20
98.99999995
 30
0.0
 11
73.899993896
 21
99.99999995
 31
0.0
  0
LINE
  8
0
  6
CONTINUOUS
 62
     2
 10
65.099990845
 20
100.0
 30
0.0
 11
73.899993896
 21
99.99999995
 31
0.0
  0
ARC
  8
0
  6
CONTINUOUS
 62
     2
 10
71.5
 20
99.999999963
 30
0.0
 40
1.5
 50
0.0
 51
180.0
  0
LINE
  8
0
  6
CONTINUOUS
 62
     2
 10
72.999999992
 20
92.999998145
 30
0.0
 11
80.917380662
 21
95.740319436
 31
0.0
  0
LINE
  8
0
  6
CONTINUOUS
 62
     2
 10
80.0510088
 20
108.750146564
 30
0.0
 11
81.584850327
 21
96.789605008
 31
0.0
  0
ARC
  8
0
  6
CONTINUOUS
 62
     2
 10
80.590303191
 20
96.685316964
 30
0.0
 40
1.0
 50
289.091485544
 51
5.986149284
  0
LINE
  8
0
  6
CONTINUOUS
 62
     2
 10
36.999999992
 20
92.999998599
 30
0.0
 11
29.083551253
 21
95.740201904
 31
0.0
  0
LINE
  8
0
  6
CONTINUOUS
 62
     2
 10
29.956025221
 20
108.751744562
 30
0.0
 11
28.416145074
 21
96.789876622
 31
0.0
  0
ARC
  8
0
  6
CONTINUOUS
 62
     2
 10
29.410650531
 20
96.685191884
 30
0.0
 40
1.0
 50
173.990996711
 51
250.907192275
  0
LINE
  8
0
  6
CONTINUOUS
 62
     2
 10
28.806684037
 20
98.999998064
 30
0.0
 11
81.353068955
 21
98.999997401
 31
0.0
  0
LINE
  8
0
  6
CONTINUOUS
 62
     2
 10
50.0
 20
86.299998372
 30
0.0
 11
60.0
 21
86.299998372
 31
0.0
  0
LINE
  8
0
  6
CONTINUOUS
 62
     2
 10
50.0
 20
85.299998372
 30
0.0
 11
46.999999992
 21
85.299998372
 31
0.0
  0
LINE
  8
0
  6
CONTINUOUS
 62
     2
 10
60.0
 20
85.299998372
 30
0.0
 11
62.999999992
 21
85.299998372
 31
0.0
  0
LINE
  8
0
  6
CONTINUOUS
 62
     2
 10
46.999999992
 20
85.299998372
 30
0.0
 11
46.999999992
 21
45.0
 31
0.0
  0
LINE
  8
0
  6
CONTINUOUS
 62
     2
 10
62.999999992
 20
85.299998372
 30
0.0
 11
62.999999992
 21
45.0
 31
0.0
  0
LINE
  8
0
  6
CONTINUOUS
 62
     2
 10
50.0
 20
41.3
 30
0.0
 11
50.0
 21
86.299998372
 31
0.0
  0
LINE
  8
0
  6
CONTINUOUS
 62
     2
 10
60.0
 20
86.299998372
 30
0.0
 11
60.0
 21
41.3
 31
0.0
  0
CIRCLE
  8
0
  6
CONTINUOUS
 62
     2
 10
67.0
 20
82.799998221
 30
0.0
 40
1.2
  0
CIRCLE
  8
0
  6
CONTINUOUS
 62
     2
 10
67.0
 20
77.799998221
 30
0.0
 40
1.2
  0
ARC
  8
0
  6
CONTINUOUS
 62
     2
 10
67.0
 20
72.799998221
 30
0.0
 40
2.4
 50
180.0
 51
0.0
  0
ARC
  8
0
  6
CONTINUOUS
 62
     2
 10
67.0
 20
72.799998221
 30
0.0
 40
3.9
 50
180.0
 51
0.0
  0
LINE
  8
0
  6
CONTINUOUS
 62
     2
 10
69.4
 20
82.799998221
 30
0.0
 11
69.4
 21
72.799998221
 31
0.0
  0
LINE
  8
0
  6
CONTINUOUS
 62
     2
 10
64.6
 20
82.799998221
 30
0.0
 11
64.6
 21
72.799998221
 31
0.0
  0
LINE
  8
0
  6
CONTINUOUS
 62
     2
 10
63.1
 20
82.799998221
 30
0.0
 11
63.1
 21
72.799998221
 31
0.0
  0
LINE
  8
0
  6
CONTINUOUS
 62
     2
 10
70.9
 20
82.799998221
 30
0.0
 11
70.9
 21
72.799998221
 31
0.0
  0
POLYLINE
  8
0
  6
CONTINUOUS
 62
     2
 66
     1
  0
VERTEX
  8
0
  6
CONTINUOUS
 62
     2
 10
73.800571429
 20
83.903689296
 30
0.0
  0
VERTEX
  8
0
  6
CONTINUOUS
 62
     2
 10
74.014857143
 20
83.903689296
 30
0.0
  0
VERTEX
  8
0
  6
CONTINUOUS
 62
     2
 10
74.014857143
 20
82.403689296
 30
0.0
  0
VERTEX
  8
0
  6
CONTINUOUS
 62
     2
 10
74.229142857
 20
81.903689296
 30
0.0
  0
VERTEX
  8
0
  6
CONTINUOUS
 62
     2
 10
75.086285714
 20
81.903689296
 30
0.0
  0
VERTEX
  8
0
  6
CONTINUOUS
 62
     2
 10
75.300571429
 20
82.153689296
 30
0.0
  0
VERTEX
  8
0
  6
CONTINUOUS
 62
     2
 10
75.300571429
 20
83.903689296
 30
0.0
  0
SEQEND
  0
LINE
  8
0
  6
CONTINUOUS
 62
     2
 10
75.300571429
 20
82.153689296
 30
0.0
 11
75.514857143
 21
81.903689296
 31
0.0
  0
LINE
  8
0
  6
CONTINUOUS
 62
     2
 10
75.514857143
 20
81.903689296
 30
0.0
 11
75.729142857
 21
81.903689296
 31
0.0
  0
LINE
  8
0
  6
CONTINUOUS
 62
     2
 10
75.729142857
 20
81.903689296
 30
0.0
 11
75.943428571
 21
82.153689296
 31
0.0
  0
POLYLINE
  8
0
  6
CONTINUOUS
 62
     2
 66
     1
  0
VERTEX
  8
0
  6
CONTINUOUS
 62
     2
 10
73.890571429
 20
78.908689296
 30
0.0
  0
VERTEX
  8
0
  6
CONTINUOUS
 62
     2
 10
74.104857143
 20
78.908689296
 30
0.0
  0
VERTEX
  8
0
  6
CONTINUOUS
 62
     2
 10
74.104857143
 20
77.658689296
 30
0.0
  0
VERTEX
  8
0
  6
CONTINUOUS
 62
     2
 10
74.319142857
 20
77.158689296
 30
0.0
  0
VERTEX
  8
0
  6
CONTINUOUS
 62
     2
 10
74.533428571
 20
76.908689296
 30
0.0
  0
VERTEX
  8
0
  6
CONTINUOUS
 62
     2
 10
74.962
 20
76.908689296
 30
0.0
  0
VERTEX
  8
0
  6
CONTINUOUS
 62
     2
 10
75.176285714
 20
77.158689296
 30
0.0
  0
VERTEX
  8
0
  6
CONTINUOUS
 62
     2
 10
75.390571429
 20
77.658689296
 30
0.0
  0
VERTEX
  8
0
  6
CONTINUOUS
 62
     2
 10
75.390571429
 20
78.908689296
 30
0.0
  0
VERTEX
  8
0
  6
CONTINUOUS
 62
     2
 10
75.819142857
 20
78.908689296
 30
0.0
  0
SEQEND
  0
ARC
  8
0
  6
CONTINUOUS
 62
     2
 10
67.0
 20
82.799998221
 30
0.0
 40
2.4
 50
0.0
 51
180.0
  0
ARC
  8
0
  6
CONTINUOUS
 62
     2
 10
67.0
 20
82.799998221
 30
0.0
 40
3.9
 50
0.0
 51
180.0
  0
LINE
  8
0
  6
CONTINUOUS
 62
     2
 10
67.6
 20
83.839228705
 30
0.0
 11
69.367766953
 21
85.606995658
 31
0.0
  0
LINE
  8
0
  6
CONTINUOUS
 62
     2
 10
67.6
 20
83.839228705
 30
0.0
 11
68.247047613
 21
86.254043271
 31
0.0
  0
LINE
  8
0
  6
CONTINUOUS
 62
     2
 10
67.6
 20
83.839228705
 30
0.0
 11
84.385629263
 21
110.245791425
 31
0.0
  0
LINE
  8
0
  6
CONTINUOUS
 62
     2
 10
95.0
 20
103.333329518
 30
0.0
 11
94.48236191
 21
101.401477866
 31
0.0
  0
LINE
  8
0
  6
CONTINUOUS
 62
     2
 10
95.0
 20
103.333329518
 30
0.0
 11
95.51763809
 21
101.401477866
 31
0.0
  0
TEXT
  8
0
  6
CONTINUOUS
 62
     2
 10
94.253852275
 20
66.689996185
 30
0.3
 40
3.0
  1
１９０
 50
90.0
 41
0.9
 51
0.0
  7
KANJI0
  0
LINE
  8
0
  6
CONTINUOUS
 62
     2
 10
95.0
 20
103.333329518
 30
0.0
 11
95.0
 21
40.0
 31
0.0
  0
LINE
  8
0
  6
CONTINUOUS
 62
     2
 10
81.667648376
 20
103.333334232
 30
0.0
 11
97.0
 21
103.333329518
 31
0.0
  0
TEXT
  8
0
  6
CONTINUOUS
 62
     2
 10
173.058656234
 20
73.500323005
 30
0.3
 40
3.0
  1
Ｎ．Ｐ
 50
0.0
 41
0.9
 51
0.0
  7
KANJI0
  0
LINE
  8
0
  6
CONTINUOUS
 62
     2
 10
173.058656234
 20
73.058656234
 30
0.0
 11
180.407656234
 21
73.058656234
 31
0.0
  0
LINE
  8
0
  6
CONTINUOUS
 62
     2
 10
116.667
 20
40.0
 30
0.0
 11
163.333333333
 21
40.0
 31
0.0
  0
LINE
  8
0
  6
CONTINUOUS
 62
     2
 10
116.667
 20
40.6
 30
0.0
 11
163.333333333
 21
40.6
 31
0.0
  0
LINE
  8
0
  6
CONTINUOUS
 62
     2
 10
140.0
 20
40.0
 30
0.0
 11
142.165063509
 21
41.25
 31
0.0
  0
LINE
  8
0
  6
CONTINUOUS
 62
     2
 10
140.0
 20
40.0
 30
0.0
 11
141.25
 21
42.165063509
 31
0.0
  0
LINE
  8
0
  6
CONTINUOUS
 62
     2
 10
140.0
 20
40.0
 30
0.0
 11
173.058656234
 21
73.058656234
 31
0.0
  0
TEXT
  8
0
  6
CONTINUOUS
 62
     2
 10
179.5
 20
154.25
 30
2.0
 40
3.0
  1
一次電圧
 50
0.0
 41
1.0
 51
0.0
  7
KANJI4
  0
TEXT
  8
0
  6
CONTINUOUS
 62
     2
 10
179.5
 20
149.75
 30
2.0
 40
3.0
  1
二次電圧
 50
0.0
 41
1.0
 51
0.0
  7
KANJI4
  0
LINE
  8
0
  6
CONTINUOUS
 62
     2
 10
223.0
 20
140.0
 30
0.0
 11
178.0
 21
140.0
 31
0.0
  0
LINE
  8
0
  6
CONTINUOUS
 62
     2
 10
223.0
 20
153.5
 30
0.0
 11
178.0
 21
153.5
 31
0.0
  0
LINE
  8
0
  6
CONTINUOUS
 62
     2
 10
223.0
 20
149.0
 30
0.0
 11
178.0
 21
149.0
 31
0.0
  0
TEXT
  8
0
  6
CONTINUOUS
 62
     2
 10
179.5
 20
167.75
 30
12.0
 40
3.0
  1
規格
 50
0.0
 41
1.0
 51
0.0
  7
KANJI1
  0
LINE
  8
0
  6
CONTINUOUS
 62
     2
 10
223.0
 20
167.0
 30
0.0
 11
178.0
 21
167.0
 31
0.0
  0
LINE
  8
0
  6
CONTINUOUS
 62
     2
 10
223.0
 20
162.5
 30
0.0
 11
178.0
 21
162.5
 31
0.0
  0
TEXT
  8
0
  6
CONTINUOUS
 62
     2
 10
179.5
 20
163.25
 30
2.0
 40
3.0
  1
定格負担
 50
0.0
 41
1.0
 51
0.0
  7
KANJI4
  0
LINE
  8
0
  6
CONTINUOUS
 62
     2
 10
223.0
 20
135.5
 30
0.0
 11
178.0
 21
135.5
 31
0.0
  0
LINE
  8
0
  6
CONTINUOUS
 62
     2
 10
223.0
 20
158.0
 30
0.0
 11
178.0
 21
158.0
 31
0.0
  0
TEXT
  8
0
  6
CONTINUOUS
 62
     2
 10
179.5
 20
158.75
 30
2.0
 40
3.0
  1
階　　級
 50
0.0
 41
1.0
 51
0.0
  7
KANJI4
  0
TEXT
  8
0
  6
CONTINUOUS
 62
     2
 10
179.5
 20
145.25
 30
12.0
 40
3.0
  1
相数
 50
0.0
 41
1.0
 51
0.0
  7
KANJI1
  0
LINE
  8
0
  6
CONTINUOUS
 62
     2
 10
223.0
 20
144.5
 30
0.0
 11
178.0
 21
144.5
 31
0.0
  0
TEXT
  8
0
  6
CONTINUOUS
 62
     2
 10
179.5
 20
140.75
 30
4.5
 40
3.0
  1
周波数
 50
0.0
 41
1.0
 51
0.0
  7
KANJI5
  0
TEXT
  8
0
  6
CONTINUOUS
 62
     2
 10
203.0
 20
140.75
 30
0.3
 40
3.0
  1
５０／６０　Ｈｚ
 50
0.0
 41
0.6
 51
0.0
  7
KANJI3
  0
TEXT
  8
0
  6
CONTINUOUS
 62
     2
 10
200.153
 20
154.25
 30
0.3
 40
3.0
  1
３３００－６６００Ｖ
 50
0.0
 41
0.6
 51
0.0
  7
KANJI3
  0
TEXT
  8
0
  6
CONTINUOUS
 62
     2
 10
205.81
 20
163.25
 30
0.3
 40
3.0
  1
５０ＶＡ
 50
0.0
 41
0.7
 51
0.0
  7
KANJI6
  0
TEXT
  8
0
  6
CONTINUOUS
 62
     2
 10
206.869
 20
158.75
 30
0.3
 40
3.0
  1
１．０
 50
0.0
 41
0.8
 51
0.0
  7
KANJI7
  0
TEXT
  8
0
  6
CONTINUOUS
 62
     2
 10
206.87
 20
149.75
 30
0.3
 40
3.0
  1
１１０Ｖ
 50
0.0
 41
0.6
 51
0.0
  7
KANJI3
  0
TEXT
  8
0
  6
CONTINUOUS
 62
     2
 10
206.427
 20
145.25
 30
0.3
 40
3.0
  1
１　φ
 50
0.0
 41
0.9
 51
0.0
  7
KANJI8
  0
TEXT
  8
0
  6
CONTINUOUS
 62
     2
 10
198.652
 20
167.75
 30
0.0
 40
3.0
  1
ＪＩＳ　Ｃ　１７３１，ＪＥＣ　１２０１
 50
0.0
 41
0.433333333
 51
0.0
  7
KANJI9
  0
TEXT
  8
0
  6
CONTINUOUS
 62
     2
 10
179.5
 20
136.25
 30
12.0
 40
3.0
  1
質量
 50
0.0
 41
1.0
 51
0.0
  7
KANJI1
  0
TEXT
  8
0
  6
CONTINUOUS
 62
     2
 10
205.103
 20
136.25
 30
0.3
 40
3.0
  1
約７．０ｋｇ
 50
0.0
 41
0.6
 51
0.0
  7
KANJI3
  0
TEXT
  8
0
  6
CONTINUOUS
 62
     2
 10
204.838
 20
131.75
 30
0.3
 40
3.0
  1
ヒューズ付
 50
0.0
 41
0.7
 51
0.0
  7
KANJI6
  0
LINE
  8
0
  6
CONTINUOUS
 62
     2
 10
223.0
 20
126.5
 30
0.0
 11
178.0
 21
126.5
 31
0.0
  0
TEXT
  8
0
  6
CONTINUOUS
 62
     2
 10
198.373420361
 20
127.5
 30
0.1
 40
2.5
  1
１５　×１１０　（形名ＭＰＴ１１０）
 50
0.0
 41
0.88
 51
0.0
  7
KANJI10
  0
TEXT
  8
0
  6
CONTINUOUS
 62
     2
 10
200.419477836
 20
129.0
 30
0.2
 40
2.0
  1
φ
 50
0.0
 41
0.9
 51
0.0
  7
KANJI11
  0
ARC
  8
0
  6
CONTINUOUS
 62
     2
 10
208.388085577
 20
129.614850011
 30
0.0
 40
0.218582158
 50
0.0
 51
175.063900229
  0
ARC
  8
0
  6
CONTINUOUS
 62
     2
 10
206.038225581
 20
129.016387108
 30
0.0
 40
2.637243437
 50
351.233883044
 51
13.116244519
  0
ARC
  8
0
  6
CONTINUOUS
 62
     2
 10
207.533635952
 20
128.693127661
 30
0.0
 40
1.111555061
 50
295.517424946
 51
355.487941371
  0
ARC
  8
0
  6
CONTINUOUS
 62
     2
 10
210.737945574
 20
129.016387108
 30
0.0
 40
2.637243437
 50
166.883755481
 51
188.766116956
  0
ARC
  8
0
  6
CONTINUOUS
 62
     2
 10
209.242535203
 20
128.693127661
 30
0.0
 40
1.111555061
 50
184.512058629
 51
244.482575054
  0
LINE
  8
0
  6
CONTINUOUS
 62
     2
 10
223.0
 20
131.0
 30
0.0
 11
198.0
 21
131.0
 31
0.0
  0
TEXT
  8
0
  6
CONTINUOUS
 62
     2
 10
179.5
 20
130.012
 30
12.0
 40
3.0
  1
摘要
 50
0.0
 41
1.0
 51
0.0
  7
KANJI1
  0
LINE
  8
0
  6
CONTINUOUS
 62
     2
 10
223.0
 20
117.5
 30
0.0
 11
178.0
 21
117.5
 31
0.0
  0
LINE
  8
0
  6
CONTINUOUS
 62
     2
 10
178.0
 20
117.5
 30
0.0
 11
178.0
 21
185.0
 31
0.0
  0
LINE
  8
0
  6
CONTINUOUS
 62
     2
 10
198.0
 20
185.0
 30
0.0
 11
198.0
 21
117.5
 31
0.0
  0
LINE
  8
0
  6
CONTINUOUS
 62
     2
 10
223.0
 20
185.0
 30
0.0
 11
223.0
 21
117.5
 31
0.0
  0
LINE
  8
0
  6
CONTINUOUS
 62
     2
 10
223.0
 20
122.0
 30
0.0
 11
198.0
 21
122.0
 31
0.0
  0
TEXT
  8
0
  6
CONTINUOUS
 62
     2
 10
179.5
 20
120.923
 30
2.0
 40
3.0
  1
絶縁階級
 50
0.0
 41
1.0
 51
0.0
  7
KANJI4
  0
TEXT
  8
0
  6
CONTINUOUS
 62
     2
 10
199.154
 20
122.75
 30
0.2
 40
3.0
  1
６号Ａ級（６Ｃａ）
 50
0.0
 41
0.833333333
 51
0.0
  7
KANJI12
  0
TEXT
  8
0
  6
CONTINUOUS
 62
     2
 10
199.154
 20
118.25
 30
0.2
 40
3.0
  1
３号Ａ級（３Ｃａ）
 50
0.0
 41
0.833333333
 51
0.0
  7
KANJI12
  0
LINE
  8
0
  6
CONTINUOUS
 62
     2
 10
223.0
 20
171.5
 30
0.0
 11
178.0
 21
171.5
 31
0.0
  0
TEXT
  8
0
  6
CONTINUOUS
 62
     2
 10
179.5
 20
172.25
 30
12.0
 40
3.0
  1
構造
 50
0.0
 41
1.0
 51
0.0
  7
KANJI1
  0
TEXT
  8
0
  6
CONTINUOUS
 62
     2
 10
205.077
 20
172.25
 30
0.2
 40
3.0
  1
乾式自冷
 50
0.0
 41
0.833333333
 51
0.0
  7
KANJI12
  0
LINE
  8
0
  6
CONTINUOUS
 62
     2
 10
126.667
 20
68.132998372
 30
0.0
 11
126.167
 21
68.132998372
 31
0.0
  0
LINE
  8
0
  6
CONTINUOUS
 62
     2
 10
153.833333333
 20
75.132998372
 30
0.0
 11
153.333333333
 21
75.132998372
 31
0.0
  0
LINE
  8
0
  6
CONTINUOUS
 62
     2
 10
126.167
 20
61.132998372
 30
0.0
 11
126.167
 21
68.132998372
 31
0.0
  0
ARC
  8
0
  6
CONTINUOUS
 62
     2
 10
127.167
 20
61.132998372
 30
0.0
 40
1.0
 50
180.0
 51
270.0
  0
LINE
  8
0
  6
CONTINUOUS
 62
     2
 10
153.833333333
 20
75.132998372
 30
0.0
 11
153.833333333
 21
61.132998372
 31
0.0
  0
LINE
  8
0
  6
CONTINUOUS
 62
     2
 10
152.833333333
 20
60.132998372
 30
0.0
 11
127.167
 21
60.132998372
 31
0.0
  0
ARC
  8
0
  6
CONTINUOUS
 62
     2
 10
152.833333333
 20
61.132998372
 30
0.0
 40
1.0
 50
270.0
 51
0.0
  0
LINE
  8
0
  6
CONTINUOUS
 62
     2
 10
153.333333333
 20
92.999998372
 30
0.0
 11
153.333333333
 21
64.524711206
 31
0.0
  0
LINE
  8
0
  6
CONTINUOUS
 62
     2
 10
140.0
 20
62.132998372
 30
0.0
 11
151.945518256
 21
63.028912241
 31
0.0
  0
ARC
  8
0
  6
CONTINUOUS
 62
     2
 10
151.833333333
 20
64.524711206
 30
0.0
 40
1.5
 50
274.289153329
 51
0.0
  0
LINE
  8
0
  6
CONTINUOUS
 62
     2
 10
128.054812289
 20
63.028909848
 30
0.0
 11
140.0
 21
62.132998372
 31
0.0
  0
LINE
  8
0
  6
CONTINUOUS
 62
     2
 10
126.667
 20
64.524708604
 30
0.0
 11
126.667
 21
92.999998372
 31
0.0
  0
ARC
  8
0
  6
CONTINUOUS
 62
     2
 10
128.167
 20
64.524708604
 30
0.0
 40
1.5
 50
180.0
 51
265.71073984
  0
LINE
  8
0
  6
CONTINUOUS
 62
     2
 10
36.999999992
 20
92.999998599
 30
0.0
 11
36.999999975
 21
72.13299838
 31
0.0
  0
ARC
  8
0
  6
CONTINUOUS
 62
     2
 10
46.999999975
 20
72.132998372
 30
0.0
 40
10.0
 50
180.0
 51
270.0
  0
LINE
  8
0
  6
CONTINUOUS
 62
     2
 10
72.999999992
 20
92.999998145
 30
0.0
 11
72.999999975
 21
72.132998364
 31
0.0
  0
ARC
  8
0
  6
CONTINUOUS
 62
     2
 10
62.999999975
 20
72.132998372
 30
0.0
 40
10.0
 50
270.0
 51
0.0
  0
LINE
  8
0
  6
LTYPE1
 62
     2
 10
120.0
 20
43.0
 30
0.0
 11
120.0
 21
40.0
 31
0.0
  0
LINE
  8
0
  6
LTYPE1
 62
     2
 10
160.0
 20
43.0
 30
0.0
 11
160.0
 21
40.0
 31
0.0
  0
LINE
  8
0
  6
LTYPE1
 62
     2
 10
36.666999992
 20
43.0
 30
0.0
 11
36.666999992
 21
40.0
 31
0.0
  0
LINE
  8
0
  6
LTYPE1
 62
     2
 10
73.333333325
 20
43.0
 30
0.0
 11
73.333333325
 21
40.0
 31
0.0
  0
LINE
  8
0
  6
LTYPE1
 62
     2
 10
55.0
 20
37.163836171
 30
0.0
 11
55.0
 21
114.923161027
 31
0.0
  0
LINE
  8
0
  6
LTYPE1
 62
     2
 10
140.0
 20
36.233588211
 30
0.0
 11
140.0
 21
113.625922974
 31
0.0
  0
LINE
  8
0
  6
LTYPE1
 62
     2
 10
55.0
 20
120.494502838
 30
0.0
 11
55.0
 21
179.256827694
 31
0.0
  0
LINE
  8
0
  6
LTYPE1
 62
     2
 10
25.494502838
 20
150.0
 30
0.0
 11
84.256827694
 21
150.0
 31
0.0
  0
LINE
  8
0
  6
LTYPE1
 62
     2
 10
62.0
 20
82.799998221
 30
0.0
 11
72.0
 21
82.799998221
 31
0.0
  0
LINE
  8
0
  6
LTYPE1
 62
     2
 10
62.0
 20
77.799998221
 30
0.0
 11
72.0
 21
77.799998221
 31
0.0
  0
LINE
  8
0
  6
LTYPE1
 62
     2
 10
39.0
 20
107.333333333
 30
0.0
 11
39.0
 21
97.5
 31
0.0
  0
LINE
  8
0
  6
LTYPE1
 62
     2
 10
35.0
 20
138.333333333
 30
0.0
 11
75.5
 21
138.333333333
 31
0.0
  0
LINE
  8
0
  6
LTYPE1
 62
     2
 10
39.0
 20
134.333333333
 30
0.0
 11
39.0
 21
142.333333333
 31
0.0
  0
LINE
  8
0
  6
LTYPE1
 62
     2
 10
71.5
 20
165.666666667
 30
0.0
 11
71.5
 21
157.666666667
 31
0.0
  0
LINE
  8
0
  6
LTYPE1
 62
     2
 10
35.0
 20
161.666666667
 30
0.0
 11
75.5
 21
161.666666667
 31
0.0
  0
LINE
  8
0
  6
LTYPE1
 62
     2
 10
34.5
 20
103.333333333
 30
0.0
 11
75.57
 21
103.333333333
 31
0.0
  0
LINE
  8
0
  6
LTYPE1
 62
     2
 10
67.5
 20
107.333333333
 30
0.0
 11
67.5
 21
97.5
 31
0.0
  0
LINE
  8
0
  6
LTYPE1
 62
     2
 10
71.5
 20
104.67633331
 30
0.0
 11
71.5
 21
97.499999977
 31
0.0
  0
LINE
  8
0
  6
LTYPE1
 62
     2
 10
71.5
 20
134.333333333
 30
0.0
 11
71.5
 21
142.333333333
 31
0.0
  0
LINE
  8
0
  6
LTYPE1
 62
     2
 10
67.0
 20
87.699998221
 30
0.0
 11
67.0
 21
67.899998221
 31
0.0
  0
LINE
  8
0
  6
LTYPE1
 62
     2
 10
62.0
 20
72.799998221
 30
0.0
 11
72.0
 21
72.799998221
 31
0.0
  0
LINE
  8
0
  6
LTYPE1
 62
     2
 10
119.867
 20
77.799998221
 30
0.0
 11
124.667
 21
77.799998221
 31
0.0
  0
LINE
  8
0
  6
LTYPE1
 62
     2
 10
119.867
 20
82.799998221
 30
0.0
 11
124.667
 21
82.799998221
 31
0.0
  0
LINE
  8
0
  6
LTYPE1
 62
     2
 10
124.333
 20
103.333333333
 30
0.0
 11
132.333
 21
103.333333333
 31
0.0
  0
LINE
  8
0
  6
LTYPE1
 62
     2
 10
128.333
 20
107.333333333
 30
0.0
 11
128.333
 21
98.333333333
 31
0.0
  0
LINE
  8
0
  6
LTYPE1
 62
     2
 10
151.666666667
 20
107.333333333
 30
0.0
 11
151.666666667
 21
98.333333333
 31
0.0
  0
LINE
  8
0
  6
LTYPE1
 62
     2
 10
147.666666667
 20
103.333333333
 30
0.0
 11
155.666666667
 21
103.333333333
 31
0.0
  0
TEXT
  8
0
  6
CONTINUOUS
 62
     2
 10
65.926
 20
16.117666771
 30
0.3
 40
3.0
  1
取付用小判穴
 50
0.0
 41
0.9
 51
0.0
  7
KANJI0
  0
TEXT
  8
0
  6
CONTINUOUS
 62
     2
 10
154.732333333
 20
158.755335042
 30
0.3
 40
3.0
  1
ヒューズ
 50
0.0
 41
0.9
 51
0.0
  7
KANJI0
  0
TEXT
  8
0
  6
CONTINUOUS
 62
     2
 10
106.024333333
 20
158.755335042
 30
0.3
 40
3.0
  1
ヒューズ
 50
0.0
 41
0.9
 51
0.0
  7
KANJI0
  0
TEXT
  8
0
  6
CONTINUOUS
 62
     1
 10
183.0
 20
50.0
 30
0.0
 40
4.0
  1
エポキシモールド計器用変圧器外形図
 50
0.0
 41
0.75
 51
0.0
  7
KANJI13
  0
TEXT
  8
0
  6
CONTINUOUS
 62
     3
 10
185.0
 20
33.0
 30
0.2
 40
5.8
  1
ＭＳ－９４４７Ｂ
 50
0.0
 41
0.827586207
 51
0.0
  7
KANJI14
  0
TEXT
  8
0
  6
CONTINUOUS
 62
     1
 10
185.0
 20
63.946
 30
0.4
 40
4.0
  1
ＰＭｅ－３Ｃａ
 50
0.0
 41
0.9
 51
0.0
  7
KANJI15
  0
TEXT
  8
0
  6
CONTINUOUS
 62
     1
 10
185.0
 20
58.946
 30
0.4
 40
4.0
  1
ＰＭｅ－６Ｃａ
 50
0.0
 41
0.9
 51
0.0
  7
KANJI15
  0
ENDSEC
  0
EOF
