  0
SECTION
  2
HEADER
  9
$ACADVER
  1
AC1009
  9
$DWGCODEPAGE
  3
dos932
  9
$EXTMIN
 10
0.0
 20
0.0
 30
0.0
  9
$EXTMAX
 10
297.0
 20
210.0
 30
0.0
  9
$LIMMIN
 10
0.0
 20
0.0
  9
$LIMMAX
 10
297.0
 20
210.0
  9
$LTSCALE
 40
1.0
  9
$PDMODE
 70
     0
  0
ENDSEC
  0
SECTION
  2
TABLES
  0
TABLE
  2
VPORT
 70
     1
  0
VPORT
  2
*ACTIVE
 70
     0
 10
0.0
 20
0.0
 11
1.0
 21
1.0
 12
148.5
 22
105.0
 13
0.0
 23
0.0
 14
10.0
 24
10.0
 15
10.0
 25
10.0
 16
0.0
 26
0.0
 36
1.0
 17
0.0
 27
0.0
 37
0.0
 40
297.0
 41
1.414285714
 42
50.0
 43
0.0
 44
0.0
 50
0.0
 51
0.0
 71
     0
 72
  1000
 73
     1
 74
     3
 75
     0
 76
     0
 77
     0
 78
     0
  0
ENDTAB
  0
TABLE
  2
LTYPE
 70
     3
  0
LTYPE
  2
CONTINUOUS
 70
    64
  3
Solid line
 72
    65
 73
     0
 40
0.0
  0
LTYPE
  2
LTYPE1
 70
    64
  3
HIDDEN
 72
    65
 73
     2
 40
2.0
 49
1.2
 49
-0.8
  0
LTYPE
  2
LTYPE2
 70
    64
  3
CENTER
 72
    65
 73
     4
 40
5.0
 49
3.5
 49
-0.5
 49
0.5
 49
-0.5
  0
ENDTAB
  0
TABLE
  2
LAYER
 70
   128
  0
LAYER
  2
0
 70
     0
 62
     7
  6
CONTINUOUS
  0
LAYER
  2
2
 70
     0
 62
     7
  6
CONTINUOUS
  0
LAYER
  2
3
 70
     0
 62
     7
  6
CONTINUOUS
  0
LAYER
  2
4
 70
     0
 62
     7
  6
CONTINUOUS
  0
LAYER
  2
5
 70
     0
 62
     7
  6
CONTINUOUS
  0
LAYER
  2
6
 70
     0
 62
     7
  6
CONTINUOUS
  0
LAYER
  2
7
 70
     0
 62
     7
  6
CONTINUOUS
  0
LAYER
  2
8
 70
     0
 62
     7
  6
CONTINUOUS
  0
LAYER
  2
9
 70
     0
 62
     7
  6
CONTINUOUS
  0
LAYER
  2
10
 70
     0
 62
     7
  6
CONTINUOUS
  0
LAYER
  2
11
 70
     0
 62
     7
  6
CONTINUOUS
  0
LAYER
  2
12
 70
     0
 62
     7
  6
CONTINUOUS
  0
LAYER
  2
13
 70
     0
 62
     7
  6
CONTINUOUS
  0
LAYER
  2
14
 70
     0
 62
     7
  6
CONTINUOUS
  0
LAYER
  2
15
 70
     0
 62
     7
  6
CONTINUOUS
  0
LAYER
  2
16
 70
     0
 62
     7
  6
CONTINUOUS
  0
LAYER
  2
17
 70
     0
 62
     7
  6
CONTINUOUS
  0
LAYER
  2
18
 70
     0
 62
     7
  6
CONTINUOUS
  0
LAYER
  2
19
 70
     0
 62
     7
  6
CONTINUOUS
  0
LAYER
  2
20
 70
     0
 62
     7
  6
CONTINUOUS
  0
LAYER
  2
21
 70
     0
 62
     7
  6
CONTINUOUS
  0
LAYER
  2
22
 70
     0
 62
     7
  6
CONTINUOUS
  0
LAYER
  2
23
 70
     0
 62
     7
  6
CONTINUOUS
  0
LAYER
  2
24
 70
     0
 62
     7
  6
CONTINUOUS
  0
LAYER
  2
25
 70
     0
 62
     7
  6
CONTINUOUS
  0
LAYER
  2
26
 70
     0
 62
     7
  6
CONTINUOUS
  0
LAYER
  2
27
 70
     0
 62
     7
  6
CONTINUOUS
  0
LAYER
  2
28
 70
     0
 62
     7
  6
CONTINUOUS
  0
LAYER
  2
29
 70
     0
 62
     7
  6
CONTINUOUS
  0
LAYER
  2
30
 70
     0
 62
     7
  6
CONTINUOUS
  0
LAYER
  2
31
 70
     0
 62
     7
  6
CONTINUOUS
  0
LAYER
  2
32
 70
     0
 62
     7
  6
CONTINUOUS
  0
LAYER
  2
33
 70
     0
 62
     7
  6
CONTINUOUS
  0
LAYER
  2
34
 70
     0
 62
     7
  6
CONTINUOUS
  0
LAYER
  2
35
 70
     0
 62
     7
  6
CONTINUOUS
  0
LAYER
  2
36
 70
     0
 62
     7
  6
CONTINUOUS
  0
LAYER
  2
37
 70
     0
 62
     7
  6
CONTINUOUS
  0
LAYER
  2
38
 70
     0
 62
     7
  6
CONTINUOUS
  0
LAYER
  2
39
 70
     0
 62
     7
  6
CONTINUOUS
  0
LAYER
  2
40
 70
     0
 62
     7
  6
CONTINUOUS
  0
LAYER
  2
41
 70
     0
 62
     7
  6
CONTINUOUS
  0
LAYER
  2
42
 70
     0
 62
     7
  6
CONTINUOUS
  0
LAYER
  2
43
 70
     0
 62
     7
  6
CONTINUOUS
  0
LAYER
  2
44
 70
     0
 62
     7
  6
CONTINUOUS
  0
LAYER
  2
45
 70
     0
 62
     7
  6
CONTINUOUS
  0
LAYER
  2
46
 70
     0
 62
     7
  6
CONTINUOUS
  0
LAYER
  2
47
 70
     0
 62
     7
  6
CONTINUOUS
  0
LAYER
  2
48
 70
     0
 62
     7
  6
CONTINUOUS
  0
LAYER
  2
49
 70
     0
 62
     7
  6
CONTINUOUS
  0
LAYER
  2
50
 70
     0
 62
     7
  6
CONTINUOUS
  0
LAYER
  2
51
 70
     0
 62
     7
  6
CONTINUOUS
  0
LAYER
  2
52
 70
     0
 62
     7
  6
CONTINUOUS
  0
LAYER
  2
53
 70
     0
 62
     7
  6
CONTINUOUS
  0
LAYER
  2
54
 70
     0
 62
     7
  6
CONTINUOUS
  0
LAYER
  2
55
 70
     0
 62
     7
  6
CONTINUOUS
  0
LAYER
  2
56
 70
     0
 62
     7
  6
CONTINUOUS
  0
LAYER
  2
57
 70
     0
 62
     7
  6
CONTINUOUS
  0
LAYER
  2
58
 70
     0
 62
     7
  6
CONTINUOUS
  0
LAYER
  2
59
 70
     0
 62
     7
  6
CONTINUOUS
  0
LAYER
  2
60
 70
     0
 62
     7
  6
CONTINUOUS
  0
LAYER
  2
61
 70
     0
 62
     7
  6
CONTINUOUS
  0
LAYER
  2
62
 70
     0
 62
     7
  6
CONTINUOUS
  0
LAYER
  2
63
 70
     0
 62
     7
  6
CONTINUOUS
  0
LAYER
  2
64
 70
     0
 62
     7
  6
CONTINUOUS
  0
LAYER
  2
65
 70
     0
 62
     7
  6
CONTINUOUS
  0
LAYER
  2
66
 70
     0
 62
     7
  6
CONTINUOUS
  0
LAYER
  2
67
 70
     0
 62
     7
  6
CONTINUOUS
  0
LAYER
  2
68
 70
     0
 62
     7
  6
CONTINUOUS
  0
LAYER
  2
69
 70
     0
 62
     7
  6
CONTINUOUS
  0
LAYER
  2
70
 70
     0
 62
     7
  6
CONTINUOUS
  0
LAYER
  2
71
 70
     0
 62
     7
  6
CONTINUOUS
  0
LAYER
  2
72
 70
     0
 62
     7
  6
CONTINUOUS
  0
LAYER
  2
73
 70
     0
 62
     7
  6
CONTINUOUS
  0
LAYER
  2
74
 70
     0
 62
     7
  6
CONTINUOUS
  0
LAYER
  2
75
 70
     0
 62
     7
  6
CONTINUOUS
  0
LAYER
  2
76
 70
     0
 62
     7
  6
CONTINUOUS
  0
LAYER
  2
77
 70
     0
 62
     7
  6
CONTINUOUS
  0
LAYER
  2
78
 70
     0
 62
     7
  6
CONTINUOUS
  0
LAYER
  2
79
 70
     0
 62
     7
  6
CONTINUOUS
  0
LAYER
  2
80
 70
     0
 62
     7
  6
CONTINUOUS
  0
LAYER
  2
81
 70
     0
 62
     7
  6
CONTINUOUS
  0
LAYER
  2
82
 70
     0
 62
     7
  6
CONTINUOUS
  0
LAYER
  2
83
 70
     0
 62
     7
  6
CONTINUOUS
  0
LAYER
  2
84
 70
     0
 62
     7
  6
CONTINUOUS
  0
LAYER
  2
85
 70
     0
 62
     7
  6
CONTINUOUS
  0
LAYER
  2
86
 70
     0
 62
     7
  6
CONTINUOUS
  0
LAYER
  2
87
 70
     0
 62
     7
  6
CONTINUOUS
  0
LAYER
  2
88
 70
     0
 62
     7
  6
CONTINUOUS
  0
LAYER
  2
89
 70
     0
 62
     7
  6
CONTINUOUS
  0
LAYER
  2
90
 70
     0
 62
     7
  6
CONTINUOUS
  0
LAYER
  2
91
 70
     0
 62
     7
  6
CONTINUOUS
  0
LAYER
  2
92
 70
     0
 62
     7
  6
CONTINUOUS
  0
LAYER
  2
93
 70
     0
 62
     7
  6
CONTINUOUS
  0
LAYER
  2
94
 70
     0
 62
     7
  6
CONTINUOUS
  0
LAYER
  2
95
 70
     0
 62
     7
  6
CONTINUOUS
  0
LAYER
  2
96
 70
     0
 62
     7
  6
CONTINUOUS
  0
LAYER
  2
97
 70
     0
 62
     7
  6
CONTINUOUS
  0
LAYER
  2
98
 70
     0
 62
     7
  6
CONTINUOUS
  0
LAYER
  2
99
 70
     0
 62
     7
  6
CONTINUOUS
  0
LAYER
  2
100
 70
     0
 62
     7
  6
CONTINUOUS
  0
LAYER
  2
101
 70
     0
 62
     7
  6
CONTINUOUS
  0
LAYER
  2
102
 70
     0
 62
     7
  6
CONTINUOUS
  0
LAYER
  2
103
 70
     0
 62
     7
  6
CONTINUOUS
  0
LAYER
  2
104
 70
     0
 62
     7
  6
CONTINUOUS
  0
LAYER
  2
105
 70
     0
 62
     7
  6
CONTINUOUS
  0
LAYER
  2
106
 70
     0
 62
     7
  6
CONTINUOUS
  0
LAYER
  2
107
 70
     0
 62
     7
  6
CONTINUOUS
  0
LAYER
  2
108
 70
     0
 62
     7
  6
CONTINUOUS
  0
LAYER
  2
109
 70
     0
 62
     7
  6
CONTINUOUS
  0
LAYER
  2
110
 70
     0
 62
     7
  6
CONTINUOUS
  0
LAYER
  2
111
 70
     0
 62
     7
  6
CONTINUOUS
  0
LAYER
  2
112
 70
     0
 62
     7
  6
CONTINUOUS
  0
LAYER
  2
113
 70
     0
 62
     7
  6
CONTINUOUS
  0
LAYER
  2
114
 70
     0
 62
     7
  6
CONTINUOUS
  0
LAYER
  2
115
 70
     0
 62
     7
  6
CONTINUOUS
  0
LAYER
  2
116
 70
     0
 62
     7
  6
CONTINUOUS
  0
LAYER
  2
117
 70
     0
 62
     7
  6
CONTINUOUS
  0
LAYER
  2
118
 70
     0
 62
     7
  6
CONTINUOUS
  0
LAYER
  2
119
 70
     0
 62
     7
  6
CONTINUOUS
  0
LAYER
  2
120
 70
     0
 62
     7
  6
CONTINUOUS
  0
LAYER
  2
121
 70
     0
 62
     7
  6
CONTINUOUS
  0
LAYER
  2
122
 70
     0
 62
     7
  6
CONTINUOUS
  0
LAYER
  2
123
 70
     0
 62
     7
  6
CONTINUOUS
  0
LAYER
  2
124
 70
     0
 62
     7
  6
CONTINUOUS
  0
LAYER
  2
125
 70
     0
 62
     7
  6
CONTINUOUS
  0
LAYER
  2
126
 70
     0
 62
     7
  6
CONTINUOUS
  0
LAYER
  2
127
 70
     0
 62
     7
  6
CONTINUOUS
  0
LAYER
  2
128
 70
     0
 62
     7
  6
CONTINUOUS
  0
ENDTAB
  0
TABLE
  2
STYLE
 70
    12
  0
STYLE
  2
STANDARD
 70
     0
 40
0.0
 41
1.0
 50
0.0
 71
     0
 42
0.2
  3
txt.shx
  4
extfont.shx
  0
STYLE
  2
KANJI0
 70
     0
 40
4.0
 41
0.9
 50
0.0
 71
     0
 42
4.0
  3
txt.shx
  4
extfont.shx
  0
STYLE
  2
KANJI1
 70
     0
 40
3.0
 41
0.45
 50
0.0
 71
     0
 42
3.0
  3
txt.shx
  4
extfont.shx
  0
STYLE
  2
KANJI2
 70
     0
 40
3.0
 41
0.9
 50
0.0
 71
     0
 42
3.0
  3
txt.shx
  4
extfont.shx
  0
STYLE
  2
KANJI3
 70
     0
 40
2.0
 41
0.9
 50
0.0
 71
     0
 42
2.0
  3
txt.shx
  4
extfont.shx
  0
STYLE
  2
KANJI4
 70
     0
 40
3.0
 41
0.9
 50
0.0
 71
     0
 42
3.0
  3
txt.shx
  4
extfont.shx
  0
STYLE
  2
KANJI5
 70
     0
 40
3.0
 41
0.9
 50
0.0
 71
     0
 42
3.0
  3
txt.shx
  4
extfont.shx
  0
STYLE
  2
KANJI6
 70
     0
 40
2.0
 41
0.75
 50
0.0
 71
     0
 42
2.0
  3
txt.shx
  4
extfont.shx
  0
STYLE
  2
KANJI7
 70
     4
 40
4.0
 41
0.9
 50
0.0
 71
     0
 42
4.0
  3
txt.shx
  4
extfont.shx
  0
STYLE
  2
KANJI8
 70
     0
 40
4.0
 41
0.75
 50
0.0
 71
     0
 42
4.0
  3
txt.shx
  4
extfont.shx
  0
STYLE
  2
KANJI9
 70
     0
 40
5.8
 41
0.827586207
 50
0.0
 71
     0
 42
5.8
  3
txt.shx
  4
extfont.shx
  0
STYLE
  2
KANJI10
 70
     0
 40
4.0
 41
0.9
 50
0.0
 71
     0
 42
4.0
  3
txt.shx
  4
extfont.shx
  0
ENDTAB
  0
TABLE
  2
VIEW
 70
     0
  0
ENDTAB
  0
ENDSEC
  0
SECTION
  2
BLOCKS
  0
ENDSEC
  0
SECTION
  2
ENTITIES
  0
LINE
  8
0
  6
CONTINUOUS
 62
     2
 10
163.0
 20
173.0
 30
0.0
 11
223.0
 21
173.0
 31
0.0
  0
LINE
  8
0
  6
CONTINUOUS
 62
     2
 10
163.0
 20
179.0
 30
0.0
 11
223.0
 21
179.0
 31
0.0
  0
LINE
  8
0
  6
CONTINUOUS
 62
     2
 10
163.0
 20
185.0
 30
0.0
 11
223.0
 21
185.0
 31
0.0
  0
TEXT
  8
0
  6
CONTINUOUS
 62
     2
 10
199.0
 20
173.9
 30
0.4
 40
4.0
  1
屋内用乾式
 50
0.0
 41
0.9
 51
0.0
  7
KANJI0
  0
LINE
  8
0
  6
CONTINUOUS
 62
     2
 10
195.5
 20
173.0
 30
0.0
 11
195.5
 21
179.0
 31
0.0
  0
LINE
  8
0
  6
CONTINUOUS
 62
     2
 10
163.0
 20
131.0
 30
0.0
 11
223.0
 21
131.0
 31
0.0
  0
LINE
  8
0
  6
CONTINUOUS
 62
     2
 10
223.0
 20
133.0
 30
0.0
 11
163.0
 21
133.0
 31
0.0
  0
LINE
  8
0
  6
CONTINUOUS
 62
     2
 10
163.0
 20
148.0
 30
0.0
 11
223.0
 21
148.0
 31
0.0
  0
LINE
  8
0
  6
CONTINUOUS
 62
     2
 10
163.0
 20
143.0
 30
0.0
 11
223.0
 21
143.0
 31
0.0
  0
LINE
  8
0
  6
CONTINUOUS
 62
     2
 10
163.0
 20
138.0
 30
0.0
 11
223.0
 21
138.0
 31
0.0
  0
LINE
  8
0
  6
CONTINUOUS
 62
     2
 10
178.0
 20
143.0
 30
0.0
 11
178.0
 21
133.0
 31
0.0
  0
LINE
  8
0
  6
CONTINUOUS
 62
     2
 10
203.0
 20
133.0
 30
0.0
 11
203.0
 21
143.0
 31
0.0
  0
LINE
  8
0
  6
CONTINUOUS
 62
     2
 10
213.0
 20
143.0
 30
0.0
 11
213.0
 21
138.0
 31
0.0
  0
TEXT
  8
0
  6
CONTINUOUS
 62
     2
 10
180.0
 20
139.0
 30
0.3
 40
3.0
  1
ＪＩＳ－Ｃ－１７３１
 50
0.0
 41
0.45
 51
0.0
  7
KANJI1
  0
LINE
  8
0
  6
CONTINUOUS
 62
     2
 10
198.0
 20
143.0
 30
0.0
 11
198.0
 21
173.0
 31
0.0
  0
LINE
  8
0
  6
CONTINUOUS
 62
     2
 10
173.0
 20
173.0
 30
0.0
 11
173.0
 21
148.0
 31
0.0
  0
LINE
  8
0
  6
CONTINUOUS
 62
     2
 10
173.0
 20
153.0
 30
0.0
 11
223.0
 21
153.0
 31
0.0
  0
LINE
  8
0
  6
CONTINUOUS
 62
     2
 10
173.0
 20
158.0
 30
0.0
 11
223.0
 21
158.0
 31
0.0
  0
LINE
  8
0
  6
CONTINUOUS
 62
     2
 10
173.0
 20
163.0
 30
0.0
 11
223.0
 21
163.0
 31
0.0
  0
LINE
  8
0
  6
CONTINUOUS
 62
     2
 10
163.0
 20
133.0
 30
0.0
 11
163.0
 21
185.0
 31
0.0
  0
LINE
  8
0
  6
CONTINUOUS
 62
     2
 10
223.0
 20
185.0
 30
0.0
 11
223.0
 21
133.0
 31
0.0
  0
TEXT
  8
0
  6
CONTINUOUS
 62
     2
 10
180.0
 20
159.0
 30
0.3
 40
3.0
  1
二次電圧
 50
0.0
 41
0.9
 51
0.0
  7
KANJI2
  0
TEXT
  8
0
  6
CONTINUOUS
 62
     2
 10
180.0
 20
149.0
 30
0.3
 40
3.0
  1
負　　担
 50
0.0
 41
0.9
 51
0.0
  7
KANJI2
  0
TEXT
  8
0
  6
CONTINUOUS
 62
     2
 10
180.0
 20
154.0
 30
0.3
 40
3.0
  1
周　波　数
 50
0.0
 41
0.9
 51
0.0
  7
KANJI2
  0
TEXT
  8
0
  6
CONTINUOUS
 62
     2
 10
206.0
 20
154.0
 30
0.3
 40
3.0
  1
５０／６０Ｈｚ
 50
0.0
 41
0.45
 51
0.0
  7
KANJI1
  0
TEXT
  8
0
  6
CONTINUOUS
 62
     2
 10
206.0
 20
159.0
 30
0.3
 40
3.0
  1
１１０Ｖ
 50
0.0
 41
0.45
 51
0.0
  7
KANJI1
  0
TEXT
  8
0
  6
CONTINUOUS
 62
     2
 10
166.5
 20
139.0
 30
0.3
 40
3.0
  1
規　格
 50
0.0
 41
0.9
 51
0.0
  7
KANJI2
  0
TEXT
  8
0
  6
CONTINUOUS
 62
     2
 10
204.0
 20
139.0
 30
0.3
 40
3.0
  1
階　級
 50
0.0
 41
0.9
 51
0.0
  7
KANJI2
  0
TEXT
  8
0
  6
CONTINUOUS
 62
     2
 10
207.0
 20
134.0
 30
0.3
 40
3.0
  1
ヒュース゛付
 50
0.0
 41
0.9
 51
0.0
  7
KANJI2
  0
TEXT
  8
0
  6
CONTINUOUS
 62
     2
 10
215.0
 20
139.0
 30
0.3
 40
3.0
  1
１．０　
 50
0.0
 41
0.45
 51
0.0
  7
KANJI1
  0
POLYLINE
  8
0
  6
CONTINUOUS
 62
     2
 66
     1
  0
VERTEX
  8
0
  6
CONTINUOUS
 62
     2
 10
223.0
 20
116.0
 30
0.0
  0
VERTEX
  8
0
  6
CONTINUOUS
 62
     2
 10
163.0
 20
116.0
 30
0.0
  0
VERTEX
  8
0
  6
CONTINUOUS
 62
     2
 10
163.0
 20
131.0
 30
0.0
  0
SEQEND
  0
LINE
  8
0
  6
CONTINUOUS
 62
     2
 10
223.0
 20
131.0
 30
0.0
 11
223.0
 21
116.0
 31
0.0
  0
LINE
  8
0
  6
CONTINUOUS
 62
     2
 10
223.0
 20
121.0
 30
0.0
 11
163.0
 21
121.0
 31
0.0
  0
TEXT
  8
0
  6
CONTINUOUS
 62
     2
 10
183.97828982
 20
118.5
 30
0.2
 40
2.0
  1
φ
 50
0.0
 41
0.9
 51
0.0
  7
KANJI3
  0
TEXT
  8
0
  6
CONTINUOUS
 62
     2
 10
166.0
 20
117.0
 30
0.3
 40
3.0
  1
ヒューズ　１５　×１１０　　（形名ＭＰＴ１１０）
 50
0.0
 41
0.9
 51
0.0
  7
KANJI4
  0
ARC
  8
0
  6
CONTINUOUS
 62
     2
 10
194.945019109
 20
119.425820013
 30
0.0
 40
0.26229859
 50
0.0
 51
175.063900229
  0
ARC
  8
0
  6
CONTINUOUS
 62
     2
 10
192.125187113
 20
118.707664529
 30
0.0
 40
3.164692124
 50
351.233883044
 51
13.116244519
  0
ARC
  8
0
  6
CONTINUOUS
 62
     2
 10
193.919679558
 20
118.319753193
 30
0.0
 40
1.333866073
 50
295.517424946
 51
355.487941371
  0
ARC
  8
0
  6
CONTINUOUS
 62
     2
 10
197.764851104
 20
118.707664529
 30
0.0
 40
3.164692124
 50
166.883755481
 51
188.766116956
  0
ARC
  8
0
  6
CONTINUOUS
 62
     2
 10
195.970358659
 20
118.319753193
 30
0.0
 40
1.333866073
 50
184.512058629
 51
244.482575054
  0
TEXT
  8
0
  6
CONTINUOUS
 62
     2
 10
166.0
 20
124.852
 30
0.3
 40
3.0
  1
絶縁階級
 50
0.0
 41
0.9
 51
0.0
  7
KANJI4
  0
LINE
  8
0
  6
CONTINUOUS
 62
     2
 10
180.0
 20
126.0
 30
0.0
 11
223.0
 21
126.0
 31
0.0
  0
TEXT
  8
0
  6
CONTINUOUS
 62
     2
 10
180.0
 20
166.185
 30
0.3
 40
3.0
  1
一次電圧
 50
0.0
 41
0.9
 51
0.0
  7
KANJI2
  0
TEXT
  8
0
  6
CONTINUOUS
 62
     2
 10
181.128
 20
175.991
 30
0.3
 40
3.0
  1
６
 50
0.0
 41
0.9
 51
0.0
  7
KANJI2
  0
CIRCLE
  8
0
  6
CONTINUOUS
 62
     2
 10
140.0
 20
140.000030518
 30
0.0
 40
0.75
  0
POLYLINE
  8
0
  6
CONTINUOUS
 62
     2
 66
     1
  0
VERTEX
  8
0
  6
CONTINUOUS
 62
     2
 10
139.107142857
 20
137.937652588
 30
0.0
  0
VERTEX
  8
0
  6
CONTINUOUS
 62
     2
 10
139.285714286
 20
137.937652588
 30
0.0
  0
VERTEX
  8
0
  6
CONTINUOUS
 62
     2
 10
139.285714286
 20
136.843902588
 30
0.0
  0
VERTEX
  8
0
  6
CONTINUOUS
 62
     2
 10
139.464285714
 20
136.406402588
 30
0.0
  0
VERTEX
  8
0
  6
CONTINUOUS
 62
     2
 10
139.642857143
 20
136.187652588
 30
0.0
  0
VERTEX
  8
0
  6
CONTINUOUS
 62
     2
 10
140.0
 20
136.187652588
 30
0.0
  0
VERTEX
  8
0
  6
CONTINUOUS
 62
     2
 10
140.178571429
 20
136.406402588
 30
0.0
  0
VERTEX
  8
0
  6
CONTINUOUS
 62
     2
 10
140.357142857
 20
136.843902588
 30
0.0
  0
VERTEX
  8
0
  6
CONTINUOUS
 62
     2
 10
140.357142857
 20
137.937652588
 30
0.0
  0
VERTEX
  8
0
  6
CONTINUOUS
 62
     2
 10
140.714285714
 20
137.937652588
 30
0.0
  0
SEQEND
  0
CIRCLE
  8
0
  6
CONTINUOUS
 62
     2
 10
140.0
 20
165.00012207
 30
0.0
 40
0.75
  0
LINE
  8
0
  6
CONTINUOUS
 62
     2
 10
139.0
 20
162.00012207
 30
0.0
 11
141.0
 21
162.00012207
 31
0.0
  0
LINE
  8
0
  6
CONTINUOUS
 62
     2
 10
141.0
 20
162.00012207
 30
0.0
 11
141.0
 21
158.00012207
 31
0.0
  0
LINE
  8
0
  6
CONTINUOUS
 62
     2
 10
141.0
 20
158.00012207
 30
0.0
 11
139.0
 21
158.00012207
 31
0.0
  0
LINE
  8
0
  6
CONTINUOUS
 62
     2
 10
139.0
 20
158.00012207
 30
0.0
 11
139.0
 21
162.00012207
 31
0.0
  0
LINE
  8
0
  6
CONTINUOUS
 62
     2
 10
141.0
 20
162.00012207
 30
0.0
 11
139.0
 21
158.00012207
 31
0.0
  0
LINE
  8
0
  6
CONTINUOUS
 62
     2
 10
140.0
 20
162.00012207
 30
0.0
 11
140.0
 21
164.25012207
 31
0.0
  0
POLYLINE
  8
0
  6
CONTINUOUS
 62
     2
 66
     1
  0
VERTEX
  8
0
  6
CONTINUOUS
 62
     2
 10
139.107142857
 20
169.31262207
 30
0.0
  0
VERTEX
  8
0
  6
CONTINUOUS
 62
     2
 10
139.821428571
 20
166.46887207
 30
0.0
  0
VERTEX
  8
0
  6
CONTINUOUS
 62
     2
 10
140.714285714
 20
169.31262207
 30
0.0
  0
SEQEND
  0
LINE
  8
0
  6
CONTINUOUS
 62
     2
 10
138.0
 20
152.00012207
 30
0.0
 11
136.0
 21
154.00012207
 31
0.0
  0
LINE
  8
0
  6
CONTINUOUS
 62
     2
 10
136.0
 20
154.00012207
 30
0.0
 11
134.0
 21
152.00012207
 31
0.0
  0
LINE
  8
0
  6
CONTINUOUS
 62
     2
 10
134.0
 20
152.00012207
 30
0.0
 11
132.0
 21
154.00012207
 31
0.0
  0
LINE
  8
0
  6
CONTINUOUS
 62
     2
 10
132.0
 20
154.00012207
 30
0.0
 11
130.0
 21
152.00012207
 31
0.0
  0
LINE
  8
0
  6
CONTINUOUS
 62
     2
 10
130.0
 20
152.00012207
 30
0.0
 11
128.0
 21
154.00012207
 31
0.0
  0
LINE
  8
0
  6
CONTINUOUS
 62
     2
 10
128.0
 20
154.00012207
 30
0.0
 11
126.0
 21
152.00012207
 31
0.0
  0
LINE
  8
0
  6
CONTINUOUS
 62
     2
 10
126.0
 20
152.00012207
 30
0.0
 11
124.0
 21
154.00012207
 31
0.0
  0
LINE
  8
0
  6
CONTINUOUS
 62
     2
 10
124.0
 20
154.00012207
 30
0.0
 11
122.0
 21
152.00012207
 31
0.0
  0
LINE
  8
0
  6
CONTINUOUS
 62
     2
 10
122.0
 20
152.00012207
 30
0.0
 11
120.0
 21
154.00012207
 31
0.0
  0
LINE
  8
0
  6
CONTINUOUS
 62
     2
 10
120.0
 20
154.00012207
 30
0.0
 11
118.0
 21
152.00012207
 31
0.0
  0
LINE
  8
0
  6
CONTINUOUS
 62
     2
 10
118.0
 20
152.00012207
 30
0.0
 11
116.0
 21
154.00012207
 31
0.0
  0
LINE
  8
0
  6
CONTINUOUS
 62
     2
 10
116.0
 20
154.00012207
 30
0.0
 11
114.0
 21
152.00012207
 31
0.0
  0
LINE
  8
0
  6
CONTINUOUS
 62
     2
 10
114.0
 20
152.00012207
 30
0.0
 11
112.0
 21
154.00012207
 31
0.0
  0
LINE
  8
0
  6
CONTINUOUS
 62
     2
 10
112.0
 20
154.00012207
 30
0.0
 11
110.0
 21
152.00012207
 31
0.0
  0
CIRCLE
  8
0
  6
CONTINUOUS
 62
     2
 10
108.0
 20
140.000030518
 30
0.0
 40
0.75
  0
POLYLINE
  8
0
  6
CONTINUOUS
 62
     2
 66
     1
  0
VERTEX
  8
0
  6
CONTINUOUS
 62
     2
 10
107.107142857
 20
137.718902588
 30
0.0
  0
VERTEX
  8
0
  6
CONTINUOUS
 62
     2
 10
107.285714286
 20
137.718902588
 30
0.0
  0
VERTEX
  8
0
  6
CONTINUOUS
 62
     2
 10
107.285714286
 20
136.406402588
 30
0.0
  0
VERTEX
  8
0
  6
CONTINUOUS
 62
     2
 10
107.464285714
 20
135.968902588
 30
0.0
  0
VERTEX
  8
0
  6
CONTINUOUS
 62
     2
 10
108.178571429
 20
135.968902588
 30
0.0
  0
VERTEX
  8
0
  6
CONTINUOUS
 62
     2
 10
108.357142857
 20
136.187652588
 30
0.0
  0
VERTEX
  8
0
  6
CONTINUOUS
 62
     2
 10
108.357142857
 20
137.718902588
 30
0.0
  0
SEQEND
  0
LINE
  8
0
  6
CONTINUOUS
 62
     2
 10
108.357142857
 20
136.187652588
 30
0.0
 11
108.535714286
 21
135.968902588
 31
0.0
  0
LINE
  8
0
  6
CONTINUOUS
 62
     2
 10
108.535714286
 20
135.968902588
 30
0.0
 11
108.714285714
 21
135.968902588
 31
0.0
  0
LINE
  8
0
  6
CONTINUOUS
 62
     2
 10
108.714285714
 20
135.968902588
 30
0.0
 11
108.892857143
 21
136.187652588
 31
0.0
  0
LINE
  8
0
  6
LTYPE1
 62
     2
 10
107.0
 20
150.0
 30
0.0
 11
141.0
 21
150.0
 31
0.0
  0
CIRCLE
  8
0
  6
CONTINUOUS
 62
     2
 10
108.0
 20
165.00012207
 30
0.0
 40
0.75
  0
LINE
  8
0
  6
CONTINUOUS
 62
     2
 10
107.0
 20
162.00012207
 30
0.0
 11
109.0
 21
162.00012207
 31
0.0
  0
LINE
  8
0
  6
CONTINUOUS
 62
     2
 10
109.0
 20
162.00012207
 30
0.0
 11
109.0
 21
158.00012207
 31
0.0
  0
LINE
  8
0
  6
CONTINUOUS
 62
     2
 10
109.0
 20
158.00012207
 30
0.0
 11
107.0
 21
158.00012207
 31
0.0
  0
LINE
  8
0
  6
CONTINUOUS
 62
     2
 10
107.0
 20
158.00012207
 30
0.0
 11
107.0
 21
162.00012207
 31
0.0
  0
LINE
  8
0
  6
CONTINUOUS
 62
     2
 10
109.0
 20
162.00012207
 30
0.0
 11
107.0
 21
158.00012207
 31
0.0
  0
LINE
  8
0
  6
CONTINUOUS
 62
     2
 10
108.0
 20
162.00012207
 30
0.0
 11
108.0
 21
164.25012207
 31
0.0
  0
POLYLINE
  8
0
  6
CONTINUOUS
 62
     2
 66
     1
  0
VERTEX
  8
0
  6
CONTINUOUS
 62
     2
 10
107.107142857
 20
167.12512207
 30
0.0
  0
VERTEX
  8
0
  6
CONTINUOUS
 62
     2
 10
107.285714286
 20
166.68762207
 30
0.0
  0
VERTEX
  8
0
  6
CONTINUOUS
 62
     2
 10
107.642857143
 20
166.46887207
 30
0.0
  0
VERTEX
  8
0
  6
CONTINUOUS
 62
     2
 10
108.178571429
 20
166.46887207
 30
0.0
  0
VERTEX
  8
0
  6
CONTINUOUS
 62
     2
 10
108.535714286
 20
166.68762207
 30
0.0
  0
VERTEX
  8
0
  6
CONTINUOUS
 62
     2
 10
108.714285714
 20
167.12512207
 30
0.0
  0
VERTEX
  8
0
  6
CONTINUOUS
 62
     2
 10
108.714285714
 20
169.31262207
 30
0.0
  0
SEQEND
  0
LINE
  8
0
  6
CONTINUOUS
 62
     2
 10
107.107142857
 20
167.12512207
 30
0.0
 11
107.107142857
 21
169.31262207
 31
0.0
  0
LINE
  8
0
  6
CONTINUOUS
 62
     2
 10
138.0
 20
147.99987793
 30
0.0
 11
136.0
 21
145.99987793
 31
0.0
  0
LINE
  8
0
  6
CONTINUOUS
 62
     2
 10
136.0
 20
145.99987793
 30
0.0
 11
134.0
 21
147.99987793
 31
0.0
  0
LINE
  8
0
  6
CONTINUOUS
 62
     2
 10
134.0
 20
147.99987793
 30
0.0
 11
132.0
 21
145.99987793
 31
0.0
  0
LINE
  8
0
  6
CONTINUOUS
 62
     2
 10
132.0
 20
145.99987793
 30
0.0
 11
130.0
 21
147.99987793
 31
0.0
  0
LINE
  8
0
  6
CONTINUOUS
 62
     2
 10
130.0
 20
147.99987793
 30
0.0
 11
128.0
 21
145.99987793
 31
0.0
  0
LINE
  8
0
  6
CONTINUOUS
 62
     2
 10
128.0
 20
145.99987793
 30
0.0
 11
126.0
 21
147.99987793
 31
0.0
  0
LINE
  8
0
  6
CONTINUOUS
 62
     2
 10
126.0
 20
147.99987793
 30
0.0
 11
124.0
 21
145.99987793
 31
0.0
  0
LINE
  8
0
  6
CONTINUOUS
 62
     2
 10
124.0
 20
145.99987793
 30
0.0
 11
122.0
 21
147.99987793
 31
0.0
  0
LINE
  8
0
  6
CONTINUOUS
 62
     2
 10
122.0
 20
147.99987793
 30
0.0
 11
120.0
 21
145.99987793
 31
0.0
  0
LINE
  8
0
  6
CONTINUOUS
 62
     2
 10
120.0
 20
145.99987793
 30
0.0
 11
118.0
 21
147.99987793
 31
0.0
  0
LINE
  8
0
  6
CONTINUOUS
 62
     2
 10
118.0
 20
147.99987793
 30
0.0
 11
116.0
 21
145.99987793
 31
0.0
  0
LINE
  8
0
  6
CONTINUOUS
 62
     2
 10
116.0
 20
145.99987793
 30
0.0
 11
114.0
 21
147.99987793
 31
0.0
  0
LINE
  8
0
  6
CONTINUOUS
 62
     2
 10
114.0
 20
147.99987793
 30
0.0
 11
112.0
 21
145.99987793
 31
0.0
  0
LINE
  8
0
  6
CONTINUOUS
 62
     2
 10
112.0
 20
145.99987793
 30
0.0
 11
110.0
 21
147.99987793
 31
0.0
  0
POLYLINE
  8
0
  6
CONTINUOUS
 62
     2
 66
     1
  0
VERTEX
  8
0
  6
CONTINUOUS
 62
     2
 10
110.0
 20
147.99987793
 30
0.0
  0
VERTEX
  8
0
  6
CONTINUOUS
 62
     2
 10
108.0
 20
145.99987793
 30
0.0
  0
VERTEX
  8
0
  6
CONTINUOUS
 62
     2
 10
108.0
 20
140.750030518
 30
0.0
  0
SEQEND
  0
LINE
  8
0
  6
CONTINUOUS
 62
     2
 10
140.0
 20
145.99987793
 30
0.0
 11
138.0
 21
147.99987793
 31
0.0
  0
LINE
  8
0
  6
CONTINUOUS
 62
     2
 10
140.0
 20
145.99987793
 30
0.0
 11
140.0
 21
140.750030518
 31
0.0
  0
LINE
  8
0
  6
CONTINUOUS
 62
     2
 10
140.0
 20
154.00012207
 30
0.0
 11
138.0
 21
152.00012207
 31
0.0
  0
LINE
  8
0
  6
CONTINUOUS
 62
     2
 10
140.0
 20
154.00012207
 30
0.0
 11
140.0
 21
158.00012207
 31
0.0
  0
LINE
  8
0
  6
CONTINUOUS
 62
     2
 10
110.0
 20
152.00012207
 30
0.0
 11
108.0
 21
154.00012207
 31
0.0
  0
LINE
  8
0
  6
CONTINUOUS
 62
     2
 10
108.0
 20
154.00012207
 30
0.0
 11
108.0
 21
158.00012207
 31
0.0
  0
TEXT
  8
0
  6
CONTINUOUS
 62
     2
 10
142.399
 20
154.255335042
 30
0.3
 40
3.0
  1
一次
 50
0.0
 41
0.9
 51
0.0
  7
KANJI5
  0
TEXT
  8
0
  6
CONTINUOUS
 62
     2
 10
142.399
 20
142.588335042
 30
0.3
 40
3.0
  1
二次
 50
0.0
 41
0.9
 51
0.0
  7
KANJI5
  0
TEXT
  8
0
  6
CONTINUOUS
 62
     2
 10
169.188
 20
173.123
 30
0.3
 40
3.0
  1
ＰＭｅ－３Ｅａ
 50
0.0
 41
0.9
 51
0.0
  7
KANJI2
  0
TEXT
  8
0
  6
CONTINUOUS
 62
     2
 10
206.0
 20
149.0
 30
0.3
 40
3.0
  1
２００ＶＡ
 50
0.0
 41
0.45
 51
0.0
  7
KANJI1
  0
TEXT
  8
0
  6
CONTINUOUS
 62
     2
 10
199.0
 20
144.0
 30
0.3
 40
3.0
  1
相　数　　１　φ
 50
0.0
 41
0.9
 51
0.0
  7
KANJI2
  0
TEXT
  8
0
  6
CONTINUOUS
 62
     2
 10
180.0
 20
134.0
 30
0.3
 40
3.0
  1
約　１６　ｋｇ
 50
0.0
 41
0.9
 51
0.0
  7
KANJI2
  0
TEXT
  8
0
  6
CONTINUOUS
 62
     2
 10
184.0
 20
127.1
 30
0.3
 40
3.0
  1
６号Ａ級（ＰＭｅ－６Ｅａ）
 50
0.0
 41
0.9
 51
0.0
  7
KANJI4
  0
TEXT
  8
0
  6
CONTINUOUS
 62
     2
 10
184.0
 20
122.1
 30
0.3
 40
3.0
  1
３号Ａ級（ＰＭｅ－３Ｅａ）
 50
0.0
 41
0.9
 51
0.0
  7
KANJI4
  0
LINE
  8
0
  6
CONTINUOUS
 62
     2
 10
32.5
 20
150.0
 30
0.0
 11
32.5
 21
149.944511154
 31
0.0
  0
LINE
  8
0
  6
CONTINUOUS
 62
     2
 10
77.499718754
 20
150.0
 30
0.0
 11
76.10804371
 21
168.595859497
 31
0.0
  0
ARC
  8
0
  6
CONTINUOUS
 62
     2
 10
71.901110902
 20
168.281021487
 30
0.0
 40
4.218697266
 50
4.279917431
 51
90.0
  0
LINE
  8
0
  6
CONTINUOUS
 62
     2
 10
77.499718754
 20
150.0
 30
0.0
 11
76.108040351
 21
131.40386317
 31
0.0
  0
ARC
  8
0
  6
CONTINUOUS
 62
     2
 10
71.90110725
 20
131.718697266
 30
0.0
 40
4.218697266
 50
270.0
 51
355.720135869
  0
LINE
  8
0
  6
CONTINUOUS
 62
     2
 10
32.500281246
 20
150.0
 30
0.0
 11
33.89195629
 21
168.595859497
 31
0.0
  0
ARC
  8
0
  6
CONTINUOUS
 62
     2
 10
38.098889098
 20
168.281021487
 30
0.0
 40
4.218697266
 50
90.0
 51
175.720082569
  0
LINE
  8
0
  6
CONTINUOUS
 62
     2
 10
32.500281246
 20
150.0
 30
0.0
 11
33.891959649
 21
131.40386317
 31
0.0
  0
ARC
  8
0
  6
CONTINUOUS
 62
     2
 10
38.09889275
 20
131.718697266
 30
0.0
 40
4.218697266
 50
184.279864131
 51
270.0
  0
LINE
  8
0
  6
CONTINUOUS
 62
     2
 10
38.098889098
 20
172.499718754
 30
0.0
 11
71.901110902
 21
172.499718754
 31
0.0
  0
LINE
  8
0
  6
CONTINUOUS
 62
     2
 10
71.90110725
 20
127.5
 30
0.0
 11
38.09889275
 21
127.5
 31
0.0
  0
POLYLINE
  8
0
  6
CONTINUOUS
 62
     2
 66
     1
  0
VERTEX
  8
0
  6
CONTINUOUS
 62
     2
 10
40.596162191
 20
68.822721309
 30
0.0
  0
VERTEX
  8
0
  6
CONTINUOUS
 62
     2
 10
40.776963502
 20
68.822721309
 30
0.0
  0
VERTEX
  8
0
  6
CONTINUOUS
 62
     2
 10
40.776963502
 20
67.557112129
 30
0.0
  0
VERTEX
  8
0
  6
CONTINUOUS
 62
     2
 10
40.957764814
 20
67.135242403
 30
0.0
  0
VERTEX
  8
0
  6
CONTINUOUS
 62
     2
 10
41.680970059
 20
67.135242403
 30
0.0
  0
VERTEX
  8
0
  6
CONTINUOUS
 62
     2
 10
41.861771371
 20
67.346177266
 30
0.0
  0
VERTEX
  8
0
  6
CONTINUOUS
 62
     2
 10
41.861771371
 20
68.822721309
 30
0.0
  0
SEQEND
  0
LINE
  8
0
  6
CONTINUOUS
 62
     2
 10
41.861771371
 20
67.346177266
 30
0.0
 11
42.042572682
 21
67.135242403
 31
0.0
  0
LINE
  8
0
  6
CONTINUOUS
 62
     2
 10
42.042572682
 20
67.135242403
 30
0.0
 11
42.223373994
 21
67.135242403
 31
0.0
  0
LINE
  8
0
  6
CONTINUOUS
 62
     2
 10
42.223373994
 20
67.135242403
 30
0.0
 11
42.404175305
 21
67.346177266
 31
0.0
  0
POLYLINE
  8
0
  6
CONTINUOUS
 62
     2
 66
     1
  0
VERTEX
  8
0
  6
CONTINUOUS
 62
     2
 10
67.595824695
 20
68.822721309
 30
0.0
  0
VERTEX
  8
0
  6
CONTINUOUS
 62
     2
 10
67.776626006
 20
68.822721309
 30
0.0
  0
VERTEX
  8
0
  6
CONTINUOUS
 62
     2
 10
67.776626006
 20
67.768046993
 30
0.0
  0
VERTEX
  8
0
  6
CONTINUOUS
 62
     2
 10
67.957427318
 20
67.346177266
 30
0.0
  0
VERTEX
  8
0
  6
CONTINUOUS
 62
     2
 10
68.138228629
 20
67.135242403
 30
0.0
  0
VERTEX
  8
0
  6
CONTINUOUS
 62
     2
 10
68.499831252
 20
67.135242403
 30
0.0
  0
VERTEX
  8
0
  6
CONTINUOUS
 62
     2
 10
68.680632564
 20
67.346177266
 30
0.0
  0
VERTEX
  8
0
  6
CONTINUOUS
 62
     2
 10
68.861433875
 20
67.768046993
 30
0.0
  0
VERTEX
  8
0
  6
CONTINUOUS
 62
     2
 10
68.861433875
 20
68.822721309
 30
0.0
  0
VERTEX
  8
0
  6
CONTINUOUS
 62
     2
 10
69.223036498
 20
68.822721309
 30
0.0
  0
SEQEND
  0
ARC
  8
0
  6
CONTINUOUS
 62
     2
 10
35.03121836
 20
96.468786283
 30
0.0
 40
2.53121836
 50
89.999986677
 51
180.0
  0
LINE
  8
0
  6
CONTINUOUS
 62
     2
 10
74.968500982
 20
98.999995357
 30
0.0
 11
35.031218948
 21
99.000004643
 31
0.0
  0
ARC
  8
0
  6
CONTINUOUS
 62
     2
 10
74.968500394
 20
96.468776997
 30
0.0
 40
2.53121836
 50
0.0
 51
89.999986677
  0
LINE
  8
0
  6
CONTINUOUS
 62
     2
 10
39.375
 20
41.0
 30
0.0
 11
39.375
 21
40.0
 31
0.0
  0
LINE
  8
0
  6
CONTINUOUS
 62
     2
 10
70.625
 20
41.0
 30
0.0
 11
70.625
 21
40.0
 31
0.0
  0
LINE
  8
0
  6
LTYPE2
 62
     2
 10
68.75
 20
66.29682754
 30
0.0
 11
68.75
 21
58.70317246
 31
0.0
  0
LINE
  8
0
  6
LTYPE2
 62
     2
 10
72.54682754
 20
62.5
 30
0.0
 11
64.95317246
 21
62.5
 31
0.0
  0
LINE
  8
0
  6
CONTINUOUS
 62
     2
 10
45.625
 20
53.75
 30
0.0
 11
44.875
 21
53.75
 31
0.0
  0
ARC
  8
0
  6
CONTINUOUS
 62
     2
 10
44.875
 20
61.75
 30
0.0
 40
8.0
 50
180.0
 51
270.0
  0
LINE
  8
0
  6
CONTINUOUS
 62
     2
 10
65.125
 20
53.75
 30
0.0
 11
64.375
 21
53.75
 31
0.0
  0
ARC
  8
0
  6
CONTINUOUS
 62
     2
 10
65.125
 20
61.75
 30
0.0
 40
8.0
 50
270.0
 51
0.0
  0
LINE
  8
0
  6
CONTINUOUS
 62
     2
 10
165.0
 20
40.0
 30
0.0
 11
115.0
 21
40.0
 31
0.0
  0
LINE
  8
0
  6
CONTINUOUS
 62
     2
 10
148.929103886
 20
95.317285471
 30
0.0
 11
148.453135753
 21
96.03121836
 31
0.0
  0
LINE
  8
0
  6
CONTINUOUS
 62
     2
 10
151.546851373
 20
96.03121836
 30
0.0
 11
151.070908988
 21
95.317285471
 31
0.0
  0
LINE
  8
0
  6
CONTINUOUS
 62
     2
 10
148.312521093
 20
95.241963547
 30
0.0
 11
151.687478907
 21
95.241963547
 31
0.0
  0
ARC
  8
0
  6
CONTINUOUS
 62
     2
 10
150.0
 20
93.5
 30
0.0
 40
2.109348633
 50
55.672738955
 51
59.489463806
  0
ARC
  8
0
  6
CONTINUOUS
 62
     2
 10
150.0
 20
93.5
 30
0.0
 40
2.109348633
 50
120.510139465
 51
124.327261045
  0
LINE
  8
0
  6
CONTINUOUS
 62
     2
 10
131.070896114
 20
95.317285471
 30
0.0
 11
131.546864247
 21
96.03121836
 31
0.0
  0
LINE
  8
0
  6
CONTINUOUS
 62
     2
 10
128.453148627
 20
96.03121836
 30
0.0
 11
128.929091012
 21
95.317285471
 31
0.0
  0
LINE
  8
0
  6
CONTINUOUS
 62
     2
 10
131.687478907
 20
95.241963547
 30
0.0
 11
128.312521093
 21
95.241963547
 31
0.0
  0
CIRCLE
  8
0
  6
CONTINUOUS
 62
     2
 10
68.75
 20
62.5
 30
0.0
 40
2.0
  0
CIRCLE
  8
0
  6
CONTINUOUS
 62
     2
 10
68.75
 20
62.5
 30
0.0
 40
1.0
  0
LINE
  8
0
  6
CONTINUOUS
 62
     2
 10
122.5
 20
64.5
 30
0.0
 11
122.5
 21
60.5
 31
0.0
  0
CIRCLE
  8
0
  6
CONTINUOUS
 62
     2
 10
68.75
 20
62.5
 30
0.0
 40
3.0
  0
LINE
  8
0
  6
CONTINUOUS
 62
     2
 10
127.5
 20
59.5
 30
0.0
 11
122.5
 21
60.5
 31
0.0
  0
LINE
  8
0
  6
CONTINUOUS
 62
     2
 10
127.5
 20
65.5
 30
0.0
 11
122.5
 21
64.5
 31
0.0
  0
LINE
  8
0
  6
CONTINUOUS
 62
     2
 10
122.5
 20
63.5
 30
0.0
 11
121.8
 21
63.5
 31
0.0
  0
ARC
  8
0
  6
CONTINUOUS
 62
     2
 10
121.8
 20
62.7
 30
0.0
 40
0.8
 50
90.0
 51
180.0
  0
LINE
  8
0
  6
CONTINUOUS
 62
     2
 10
122.5
 20
61.5
 30
0.0
 11
121.8
 21
61.5
 31
0.0
  0
LINE
  8
0
  6
CONTINUOUS
 62
     2
 10
121.0
 20
62.7
 30
0.0
 11
121.0
 21
62.3
 31
0.0
  0
ARC
  8
0
  6
CONTINUOUS
 62
     2
 10
121.8
 20
62.3
 30
0.0
 40
0.8
 50
180.0
 51
270.0
  0
LINE
  8
0
  6
CONTINUOUS
 62
     2
 10
122.0
 20
63.5
 30
0.0
 11
122.0
 21
61.5
 31
0.0
  0
CIRCLE
  8
0
  6
CONTINUOUS
 62
     2
 10
41.25
 20
62.5
 30
0.0
 40
2.0
  0
CIRCLE
  8
0
  6
CONTINUOUS
 62
     2
 10
41.25
 20
62.5
 30
0.0
 40
1.0
  0
CIRCLE
  8
0
  6
CONTINUOUS
 62
     2
 10
41.25
 20
62.5
 30
0.0
 40
3.0
  0
ARC
  8
0
  6
CONTINUOUS
 62
     2
 10
128.5
 20
54.75
 30
0.0
 40
1.0
 50
180.0
 51
270.0
  0
LINE
  8
0
  6
CONTINUOUS
 62
     2
 10
151.5
 20
53.75
 30
0.0
 11
128.5
 21
53.75
 31
0.0
  0
ARC
  8
0
  6
CONTINUOUS
 62
     2
 10
151.5
 20
54.75
 30
0.0
 40
1.0
 50
270.0
 51
0.0
  0
ARC
  8
0
  6
CONTINUOUS
 62
     2
 10
152.0
 20
53.75
 30
0.0
 40
1.5
 50
270.0
 51
0.0
  0
LINE
  8
0
  6
CONTINUOUS
 62
     2
 10
126.5
 20
53.75
 30
0.0
 11
126.5
 21
59.7
 31
0.0
  0
LINE
  8
0
  6
CONTINUOUS
 62
     2
 10
152.0
 20
52.25
 30
0.0
 11
128.0
 21
52.25
 31
0.0
  0
ARC
  8
0
  6
CONTINUOUS
 62
     2
 10
128.0
 20
53.75
 30
0.0
 40
1.5
 50
180.0
 51
270.0
  0
CIRCLE
  8
0
  6
CONTINUOUS
 62
     2
 10
121.25
 20
71.343739453
 30
0.0
 40
1.687478907
  0
CIRCLE
  8
0
  6
CONTINUOUS
 62
     2
 10
121.25
 20
71.343739453
 30
0.0
 40
0.843739453
  0
LINE
  8
0
  6
CONTINUOUS
 62
     2
 10
122.807678779
 20
71.992765841
 30
0.0
 11
122.807678779
 21
70.694706629
 31
0.0
  0
LINE
  8
0
  6
CONTINUOUS
 62
     2
 10
119.743587251
 20
72.104194139
 30
0.0
 11
119.743587251
 21
70.583284768
 31
0.0
  0
LINE
  8
0
  6
CONTINUOUS
 62
     2
 10
121.25
 20
69.656260547
 30
0.0
 11
119.743587251
 21
70.583291205
 31
0.0
  0
LINE
  8
0
  6
CONTINUOUS
 62
     2
 10
121.25
 20
73.03121836
 30
0.0
 11
119.743587251
 21
72.104194139
 31
0.0
  0
LINE
  8
0
  6
CONTINUOUS
 62
     2
 10
121.25
 20
69.656260547
 30
0.0
 11
122.807678779
 21
70.694706629
 31
0.0
  0
LINE
  8
0
  6
CONTINUOUS
 62
     2
 10
121.25
 20
73.03121836
 30
0.0
 11
122.807678779
 21
71.992765841
 31
0.0
  0
CIRCLE
  8
0
  6
CONTINUOUS
 62
     2
 10
158.75
 20
71.343739453
 30
0.0
 40
1.687478907
  0
CIRCLE
  8
0
  6
CONTINUOUS
 62
     2
 10
158.75
 20
71.343739453
 30
0.0
 40
0.843739453
  0
LINE
  8
0
  6
CONTINUOUS
 62
     2
 10
160.307678779
 20
71.992765841
 30
0.0
 11
160.307678779
 21
70.694706629
 31
0.0
  0
LINE
  8
0
  6
CONTINUOUS
 62
     2
 10
157.243587251
 20
72.104194139
 30
0.0
 11
157.243587251
 21
70.583284768
 31
0.0
  0
LINE
  8
0
  6
CONTINUOUS
 62
     2
 10
158.75
 20
69.656260547
 30
0.0
 11
157.243587251
 21
70.583291205
 31
0.0
  0
LINE
  8
0
  6
CONTINUOUS
 62
     2
 10
158.75
 20
73.03121836
 30
0.0
 11
157.243587251
 21
72.104194139
 31
0.0
  0
LINE
  8
0
  6
CONTINUOUS
 62
     2
 10
158.75
 20
69.656260547
 30
0.0
 11
160.307678779
 21
70.694706629
 31
0.0
  0
LINE
  8
0
  6
CONTINUOUS
 62
     2
 10
158.75
 20
73.03121836
 30
0.0
 11
160.307678779
 21
71.992765841
 31
0.0
  0
CIRCLE
  8
0
  6
CONTINUOUS
 62
     2
 10
158.75
 20
46.343739453
 30
0.0
 40
1.687478907
  0
CIRCLE
  8
0
  6
CONTINUOUS
 62
     2
 10
158.75
 20
46.343739453
 30
0.0
 40
0.843739453
  0
LINE
  8
0
  6
CONTINUOUS
 62
     2
 10
160.307678779
 20
46.992765841
 30
0.0
 11
160.307678779
 21
45.694706629
 31
0.0
  0
LINE
  8
0
  6
CONTINUOUS
 62
     2
 10
157.243587251
 20
47.104194139
 30
0.0
 11
157.243587251
 21
45.583284768
 31
0.0
  0
LINE
  8
0
  6
CONTINUOUS
 62
     2
 10
158.75
 20
44.656260547
 30
0.0
 11
157.243587251
 21
45.583291205
 31
0.0
  0
LINE
  8
0
  6
CONTINUOUS
 62
     2
 10
158.75
 20
48.03121836
 30
0.0
 11
157.243587251
 21
47.104194139
 31
0.0
  0
LINE
  8
0
  6
CONTINUOUS
 62
     2
 10
158.75
 20
44.656260547
 30
0.0
 11
160.307678779
 21
45.694706629
 31
0.0
  0
LINE
  8
0
  6
CONTINUOUS
 62
     2
 10
158.75
 20
48.03121836
 30
0.0
 11
160.307678779
 21
46.992765841
 31
0.0
  0
CIRCLE
  8
0
  6
CONTINUOUS
 62
     2
 10
121.25
 20
46.343739453
 30
0.0
 40
1.687478907
  0
CIRCLE
  8
0
  6
CONTINUOUS
 62
     2
 10
121.25
 20
46.343739453
 30
0.0
 40
0.843739453
  0
LINE
  8
0
  6
CONTINUOUS
 62
     2
 10
119.692321221
 20
46.992765841
 30
0.0
 11
119.692321221
 21
45.694706629
 31
0.0
  0
LINE
  8
0
  6
CONTINUOUS
 62
     2
 10
122.756412749
 20
47.104194139
 30
0.0
 11
122.756412749
 21
45.583284768
 31
0.0
  0
LINE
  8
0
  6
CONTINUOUS
 62
     2
 10
121.25
 20
44.656260547
 30
0.0
 11
122.756412749
 21
45.583291205
 31
0.0
  0
LINE
  8
0
  6
CONTINUOUS
 62
     2
 10
121.25
 20
48.03121836
 30
0.0
 11
122.756412749
 21
47.104194139
 31
0.0
  0
LINE
  8
0
  6
CONTINUOUS
 62
     2
 10
121.25
 20
44.656260547
 30
0.0
 11
119.692321221
 21
45.694706629
 31
0.0
  0
LINE
  8
0
  6
CONTINUOUS
 62
     2
 10
121.25
 20
48.03121836
 30
0.0
 11
119.692321221
 21
46.992765841
 31
0.0
  0
LINE
  8
0
  6
CONTINUOUS
 62
     2
 10
119.015327933
 20
88.5
 30
0.0
 11
136.9
 21
88.5
 31
0.0
  0
ARC
  8
0
  6
CONTINUOUS
 62
     2
 10
136.9
 20
90.0
 30
0.0
 40
1.5
 50
270.0
 51
0.0
  0
LINE
  8
0
  6
CONTINUOUS
 62
     2
 10
143.1
 20
88.5
 30
0.0
 11
160.984109574
 21
88.5
 31
0.0
  0
ARC
  8
0
  6
CONTINUOUS
 62
     2
 10
143.1
 20
90.0
 30
0.0
 40
1.5
 50
180.0
 51
270.0
  0
LINE
  8
0
  6
CONTINUOUS
 62
     2
 10
126.344076949
 20
90.999999843
 30
0.0
 11
125.844076949
 21
88.499999848
 31
0.0
  0
LINE
  8
0
  6
CONTINUOUS
 62
     2
 10
153.655923044
 20
90.999999876
 30
0.0
 11
154.155923044
 21
88.499999882
 31
0.0
  0
LINE
  8
0
  6
CONTINUOUS
 62
     2
 10
128.312521093
 20
95.241963547
 30
0.0
 11
128.312521093
 21
90.999999843
 31
0.0
  0
LINE
  8
0
  6
CONTINUOUS
 62
     2
 10
131.687478907
 20
95.241963547
 30
0.0
 11
131.687478907
 21
90.999999843
 31
0.0
  0
LINE
  8
0
  6
CONTINUOUS
 62
     2
 10
148.312521093
 20
95.241963547
 30
0.0
 11
148.312521093
 21
90.999999843
 31
0.0
  0
LINE
  8
0
  6
CONTINUOUS
 62
     2
 10
151.687478907
 20
95.241963547
 30
0.0
 11
151.687478907
 21
90.999999843
 31
0.0
  0
ARC
  8
0
  6
CONTINUOUS
 62
     2
 10
130.0
 20
94.5
 30
0.0
 40
2.0
 50
327.537129202
 51
210.650982065
  0
ARC
  8
0
  6
CONTINUOUS
 62
     2
 10
149.999718754
 20
94.5
 30
0.0
 40
2.0
 50
327.537129202
 51
210.650982065
  0
TEXT
  8
0
  6
CONTINUOUS
 62
     2
 10
136.332264597
 20
25.281246484
 30
0.3
 40
3.0
  1
２００
 50
0.0
 41
0.9
 51
0.0
  7
KANJI2
  0
POINT
  8
2
  6
CONTINUOUS
 62
     2
 10
165.0
 20
25.0
 30
0.0
  0
LINE
  8
0
  6
CONTINUOUS
 62
     2
 10
165.000281246
 20
25.0
 30
0.0
 11
163.370301789
 21
25.436751679
 31
0.0
  0
LINE
  8
0
  6
CONTINUOUS
 62
     2
 10
165.000281246
 20
25.0
 30
0.0
 11
163.370301789
 21
24.563248321
 31
0.0
  0
LINE
  8
0
  6
CONTINUOUS
 62
     2
 10
165.0
 20
39.156260547
 30
0.0
 11
165.0
 21
24.156260547
 31
0.0
  0
LINE
  8
0
  6
CONTINUOUS
 62
     2
 10
115.0
 20
25.0
 30
0.0
 11
116.629979457
 21
25.436751679
 31
0.0
  0
LINE
  8
0
  6
CONTINUOUS
 62
     2
 10
115.0
 20
25.0
 30
0.0
 11
116.629979457
 21
24.563248321
 31
0.0
  0
LINE
  8
0
  6
CONTINUOUS
 62
     2
 10
115.0
 20
39.156260547
 30
0.0
 11
115.0
 21
24.156260547
 31
0.0
  0
LINE
  8
0
  6
CONTINUOUS
 62
     2
 10
115.0
 20
25.0
 30
0.0
 11
165.0
 21
25.0
 31
0.0
  0
TEXT
  8
0
  6
CONTINUOUS
 62
     2
 10
136.332264597
 20
30.281246484
 30
0.3
 40
3.0
  1
１２０
 50
0.0
 41
0.9
 51
0.0
  7
KANJI2
  0
LINE
  8
0
  6
CONTINUOUS
 62
     2
 10
125.0
 20
30.0
 30
0.0
 11
126.629979457
 21
30.436751679
 31
0.0
  0
LINE
  8
0
  6
CONTINUOUS
 62
     2
 10
125.0
 20
30.0
 30
0.0
 11
126.629979457
 21
29.563248321
 31
0.0
  0
LINE
  8
0
  6
CONTINUOUS
 62
     2
 10
125.0
 20
39.156260547
 30
0.0
 11
125.0
 21
29.156260547
 31
0.0
  0
POINT
  8
2
  6
CONTINUOUS
 62
     2
 10
155.0
 20
30.0
 30
0.0
  0
LINE
  8
0
  6
CONTINUOUS
 62
     2
 10
154.999718754
 20
30.0
 30
0.0
 11
153.369739296
 21
30.436751679
 31
0.0
  0
LINE
  8
0
  6
CONTINUOUS
 62
     2
 10
154.999718754
 20
30.0
 30
0.0
 11
153.369739296
 21
29.563248321
 31
0.0
  0
LINE
  8
0
  6
CONTINUOUS
 62
     2
 10
155.0
 20
39.156260547
 30
0.0
 11
155.0
 21
29.156260547
 31
0.0
  0
LINE
  8
0
  6
CONTINUOUS
 62
     2
 10
125.0
 20
30.0
 30
0.0
 11
155.0
 21
30.0
 31
0.0
  0
TEXT
  8
0
  6
CONTINUOUS
 62
     2
 10
51.332264597
 20
25.281246484
 30
0.3
 40
3.0
  1
１２５
 50
0.0
 41
0.9
 51
0.0
  7
KANJI2
  0
LINE
  8
0
  6
CONTINUOUS
 62
     2
 10
39.375
 20
25.0
 30
0.0
 11
41.004979457
 21
25.436751679
 31
0.0
  0
LINE
  8
0
  6
CONTINUOUS
 62
     2
 10
39.375
 20
25.0
 30
0.0
 11
41.004979457
 21
24.563248321
 31
0.0
  0
LINE
  8
0
  6
CONTINUOUS
 62
     2
 10
39.375
 20
39.156260547
 30
0.0
 11
39.375
 21
24.156260547
 31
0.0
  0
POINT
  8
2
  6
CONTINUOUS
 62
     2
 10
70.625
 20
25.0
 30
0.0
  0
LINE
  8
0
  6
CONTINUOUS
 62
     2
 10
70.625281246
 20
25.0
 30
0.0
 11
68.995301789
 21
25.436751679
 31
0.0
  0
LINE
  8
0
  6
CONTINUOUS
 62
     2
 10
70.625281246
 20
25.0
 30
0.0
 11
68.995301789
 21
24.563248321
 31
0.0
  0
LINE
  8
0
  6
CONTINUOUS
 62
     2
 10
70.625
 20
39.156260547
 30
0.0
 11
70.625
 21
24.156260547
 31
0.0
  0
LINE
  8
0
  6
CONTINUOUS
 62
     2
 10
39.375
 20
25.0
 30
0.0
 11
70.625
 21
25.0
 31
0.0
  0
POINT
  8
2
  6
CONTINUOUS
 62
     2
 10
68.125000007
 20
30.0
 30
0.0
  0
LINE
  8
0
  6
CONTINUOUS
 62
     2
 10
68.12471876
 20
30.0
 30
0.0
 11
66.494739303
 21
30.436751679
 31
0.0
  0
LINE
  8
0
  6
CONTINUOUS
 62
     2
 10
68.12471876
 20
30.0
 30
0.0
 11
66.494739303
 21
29.563248321
 31
0.0
  0
LINE
  8
0
  6
CONTINUOUS
 62
     2
 10
68.125000007
 20
39.156260547
 30
0.0
 11
68.125000007
 21
29.156260547
 31
0.0
  0
LINE
  8
0
  6
CONTINUOUS
 62
     2
 10
41.875000007
 20
30.0
 30
0.0
 11
43.504979464
 21
30.436751679
 31
0.0
  0
LINE
  8
0
  6
CONTINUOUS
 62
     2
 10
41.875000007
 20
30.0
 30
0.0
 11
43.504979464
 21
29.563248321
 31
0.0
  0
LINE
  8
0
  6
CONTINUOUS
 62
     2
 10
41.875000007
 20
39.156260547
 30
0.0
 11
41.875000007
 21
29.156260547
 31
0.0
  0
LINE
  8
0
  6
CONTINUOUS
 62
     2
 10
41.875000007
 20
30.0
 30
0.0
 11
68.125000007
 21
30.0
 31
0.0
  0
TEXT
  8
0
  6
CONTINUOUS
 62
     2
 10
51.332264597
 20
30.281246484
 30
0.3
 40
3.0
  1
１０５
 50
0.0
 41
0.9
 51
0.0
  7
KANJI2
  0
LINE
  8
0
  6
CONTINUOUS
 62
     2
 10
141.6
 20
90.0
 30
0.0
 11
141.6
 21
97.400001907
 31
0.0
  0
ARC
  8
0
  6
CONTINUOUS
 62
     2
 10
140.0
 20
97.4
 30
0.0
 40
1.6
 50
0.000068302
 51
179.999951703
  0
TEXT
  8
0
  6
CONTINUOUS
 62
     2
 10
90.539538763
 20
100.682254982
 30
0.3
 40
3.0
  1
２－Ｍ５二次端子
 50
0.0
 41
0.9
 51
0.0
  7
KANJI5
  0
LINE
  8
0
  6
CONTINUOUS
 62
     2
 10
90.539538763
 20
100.240588211
 30
0.0
 11
114.247538763
 21
100.240588211
 31
0.0
  0
LINE
  8
0
  6
CONTINUOUS
 62
     2
 10
70.5
 20
65.531088913
 30
0.0
 11
72.267766953
 21
67.298855866
 31
0.0
  0
LINE
  8
0
  6
CONTINUOUS
 62
     2
 10
70.5
 20
65.531088913
 30
0.0
 11
71.147047613
 21
67.945903479
 31
0.0
  0
LINE
  8
0
  6
CONTINUOUS
 62
     2
 10
70.5
 20
65.531088913
 30
0.0
 11
90.539538763
 21
100.240588211
 31
0.0
  0
LINE
  8
0
  6
CONTINUOUS
 62
     2
 10
115.0
 20
41.0
 30
0.0
 11
165.0
 21
41.0
 31
0.0
  0
LINE
  8
0
  6
CONTINUOUS
 62
     2
 10
123.75
 20
41.0
 30
0.0
 11
123.75
 21
40.0
 31
0.0
  0
LINE
  8
0
  6
CONTINUOUS
 62
     2
 10
126.25
 20
41.0
 30
0.0
 11
126.25
 21
40.0
 31
0.0
  0
LINE
  8
0
  6
CONTINUOUS
 62
     2
 10
153.75
 20
41.0
 30
0.0
 11
153.75
 21
40.0
 31
0.0
  0
LINE
  8
0
  6
CONTINUOUS
 62
     2
 10
156.25
 20
41.0
 30
0.0
 11
156.25
 21
40.0
 31
0.0
  0
LINE
  8
0
  6
CONTINUOUS
 62
     2
 10
66.875
 20
41.0
 30
0.0
 11
66.875
 21
40.0
 31
0.0
  0
LINE
  8
0
  6
CONTINUOUS
 62
     2
 10
69.375
 20
41.0
 30
0.0
 11
69.375
 21
40.0
 31
0.0
  0
LINE
  8
0
  6
CONTINUOUS
 62
     2
 10
40.625
 20
41.0
 30
0.0
 11
40.625
 21
40.0
 31
0.0
  0
LINE
  8
0
  6
CONTINUOUS
 62
     2
 10
43.125
 20
41.0
 30
0.0
 11
43.125
 21
40.0
 31
0.0
  0
LINE
  8
0
  6
CONTINUOUS
 62
     2
 10
43.76560918
 20
95.241963545
 30
0.0
 11
41.23439082
 21
95.241963545
 31
0.0
  0
LINE
  8
0
  6
CONTINUOUS
 62
     2
 10
41.0
 20
90.999999874
 30
0.0
 11
40.5
 21
88.49999988
 31
0.0
  0
LINE
  8
0
  6
CONTINUOUS
 62
     2
 10
41.0
 20
90.999999874
 30
0.0
 11
44.000000007
 21
90.999999841
 31
0.0
  0
LINE
  8
0
  6
CONTINUOUS
 62
     2
 10
44.0
 20
90.999999874
 30
0.0
 11
44.5
 21
88.49999988
 31
0.0
  0
LINE
  8
0
  6
CONTINUOUS
 62
     2
 10
41.23439082
 20
90.999999872
 30
0.0
 11
41.23439082
 21
96.499999998
 31
0.0
  0
LINE
  8
0
  6
CONTINUOUS
 62
     2
 10
43.76560918
 20
95.241963545
 30
0.0
 11
43.76560918
 21
90.999999844
 31
0.0
  0
LINE
  8
0
  6
CONTINUOUS
 62
     2
 10
66.23439082
 20
95.241963548
 30
0.0
 11
68.76560918
 21
95.241963548
 31
0.0
  0
LINE
  8
0
  6
CONTINUOUS
 62
     2
 10
66.0
 20
90.999999878
 30
0.0
 11
65.5
 21
88.499999883
 31
0.0
  0
LINE
  8
0
  6
CONTINUOUS
 62
     2
 10
69.0
 20
90.999999878
 30
0.0
 11
69.5
 21
88.499999883
 31
0.0
  0
LINE
  8
0
  6
CONTINUOUS
 62
     2
 10
68.76560918
 20
90.999999847
 30
0.0
 11
68.76560918
 21
96.500000002
 31
0.0
  0
LINE
  8
0
  6
CONTINUOUS
 62
     2
 10
66.23439082
 20
95.241963548
 30
0.0
 11
66.23439082
 21
90.999999875
 31
0.0
  0
POLYLINE
  8
0
  6
CONTINUOUS
 62
     2
 66
     1
  0
VERTEX
  8
0
  6
CONTINUOUS
 62
     2
 10
70.751564341
 20
97.914883175
 30
0.0
  0
VERTEX
  8
0
  6
CONTINUOUS
 62
     2
 10
71.354235379
 20
95.515499105
 30
0.0
  0
VERTEX
  8
0
  6
CONTINUOUS
 62
     2
 10
72.107574177
 20
97.914883175
 30
0.0
  0
SEQEND
  0
LINE
  8
0
  6
CONTINUOUS
 62
     2
 10
70.76560918
 20
95.000000002
 30
0.0
 11
71.76560918
 21
95.000000002
 31
0.0
  0
LINE
  8
0
  6
CONTINUOUS
 62
     2
 10
69.96560918
 20
94.000000002
 30
0.0
 11
70.76560918
 21
94.000000002
 31
0.0
  0
LINE
  8
0
  6
CONTINUOUS
 62
     2
 10
69.96560918
 20
93.000000002
 30
0.0
 11
69.96560918
 21
94.000000002
 31
0.0
  0
LINE
  8
0
  6
CONTINUOUS
 62
     2
 10
69.96560918
 20
93.000000002
 30
0.0
 11
70.76560918
 21
93.000000002
 31
0.0
  0
LINE
  8
0
  6
CONTINUOUS
 62
     2
 10
71.76560918
 20
92.750000002
 30
0.0
 11
72.96560918
 21
92.750000002
 31
0.0
  0
LINE
  8
0
  6
CONTINUOUS
 62
     2
 10
72.96560918
 20
92.750000002
 30
0.0
 11
72.96560918
 21
94.250000002
 31
0.0
  0
LINE
  8
0
  6
CONTINUOUS
 62
     2
 10
71.76560918
 20
94.250000002
 30
0.0
 11
72.96560918
 21
94.250000002
 31
0.0
  0
LINE
  8
0
  6
CONTINUOUS
 62
     2
 10
70.76560918
 20
92.500000002
 30
0.0
 11
70.76560918
 21
95.000000002
 31
0.0
  0
LINE
  8
0
  6
CONTINUOUS
 62
     2
 10
68.76560918
 20
92.000000002
 30
0.0
 11
70.26560918
 21
92.000000002
 31
0.0
  0
ARC
  8
0
  6
CONTINUOUS
 62
     2
 10
70.26560918
 20
92.500000002
 30
0.0
 40
0.5
 50
270.0
 51
0.0
  0
LINE
  8
0
  6
CONTINUOUS
 62
     2
 10
66.0
 20
90.999999878
 30
0.0
 11
70.76560917
 21
90.999999829
 31
0.0
  0
LINE
  8
0
  6
CONTINUOUS
 62
     2
 10
71.76560918
 20
91.999999829
 30
0.0
 11
71.76560918
 21
95.000000002
 31
0.0
  0
ARC
  8
0
  6
CONTINUOUS
 62
     2
 10
70.76560918
 20
91.999999829
 30
0.0
 40
1.0
 50
269.999999419
 51
0.0
  0
LINE
  8
0
  6
CONTINUOUS
 62
     2
 10
66.23439082
 20
92.500000002
 30
0.0
 11
43.76560918
 21
92.499999998
 31
0.0
  0
LINE
  8
0
  6
CONTINUOUS
 62
     2
 10
68.76560918
 20
96.500000002
 30
0.0
 11
41.23439082
 21
96.499999998
 31
0.0
  0
ARC
  8
0
  6
CONTINUOUS
 62
     2
 10
34.1
 20
150.0
 30
0.0
 40
1.6
 50
89.999940849
 51
270.000059151
  0
ARC
  8
0
  6
CONTINUOUS
 62
     2
 10
75.899718754
 20
150.0
 30
0.0
 40
1.6
 50
270.000034151
 51
89.999965849
  0
LINE
  8
0
  6
CONTINUOUS
 62
     2
 10
34.100001652
 20
151.6
 30
0.0
 11
75.899719707
 21
151.6
 31
0.0
  0
LINE
  8
0
  6
CONTINUOUS
 62
     2
 10
69.96560918
 20
140.5
 30
0.0
 11
70.76560918
 21
140.5
 31
0.0
  0
LINE
  8
0
  6
CONTINUOUS
 62
     2
 10
69.96560918
 20
139.5
 30
0.0
 11
69.96560918
 21
140.5
 31
0.0
  0
LINE
  8
0
  6
CONTINUOUS
 62
     2
 10
69.96560918
 20
139.5
 30
0.0
 11
70.76560918
 21
139.5
 31
0.0
  0
LINE
  8
0
  6
CONTINUOUS
 62
     2
 10
71.76560918
 20
139.25
 30
0.0
 11
72.96560918
 21
139.25
 31
0.0
  0
LINE
  8
0
  6
CONTINUOUS
 62
     2
 10
72.96560918
 20
139.25
 30
0.0
 11
72.96560918
 21
140.75
 31
0.0
  0
LINE
  8
0
  6
CONTINUOUS
 62
     2
 10
71.76560918
 20
140.75
 30
0.0
 11
72.96560918
 21
140.75
 31
0.0
  0
ARC
  8
0
  6
CONTINUOUS
 62
     2
 10
64.5
 20
147.4
 30
0.0
 40
1.0
 50
0.0
 51
90.0
  0
LINE
  8
0
  6
CONTINUOUS
 62
     2
 10
34.100001652
 20
148.4
 30
0.0
 11
75.899719707
 21
148.4
 31
0.0
  0
ARC
  8
0
  6
CONTINUOUS
 62
     2
 10
66.0
 20
137.98439082
 30
0.0
 40
0.5
 50
180.0
 51
270.0
  0
LINE
  8
0
  6
CONTINUOUS
 62
     2
 10
66.0
 20
137.48439082
 30
0.0
 11
69.0
 21
137.48439082
 31
0.0
  0
ARC
  8
0
  6
CONTINUOUS
 62
     2
 10
69.0
 20
137.98439082
 30
0.0
 40
0.5
 50
270.0
 51
0.0
  0
ARC
  8
0
  6
CONTINUOUS
 62
     2
 10
70.5
 20
147.4
 30
0.0
 40
1.0
 50
90.0
 51
180.0
  0
ARC
  8
0
  6
CONTINUOUS
 62
     2
 10
45.5
 20
147.4
 30
0.0
 40
1.0
 50
90.0
 51
180.0
  0
ARC
  8
0
  6
CONTINUOUS
 62
     2
 10
39.5
 20
147.4
 30
0.0
 40
1.0
 50
0.0
 51
90.0
  0
ARC
  8
0
  6
CONTINUOUS
 62
     2
 10
44.0
 20
137.98439082
 30
0.0
 40
0.5
 50
270.0
 51
0.0
  0
LINE
  8
0
  6
CONTINUOUS
 62
     2
 10
44.0
 20
137.48439082
 30
0.0
 11
41.0
 21
137.48439082
 31
0.0
  0
ARC
  8
0
  6
CONTINUOUS
 62
     2
 10
41.0
 20
137.98439082
 30
0.0
 40
0.5
 50
180.0
 51
270.0
  0
LINE
  8
0
  6
CONTINUOUS
 62
     2
 10
40.5
 20
147.4
 30
0.0
 11
40.5
 21
137.98439082
 31
0.0
  0
LINE
  8
0
  6
CONTINUOUS
 62
     2
 10
69.5
 20
147.4
 30
0.0
 11
69.5
 21
137.98439082
 31
0.0
  0
LINE
  8
0
  6
CONTINUOUS
 62
     2
 10
65.5
 20
137.98439082
 30
0.0
 11
65.5
 21
147.4
 31
0.0
  0
LINE
  8
0
  6
CONTINUOUS
 62
     2
 10
44.5
 20
137.98439082
 30
0.0
 11
44.5
 21
147.4
 31
0.0
  0
LINE
  8
0
  6
CONTINUOUS
 62
     2
 10
40.5
 20
141.3
 30
0.0
 11
44.5
 21
141.3
 31
0.0
  0
LINE
  8
0
  6
CONTINUOUS
 62
     2
 10
40.5
 20
138.7
 30
0.0
 11
44.5
 21
138.7
 31
0.0
  0
LINE
  8
0
  6
CONTINUOUS
 62
     2
 10
44.5
 20
141.25
 30
0.0
 11
65.5
 21
141.25
 31
0.0
  0
LINE
  8
0
  6
CONTINUOUS
 62
     2
 10
44.5
 20
138.75
 30
0.0
 11
65.5
 21
138.75
 31
0.0
  0
LINE
  8
0
  6
CONTINUOUS
 62
     2
 10
65.5
 20
138.7
 30
0.0
 11
69.5
 21
138.7
 31
0.0
  0
LINE
  8
0
  6
CONTINUOUS
 62
     2
 10
65.5
 20
141.3
 30
0.0
 11
69.5
 21
141.3
 31
0.0
  0
LINE
  8
0
  6
CONTINUOUS
 62
     2
 10
69.5
 20
141.25
 30
0.0
 11
71.76560918
 21
141.25
 31
0.0
  0
LINE
  8
0
  6
CONTINUOUS
 62
     2
 10
69.5
 20
138.75
 30
0.0
 11
71.76560918
 21
138.75
 31
0.0
  0
LINE
  8
0
  6
CONTINUOUS
 62
     2
 10
70.76560918
 20
141.25
 30
0.0
 11
70.76560918
 21
138.75
 31
0.0
  0
LINE
  8
0
  6
CONTINUOUS
 62
     2
 10
71.76560918
 20
141.25
 30
0.0
 11
71.76560918
 21
138.75
 31
0.0
  0
LINE
  8
0
  6
CONTINUOUS
 62
     2
 10
69.96560918
 20
159.5
 30
0.0
 11
70.76560918
 21
159.5
 31
0.0
  0
LINE
  8
0
  6
CONTINUOUS
 62
     2
 10
69.96560918
 20
160.5
 30
0.0
 11
69.96560918
 21
159.5
 31
0.0
  0
LINE
  8
0
  6
CONTINUOUS
 62
     2
 10
69.96560918
 20
160.5
 30
0.0
 11
70.76560918
 21
160.5
 31
0.0
  0
LINE
  8
0
  6
CONTINUOUS
 62
     2
 10
71.76560918
 20
160.75
 30
0.0
 11
72.96560918
 21
160.75
 31
0.0
  0
LINE
  8
0
  6
CONTINUOUS
 62
     2
 10
72.96560918
 20
160.75
 30
0.0
 11
72.96560918
 21
159.25
 31
0.0
  0
LINE
  8
0
  6
CONTINUOUS
 62
     2
 10
71.76560918
 20
159.25
 30
0.0
 11
72.96560918
 21
159.25
 31
0.0
  0
ARC
  8
0
  6
CONTINUOUS
 62
     2
 10
64.5
 20
152.6
 30
0.0
 40
1.0
 50
270.0
 51
0.0
  0
ARC
  8
0
  6
CONTINUOUS
 62
     2
 10
66.0
 20
162.01560918
 30
0.0
 40
0.5
 50
90.0
 51
180.0
  0
LINE
  8
0
  6
CONTINUOUS
 62
     2
 10
66.0
 20
162.51560918
 30
0.0
 11
69.0
 21
162.51560918
 31
0.0
  0
ARC
  8
0
  6
CONTINUOUS
 62
     2
 10
69.0
 20
162.01560918
 30
0.0
 40
0.5
 50
0.0
 51
90.0
  0
ARC
  8
0
  6
CONTINUOUS
 62
     2
 10
70.5
 20
152.6
 30
0.0
 40
1.0
 50
180.0
 51
270.0
  0
ARC
  8
0
  6
CONTINUOUS
 62
     2
 10
45.5
 20
152.6
 30
0.0
 40
1.0
 50
180.0
 51
270.0
  0
ARC
  8
0
  6
CONTINUOUS
 62
     2
 10
39.5
 20
152.6
 30
0.0
 40
1.0
 50
270.0
 51
0.0
  0
ARC
  8
0
  6
CONTINUOUS
 62
     2
 10
44.0
 20
162.01560918
 30
0.0
 40
0.5
 50
0.0
 51
90.0
  0
LINE
  8
0
  6
CONTINUOUS
 62
     2
 10
44.0
 20
162.51560918
 30
0.0
 11
41.0
 21
162.51560918
 31
0.0
  0
ARC
  8
0
  6
CONTINUOUS
 62
     2
 10
41.0
 20
162.01560918
 30
0.0
 40
0.5
 50
90.0
 51
180.0
  0
LINE
  8
0
  6
CONTINUOUS
 62
     2
 10
40.5
 20
152.6
 30
0.0
 11
40.5
 21
162.01560918
 31
0.0
  0
LINE
  8
0
  6
CONTINUOUS
 62
     2
 10
69.5
 20
152.6
 30
0.0
 11
69.5
 21
162.01560918
 31
0.0
  0
LINE
  8
0
  6
CONTINUOUS
 62
     2
 10
65.5
 20
162.01560918
 30
0.0
 11
65.5
 21
152.6
 31
0.0
  0
LINE
  8
0
  6
CONTINUOUS
 62
     2
 10
44.5
 20
162.01560918
 30
0.0
 11
44.5
 21
152.6
 31
0.0
  0
LINE
  8
0
  6
CONTINUOUS
 62
     2
 10
40.5
 20
158.7
 30
0.0
 11
44.5
 21
158.7
 31
0.0
  0
LINE
  8
0
  6
CONTINUOUS
 62
     2
 10
40.5
 20
161.3
 30
0.0
 11
44.5
 21
161.3
 31
0.0
  0
LINE
  8
0
  6
CONTINUOUS
 62
     2
 10
44.5
 20
158.75
 30
0.0
 11
65.5
 21
158.75
 31
0.0
  0
LINE
  8
0
  6
CONTINUOUS
 62
     2
 10
44.5
 20
161.25
 30
0.0
 11
65.5
 21
161.25
 31
0.0
  0
LINE
  8
0
  6
CONTINUOUS
 62
     2
 10
65.5
 20
161.3
 30
0.0
 11
69.5
 21
161.3
 31
0.0
  0
LINE
  8
0
  6
CONTINUOUS
 62
     2
 10
65.5
 20
158.7
 30
0.0
 11
69.5
 21
158.7
 31
0.0
  0
LINE
  8
0
  6
CONTINUOUS
 62
     2
 10
69.5
 20
158.75
 30
0.0
 11
71.76560918
 21
158.75
 31
0.0
  0
LINE
  8
0
  6
CONTINUOUS
 62
     2
 10
69.5
 20
161.25
 30
0.0
 11
71.76560918
 21
161.25
 31
0.0
  0
LINE
  8
0
  6
CONTINUOUS
 62
     2
 10
70.76560918
 20
158.75
 30
0.0
 11
70.76560918
 21
161.25
 31
0.0
  0
LINE
  8
0
  6
CONTINUOUS
 62
     2
 10
71.76560918
 20
158.75
 30
0.0
 11
71.76560918
 21
161.25
 31
0.0
  0
LINE
  8
0
  6
CONTINUOUS
 62
     2
 10
64.375
 20
175.0
 30
0.0
 11
64.375
 21
172.499718754
 31
0.0
  0
LINE
  8
0
  6
CONTINUOUS
 62
     2
 10
63.375
 20
175.0
 30
0.0
 11
63.375
 21
172.499718754
 31
0.0
  0
LINE
  8
0
  6
CONTINUOUS
 62
     2
 10
46.625
 20
175.0
 30
0.0
 11
46.625
 21
172.499718754
 31
0.0
  0
LINE
  8
0
  6
CONTINUOUS
 62
     2
 10
45.625
 20
175.0
 30
0.0
 11
45.625
 21
172.499718754
 31
0.0
  0
LINE
  8
0
  6
CONTINUOUS
 62
     2
 10
45.625
 20
127.5
 30
0.0
 11
45.625
 21
125.0
 31
0.0
  0
LINE
  8
0
  6
CONTINUOUS
 62
     2
 10
46.625
 20
127.5
 30
0.0
 11
46.625
 21
125.0
 31
0.0
  0
LINE
  8
0
  6
CONTINUOUS
 62
     2
 10
63.375
 20
125.0
 30
0.0
 11
63.375
 21
127.5
 31
0.0
  0
LINE
  8
0
  6
CONTINUOUS
 62
     2
 10
64.375
 20
127.5
 30
0.0
 11
64.375
 21
125.0
 31
0.0
  0
LINE
  8
0
  6
CONTINUOUS
 62
     2
 10
39.375
 20
127.5
 30
0.0
 11
39.375
 21
127.0
 31
0.0
  0
ARC
  8
0
  6
CONTINUOUS
 62
     2
 10
41.375
 20
127.0
 30
0.0
 40
2.0
 50
180.0
 51
270.0
  0
LINE
  8
0
  6
CONTINUOUS
 62
     2
 10
70.625
 20
127.5
 30
0.0
 11
70.625
 21
127.0
 31
0.0
  0
LINE
  8
0
  6
CONTINUOUS
 62
     2
 10
41.375
 20
125.0
 30
0.0
 11
68.625
 21
125.0
 31
0.0
  0
ARC
  8
0
  6
CONTINUOUS
 62
     2
 10
68.625
 20
127.0
 30
0.0
 40
2.0
 50
270.0
 51
0.0
  0
LINE
  8
0
  6
CONTINUOUS
 62
     2
 10
70.625
 20
172.499718754
 30
0.0
 11
70.625
 21
173.0
 31
0.0
  0
ARC
  8
0
  6
CONTINUOUS
 62
     2
 10
68.625
 20
173.0
 30
0.0
 40
2.0
 50
0.0
 51
90.0
  0
LINE
  8
0
  6
CONTINUOUS
 62
     2
 10
39.375
 20
173.0
 30
0.0
 11
39.375
 21
172.499718754
 31
0.0
  0
LINE
  8
0
  6
CONTINUOUS
 62
     2
 10
41.375
 20
175.0
 30
0.0
 11
68.625
 21
175.0
 31
0.0
  0
ARC
  8
0
  6
CONTINUOUS
 62
     2
 10
41.375
 20
173.0
 30
0.0
 40
2.0
 50
90.0
 51
180.0
  0
TEXT
  8
0
  6
CONTINUOUS
 62
     2
 10
59.976529193
 20
31.807246484
 30
0.0
 40
2.0
  1
±０．５
 50
0.0
 41
0.75
 51
0.0
  7
KANJI6
  0
TEXT
  8
0
  6
CONTINUOUS
 62
     2
 10
144.976529193
 20
31.807246484
 30
0.0
 40
2.0
  1
±０．５
 50
0.0
 41
0.75
 51
0.0
  7
KANJI6
  0
POLYLINE
  8
0
  6
CONTINUOUS
 62
     2
 66
     1
  0
VERTEX
  8
0
  6
CONTINUOUS
 62
     2
 10
124.913142857
 20
98.87262207
 30
0.0
  0
VERTEX
  8
0
  6
CONTINUOUS
 62
     2
 10
125.627428571
 20
96.02887207
 30
0.0
  0
VERTEX
  8
0
  6
CONTINUOUS
 62
     2
 10
126.520285714
 20
98.87262207
 30
0.0
  0
SEQEND
  0
LINE
  8
0
  6
CONTINUOUS
 62
     2
 10
72.96560918
 20
94.250000002
 30
0.0
 11
74.733376133
 21
96.017766955
 31
0.0
  0
LINE
  8
0
  6
CONTINUOUS
 62
     2
 10
72.96560918
 20
94.250000002
 30
0.0
 11
73.612656793
 21
96.664814567
 31
0.0
  0
TEXT
  8
0
  6
CONTINUOUS
 62
     2
 10
80.676909014
 20
108.048029878
 30
0.3
 40
3.0
  1
２－Ｍ６一次端子
 50
0.0
 41
0.9
 51
0.0
  7
KANJI5
  0
LINE
  8
0
  6
CONTINUOUS
 62
     2
 10
80.676909014
 20
107.606363107
 30
0.0
 11
104.384909014
 21
107.606363107
 31
0.0
  0
LINE
  8
0
  6
CONTINUOUS
 62
     2
 10
72.96560918
 20
94.250000002
 30
0.0
 11
80.676909014
 21
107.606363107
 31
0.0
  0
LINE
  8
0
  6
CONTINUOUS
 62
     2
 10
22.999999993
 20
172.499718754
 30
0.0
 11
22.563248314
 21
170.869739296
 31
0.0
  0
LINE
  8
0
  6
CONTINUOUS
 62
     2
 10
22.999999993
 20
172.499718754
 30
0.0
 11
23.436751672
 21
170.869739296
 31
0.0
  0
LINE
  8
0
  6
CONTINUOUS
 62
     2
 10
22.999999993
 20
127.5
 30
0.0
 11
22.563248314
 21
129.129979457
 31
0.0
  0
LINE
  8
0
  6
CONTINUOUS
 62
     2
 10
22.999999993
 20
127.5
 30
0.0
 11
23.436751672
 21
129.129979457
 31
0.0
  0
LINE
  8
0
  6
CONTINUOUS
 62
     2
 10
22.999999993
 20
172.499718754
 30
0.0
 11
22.999999993
 21
127.5
 31
0.0
  0
LINE
  8
0
  6
CONTINUOUS
 62
     2
 10
31.656260547
 20
172.499729556
 30
0.0
 11
21.312521087
 21
172.499718754
 31
0.0
  0
LINE
  8
0
  6
CONTINUOUS
 62
     2
 10
31.656260547
 20
127.5
 30
0.0
 11
21.312521087
 21
127.5
 31
0.0
  0
LINE
  8
0
  6
CONTINUOUS
 62
     2
 10
22.999999993
 20
40.0
 30
0.0
 11
22.563248314
 21
41.629979457
 31
0.0
  0
LINE
  8
0
  6
CONTINUOUS
 62
     2
 10
22.999999993
 20
40.0
 30
0.0
 11
23.436751672
 21
41.629979457
 31
0.0
  0
LINE
  8
0
  6
CONTINUOUS
 62
     2
 10
35.593992575
 20
40.0
 30
0.0
 11
22.15626054
 21
40.0
 31
0.0
  0
TEXT
  8
0
  6
CONTINUOUS
 62
     2
 10
22.440319489
 20
67.359939251
 30
0.3
 40
3.0
  1
２３６
 50
90.0
 41
0.9
 51
0.0
  7
KANJI2
  0
TEXT
  8
0
  6
CONTINUOUS
 62
     2
 10
22.370445719
 20
146.447858275
 30
0.3
 40
3.0
  1
１８０
 50
90.0
 41
0.9
 51
0.0
  7
KANJI2
  0
LINE
  8
0
  6
CONTINUOUS
 62
     2
 10
22.999999993
 20
99.0
 30
0.0
 11
22.563248314
 21
97.370020543
 31
0.0
  0
LINE
  8
0
  6
CONTINUOUS
 62
     2
 10
22.999999993
 20
99.0
 30
0.0
 11
23.436751672
 21
97.370020543
 31
0.0
  0
LINE
  8
0
  6
CONTINUOUS
 62
     2
 10
32.5
 20
99.0
 30
0.0
 11
22.15626054
 21
99.0
 31
0.0
  0
LINE
  8
0
  6
CONTINUOUS
 62
     2
 10
22.999999993
 20
99.0
 30
0.0
 11
22.999999993
 21
40.0
 31
0.0
  0
LINE
  8
0
  6
CONTINUOUS
 62
     2
 10
82.998513239
 20
40.000003219
 30
0.0
 11
91.6874789
 21
40.0
 31
0.0
  0
LINE
  8
0
  6
CONTINUOUS
 62
     2
 10
89.999999993
 20
40.0
 30
0.0
 11
89.563248314
 21
41.629979457
 31
0.0
  0
LINE
  8
0
  6
CONTINUOUS
 62
     2
 10
89.999999993
 20
40.0
 30
0.0
 11
90.436751672
 21
41.629979457
 31
0.0
  0
TEXT
  8
0
  6
CONTINUOUS
 62
     2
 10
89.370445719
 20
62.519402788
 30
0.3
 40
3.0
  1
２１４
 50
90.0
 41
0.9
 51
0.0
  7
KANJI2
  0
LINE
  8
0
  6
CONTINUOUS
 62
     2
 10
79.967869512
 20
93.5
 30
0.0
 11
91.6874789
 21
93.499996781
 31
0.0
  0
LINE
  8
0
  6
CONTINUOUS
 62
     2
 10
89.999999993
 20
93.499996781
 30
0.0
 11
89.999999993
 21
40.0
 31
0.0
  0
LINE
  8
0
  6
CONTINUOUS
 62
     2
 10
89.999999993
 20
93.499996781
 30
0.0
 11
89.563248314
 21
91.870017324
 31
0.0
  0
LINE
  8
0
  6
CONTINUOUS
 62
     2
 10
89.999999993
 20
93.499996781
 30
0.0
 11
90.436751672
 21
91.870017324
 31
0.0
  0
LINE
  8
0
  6
CONTINUOUS
 62
     2
 10
32.5
 20
182.0
 30
0.0
 11
34.129979457
 21
182.436751679
 31
0.0
  0
LINE
  8
0
  6
CONTINUOUS
 62
     2
 10
32.5
 20
182.0
 30
0.0
 11
34.129979457
 21
181.563248321
 31
0.0
  0
LINE
  8
0
  6
CONTINUOUS
 62
     2
 10
77.499718754
 20
182.0
 30
0.0
 11
75.869739296
 21
182.436751679
 31
0.0
  0
LINE
  8
0
  6
CONTINUOUS
 62
     2
 10
77.499718754
 20
182.0
 30
0.0
 11
75.869739296
 21
181.563248321
 31
0.0
  0
LINE
  8
0
  6
CONTINUOUS
 62
     2
 10
32.5
 20
182.0
 30
0.0
 11
77.499718754
 21
182.0
 31
0.0
  0
LINE
  8
0
  6
CONTINUOUS
 62
     2
 10
32.5
 20
173.343458207
 30
0.0
 11
32.5
 21
183.687478907
 31
0.0
  0
LINE
  8
0
  6
CONTINUOUS
 62
     2
 10
77.500547061
 20
173.343458207
 30
0.0
 11
77.499718754
 21
183.687478907
 31
0.0
  0
TEXT
  8
0
  6
CONTINUOUS
 62
     2
 10
51.332264597
 20
182.281246484
 30
0.3
 40
3.0
  1
１８０
 50
0.0
 41
0.9
 51
0.0
  7
KANJI2
  0
LINE
  8
0
  6
CONTINUOUS
 62
     2
 10
68.125
 20
40.0
 30
0.0
 11
68.772047613
 21
37.585185434
 31
0.0
  0
LINE
  8
0
  6
CONTINUOUS
 62
     2
 10
68.125
 20
40.0
 30
0.0
 11
69.892766953
 21
38.232233047
 31
0.0
  0
LINE
  8
0
  6
CONTINUOUS
 62
     2
 10
68.125
 20
40.0
 30
0.0
 11
73.898502692
 21
30.0
 31
0.0
  0
LINE
  8
0
  6
CONTINUOUS
 62
     2
 10
64.375
 20
69.656239453
 30
0.0
 11
65.875
 21
69.656239453
 31
0.0
  0
LINE
  8
0
  6
CONTINUOUS
 62
     2
 10
65.875
 20
73.031239453
 30
0.0
 11
65.875
 21
69.656239453
 31
0.0
  0
LINE
  8
0
  6
CONTINUOUS
 62
     2
 10
64.375
 20
73.031239453
 30
0.0
 11
65.875
 21
73.031239453
 31
0.0
  0
LINE
  8
0
  6
CONTINUOUS
 62
     2
 10
66.875
 20
72.187478907
 30
0.0
 11
65.875
 21
72.187478907
 31
0.0
  0
LINE
  8
0
  6
CONTINUOUS
 62
     2
 10
66.875
 20
72.187478907
 30
0.0
 11
66.875
 21
70.5
 31
0.0
  0
LINE
  8
0
  6
CONTINUOUS
 62
     2
 10
65.875
 20
70.5
 30
0.0
 11
66.875
 21
70.5
 31
0.0
  0
LINE
  8
0
  6
LTYPE2
 62
     2
 10
67.67182754
 20
71.343739453
 30
0.0
 11
62.47817246
 21
71.343739453
 31
0.0
  0
LINE
  8
0
  6
CONTINUOUS
 62
     2
 10
64.375
 20
44.656239453
 30
0.0
 11
65.875
 21
44.656239453
 31
0.0
  0
LINE
  8
0
  6
CONTINUOUS
 62
     2
 10
65.875
 20
48.031239453
 30
0.0
 11
65.875
 21
44.656239453
 31
0.0
  0
LINE
  8
0
  6
CONTINUOUS
 62
     2
 10
64.375
 20
48.031239453
 30
0.0
 11
65.875
 21
48.031239453
 31
0.0
  0
LINE
  8
0
  6
CONTINUOUS
 62
     2
 10
66.875
 20
47.187478907
 30
0.0
 11
65.875
 21
47.187478907
 31
0.0
  0
LINE
  8
0
  6
CONTINUOUS
 62
     2
 10
66.875
 20
47.187478907
 30
0.0
 11
66.875
 21
45.5
 31
0.0
  0
LINE
  8
0
  6
CONTINUOUS
 62
     2
 10
65.875
 20
45.5
 30
0.0
 11
66.875
 21
45.5
 31
0.0
  0
LINE
  8
0
  6
CONTINUOUS
 62
     2
 10
45.625
 20
44.656239453
 30
0.0
 11
44.125
 21
44.656239453
 31
0.0
  0
LINE
  8
0
  6
CONTINUOUS
 62
     2
 10
44.125
 20
48.031239453
 30
0.0
 11
44.125
 21
44.656239453
 31
0.0
  0
LINE
  8
0
  6
CONTINUOUS
 62
     2
 10
45.625
 20
48.031239453
 30
0.0
 11
44.125
 21
48.031239453
 31
0.0
  0
LINE
  8
0
  6
CONTINUOUS
 62
     2
 10
45.625
 20
69.656239453
 30
0.0
 11
44.125
 21
69.656239453
 31
0.0
  0
LINE
  8
0
  6
CONTINUOUS
 62
     2
 10
44.125
 20
73.031239453
 30
0.0
 11
44.125
 21
69.656239453
 31
0.0
  0
LINE
  8
0
  6
CONTINUOUS
 62
     2
 10
45.625
 20
73.031239453
 30
0.0
 11
44.125
 21
73.031239453
 31
0.0
  0
LINE
  8
0
  6
LTYPE2
 62
     2
 10
42.32817246
 20
71.343739453
 30
0.0
 11
47.52182754
 21
71.343739453
 31
0.0
  0
LINE
  8
0
  6
CONTINUOUS
 62
     2
 10
150.0
 20
110.0
 30
0.0
 11
148.370020543
 21
110.436751679
 31
0.0
  0
LINE
  8
0
  6
CONTINUOUS
 62
     2
 10
150.0
 20
110.0
 30
0.0
 11
148.370020543
 21
109.563248321
 31
0.0
  0
LINE
  8
0
  6
CONTINUOUS
 62
     2
 10
150.0
 20
98.318988321
 30
0.0
 11
150.0
 21
111.687478907
 31
0.0
  0
LINE
  8
0
  6
CONTINUOUS
 62
     2
 10
130.000281246
 20
110.0
 30
0.0
 11
131.630260704
 21
110.436751679
 31
0.0
  0
LINE
  8
0
  6
CONTINUOUS
 62
     2
 10
130.000281246
 20
110.0
 30
0.0
 11
131.630260704
 21
109.563248321
 31
0.0
  0
LINE
  8
0
  6
CONTINUOUS
 62
     2
 10
130.000281246
 20
111.687478907
 30
0.0
 11
130.000281246
 21
98.318988321
 31
0.0
  0
LINE
  8
0
  6
CONTINUOUS
 62
     2
 10
130.000281246
 20
110.0
 30
0.0
 11
150.000281246
 21
110.0
 31
0.0
  0
TEXT
  8
0
  6
CONTINUOUS
 62
     2
 10
137.509801595
 20
110.281246484
 30
0.3
 40
3.0
  1
８０
 50
0.0
 41
0.9
 51
0.0
  7
KANJI2
  0
TEXT
  8
0
  6
CONTINUOUS
 62
     2
 10
164.0
 20
144.0
 30
0.3
 40
3.0
  1
制限負荷　６００　ＶＡ
 50
0.0
 41
0.9
 51
0.0
  7
KANJI2
  0
LINE
  8
0
  6
CONTINUOUS
 62
     2
 10
45.625
 20
77.5
 30
0.0
 11
64.375
 21
77.5
 31
0.0
  0
TEXT
  8
3
  6
CONTINUOUS
 62
     2
 10
50.924255484
 20
67.035177837
 30
0.3
 40
3.0
  1
Ｎ．Ｐ
 50
0.0
 41
0.9
 51
0.0
  7
KANJI2
  0
LINE
  8
0
  6
CONTINUOUS
 62
     2
 10
46.625
 20
73.0
 30
0.0
 11
63.375
 21
73.0
 31
0.0
  0
LINE
  8
0
  6
CONTINUOUS
 62
     2
 10
46.625
 20
64.25
 30
0.0
 11
63.375
 21
64.25
 31
0.0
  0
LINE
  8
0
  6
CONTINUOUS
 62
     2
 10
115.0
 20
77.5
 30
0.0
 11
115.0
 21
40.0
 31
0.0
  0
LINE
  8
0
  6
CONTINUOUS
 62
     2
 10
126.5
 20
77.5
 30
0.0
 11
115.0
 21
77.5
 31
0.0
  0
LINE
  8
0
  6
CONTINUOUS
 62
     2
 10
126.5
 20
65.3
 30
0.0
 11
126.5
 21
77.5
 31
0.0
  0
LINE
  8
0
  6
CONTINUOUS
 62
     2
 10
165.0
 20
40.0
 30
0.0
 11
165.0
 21
77.5
 31
0.0
  0
LINE
  8
0
  6
CONTINUOUS
 62
     2
 10
165.0
 20
77.5
 30
0.0
 11
153.5
 21
77.5
 31
0.0
  0
LINE
  8
0
  6
CONTINUOUS
 62
     2
 10
153.5
 20
53.75
 30
0.0
 11
153.5
 21
77.5
 31
0.0
  0
LINE
  8
0
  6
CONTINUOUS
 62
     2
 10
32.5
 20
96.468786283
 30
0.0
 11
32.5
 21
87.0
 31
0.0
  0
LINE
  8
0
  6
CONTINUOUS
 62
     2
 10
77.499718754
 20
96.468776997
 30
0.0
 11
77.499718754
 21
87.0
 31
0.0
  0
ARC
  8
0
  6
CONTINUOUS
 62
     2
 10
34.0
 20
87.000000233
 30
0.0
 40
1.5
 50
89.999944723
 51
270.000056961
  0
LINE
  8
0
  6
CONTINUOUS
 62
     2
 10
34.000001491
 20
85.500000233
 30
0.0
 11
75.999719691
 21
85.499999767
 31
0.0
  0
ARC
  8
0
  6
CONTINUOUS
 62
     2
 10
75.999718754
 20
86.999999767
 30
0.0
 40
1.5
 50
270.000035792
 51
89.999999364
  0
LINE
  8
0
  6
CONTINUOUS
 62
     2
 10
34.000001447
 20
88.500000233
 30
0.0
 11
75.99971877
 21
88.499999767
 31
0.0
  0
ARC
  8
0
  6
CONTINUOUS
 62
     2
 10
161.0
 20
86.999999767
 30
0.0
 40
1.5
 50
270.000035792
 51
89.999999364
  0
ARC
  8
0
  6
CONTINUOUS
 62
     2
 10
119.0
 20
87.000000233
 30
0.0
 40
1.5
 50
89.999944723
 51
270.000056961
  0
LINE
  8
0
  6
CONTINUOUS
 62
     2
 10
119.000001491
 20
85.500000233
 30
0.0
 11
161.000000937
 21
85.499999767
 31
0.0
  0
LINE
  8
0
  6
CONTINUOUS
 62
     2
 10
127.5
 20
54.75
 30
0.0
 11
127.5
 21
81.084969957
 31
0.0
  0
LINE
  8
0
  6
CONTINUOUS
 62
     2
 10
126.165640385
 20
82.970950571
 30
0.0
 11
119.000001491
 21
85.500000233
 31
0.0
  0
ARC
  8
0
  6
CONTINUOUS
 62
     2
 10
125.5
 20
81.084969957
 30
0.0
 40
2.0
 50
0.0
 51
70.55996062
  0
LINE
  8
0
  6
CONTINUOUS
 62
     2
 10
152.5
 20
54.75
 30
0.0
 11
152.5
 21
81.084969749
 31
0.0
  0
LINE
  8
0
  6
CONTINUOUS
 62
     2
 10
161.000000937
 20
85.499999767
 30
0.0
 11
153.834359876
 21
82.970950456
 31
0.0
  0
ARC
  8
0
  6
CONTINUOUS
 62
     2
 10
154.5
 20
81.084969749
 30
0.0
 40
2.0
 50
109.440031449
 51
180.0
  0
LINE
  8
0
  6
CONTINUOUS
 62
     2
 10
36.875
 20
61.75
 30
0.0
 11
36.875
 21
81.590909132
 31
0.0
  0
LINE
  8
0
  6
CONTINUOUS
 62
     2
 10
36.190068545
 20
83.097758402
 30
0.0
 11
33.013698591
 21
85.869863281
 31
0.0
  0
ARC
  8
0
  6
CONTINUOUS
 62
     2
 10
34.875
 20
81.590909132
 30
0.0
 40
2.0
 50
0.0
 51
48.887907598
  0
LINE
  8
0
  6
CONTINUOUS
 62
     2
 10
73.809931455
 20
83.097758402
 30
0.0
 11
76.986301409
 21
85.869863281
 31
0.0
  0
ARC
  8
0
  6
CONTINUOUS
 62
     2
 10
75.125
 20
81.590909132
 30
0.0
 40
2.0
 50
131.112092402
 51
179.999972679
  0
LINE
  8
0
  6
CONTINUOUS
 62
     2
 10
73.125
 20
61.75
 30
0.0
 11
73.125
 21
81.590910086
 31
0.0
  0
TEXT
  8
0
  6
CONTINUOUS
 62
     2
 10
167.8
 20
167.422999301
 30
1.0
 40
4.0
  1
定　格
 50
0.0
 41
0.9
 51
0.0
  7
KANJI7
  0
LINE
  8
0
  6
CONTINUOUS
 62
     2
 10
126.344076949
 20
90.999999843
 30
0.0
 11
136.9
 21
90.999999843
 31
0.0
  0
ARC
  8
0
  6
CONTINUOUS
 62
     2
 10
136.9
 20
92.499999843
 30
0.0
 40
1.5
 50
270.0
 51
0.0
  0
LINE
  8
0
  6
CONTINUOUS
 62
     2
 10
138.4
 20
90.0
 30
0.0
 11
138.4
 21
97.400001349
 31
0.0
  0
ARC
  8
0
  6
CONTINUOUS
 62
     2
 10
143.1
 20
92.499999843
 30
0.0
 40
1.5
 50
180.0
 51
270.000072855
  0
LINE
  8
0
  6
CONTINUOUS
 62
     2
 10
153.655923051
 20
90.999999843
 30
0.0
 11
143.100001907
 21
90.999999843
 31
0.0
  0
POLYLINE
  8
0
  6
CONTINUOUS
 62
     2
 66
     1
  0
VERTEX
  8
0
  6
CONTINUOUS
 62
     2
 10
153.268142858
 20
96.553122064
 30
0.0
  0
VERTEX
  8
0
  6
CONTINUOUS
 62
     2
 10
153.446714287
 20
96.115622064
 30
0.0
  0
VERTEX
  8
0
  6
CONTINUOUS
 62
     2
 10
153.803857144
 20
95.896872064
 30
0.0
  0
VERTEX
  8
0
  6
CONTINUOUS
 62
     2
 10
154.33957143
 20
95.896872064
 30
0.0
  0
VERTEX
  8
0
  6
CONTINUOUS
 62
     2
 10
154.696714287
 20
96.115622064
 30
0.0
  0
VERTEX
  8
0
  6
CONTINUOUS
 62
     2
 10
154.875285715
 20
96.553122064
 30
0.0
  0
VERTEX
  8
0
  6
CONTINUOUS
 62
     2
 10
154.875285715
 20
98.740622064
 30
0.0
  0
SEQEND
  0
LINE
  8
0
  6
CONTINUOUS
 62
     2
 10
153.268142858
 20
96.553122064
 30
0.0
 11
153.268142858
 21
98.740622064
 31
0.0
  0
LINE
  8
0
  6
CONTINUOUS
 62
     2
 10
39.375
 20
41.0
 30
0.0
 11
45.125
 21
41.0
 31
0.0
  0
LINE
  8
0
  6
CONTINUOUS
 62
     2
 10
45.625
 20
77.5
 30
0.0
 11
45.625
 21
41.5
 31
0.0
  0
ARC
  8
0
  6
CONTINUOUS
 62
     2
 10
45.125
 20
41.5
 30
0.0
 40
0.5
 50
270.0
 51
0.0
  0
LINE
  8
0
  6
CONTINUOUS
 62
     2
 10
39.375
 20
40.0
 30
0.0
 11
45.125
 21
40.0
 31
0.0
  0
LINE
  8
0
  6
CONTINUOUS
 62
     2
 10
46.625
 20
77.5
 30
0.0
 11
46.625
 21
41.5
 31
0.0
  0
ARC
  8
0
  6
CONTINUOUS
 62
     2
 10
45.125
 20
41.5
 30
0.0
 40
1.5
 50
270.0
 51
0.0
  0
LINE
  8
0
  6
CONTINUOUS
 62
     2
 10
64.875
 20
40.0
 30
0.0
 11
70.625
 21
40.0
 31
0.0
  0
LINE
  8
0
  6
CONTINUOUS
 62
     2
 10
63.375
 20
77.5
 30
0.0
 11
63.375
 21
41.5
 31
0.0
  0
ARC
  8
0
  6
CONTINUOUS
 62
     2
 10
64.875
 20
41.5
 30
0.0
 40
1.5
 50
180.0
 51
270.0
  0
LINE
  8
0
  6
CONTINUOUS
 62
     2
 10
64.875
 20
41.0
 30
0.0
 11
70.625
 21
41.0
 31
0.0
  0
LINE
  8
0
  6
CONTINUOUS
 62
     2
 10
64.375
 20
77.5
 30
0.0
 11
64.375
 21
41.5
 31
0.0
  0
ARC
  8
0
  6
CONTINUOUS
 62
     2
 10
64.875
 20
41.5
 30
0.0
 40
0.5
 50
180.0
 51
270.0
  0
LINE
  8
0
  6
CONTINUOUS
 62
     2
 10
46.594693846
 20
41.2
 30
0.0
 11
63.405306154
 21
41.2
 31
0.0
  0
LINE
  8
0
  6
LTYPE2
 62
     2
 10
41.875
 20
42.53121836
 30
0.0
 11
41.875
 21
40.0
 31
0.0
  0
LINE
  8
0
  6
LTYPE2
 62
     2
 10
42.32817246
 20
46.343739453
 30
0.0
 11
47.52182754
 21
46.343739453
 31
0.0
  0
LINE
  8
0
  6
LTYPE2
 62
     2
 10
68.125
 20
42.53121836
 30
0.0
 11
68.125
 21
40.0
 31
0.0
  0
LINE
  8
0
  6
LTYPE2
 62
     2
 10
67.67182754
 20
46.343739453
 30
0.0
 11
62.47817246
 21
46.343739453
 31
0.0
  0
LINE
  8
0
  6
LTYPE2
 62
     2
 10
54.999999993
 20
102.0
 30
0.0
 11
54.999999993
 21
37.0
 31
0.0
  0
LINE
  8
0
  6
LTYPE2
 62
     2
 10
41.25
 20
66.29682754
 30
0.0
 11
41.25
 21
58.70317246
 31
0.0
  0
LINE
  8
0
  6
LTYPE2
 62
     2
 10
45.04682754
 20
62.5
 30
0.0
 11
37.45317246
 21
62.5
 31
0.0
  0
LINE
  8
0
  6
LTYPE2
 62
     2
 10
67.5
 20
96.874957815
 30
0.0
 11
67.5
 21
88.578186524
 31
0.0
  0
LINE
  8
0
  6
LTYPE2
 62
     2
 10
65.5
 20
93.500000002
 30
0.0
 11
73.468908201
 21
93.500000002
 31
0.0
  0
LINE
  8
0
  6
LTYPE2
 62
     2
 10
42.5
 20
96.874957811
 30
0.0
 11
42.5
 21
88.578186521
 31
0.0
  0
LINE
  8
0
  6
LTYPE2
 62
     2
 10
27.0
 20
150.0
 30
0.0
 11
83.0
 21
150.0
 31
0.0
  0
LINE
  8
0
  6
LTYPE2
 62
     2
 10
55.0
 20
122.0
 30
0.0
 11
55.0
 21
178.0
 31
0.0
  0
LINE
  8
0
  6
LTYPE2
 62
     2
 10
38.433478907
 20
140.0
 30
0.0
 11
75.036756814
 21
140.0
 31
0.0
  0
LINE
  8
0
  6
LTYPE2
 62
     2
 10
38.433478907
 20
160.0
 30
0.0
 11
75.036756814
 21
160.0
 31
0.0
  0
LINE
  8
0
  6
LTYPE2
 62
     2
 10
140.0
 20
37.0
 30
0.0
 11
140.0
 21
102.0
 31
0.0
  0
LINE
  8
0
  6
LTYPE2
 62
     2
 10
130.0
 20
96.874957813
 30
0.0
 11
130.0
 21
89.281302734
 31
0.0
  0
LINE
  8
0
  6
LTYPE2
 62
     2
 10
149.999718754
 20
96.874957813
 30
0.0
 11
149.999718754
 21
89.281302734
 31
0.0
  0
LINE
  8
0
  6
LTYPE2
 62
     2
 10
158.75
 20
48.874957813
 30
0.0
 11
158.75
 21
43.812521093
 31
0.0
  0
LINE
  8
0
  6
LTYPE2
 62
     2
 10
156.21878164
 20
46.343739453
 30
0.0
 11
161.28121836
 21
46.343739453
 31
0.0
  0
LINE
  8
0
  6
LTYPE2
 62
     2
 10
155.0
 20
42.109348633
 30
0.0
 11
155.0
 21
40.0
 31
0.0
  0
LINE
  8
0
  6
LTYPE2
 62
     2
 10
125.0
 20
42.109348633
 30
0.0
 11
125.0
 21
40.0
 31
0.0
  0
LINE
  8
0
  6
LTYPE2
 62
     2
 10
121.25
 20
48.874957813
 30
0.0
 11
121.25
 21
43.812521093
 31
0.0
  0
LINE
  8
0
  6
LTYPE2
 62
     2
 10
118.71878164
 20
46.343739453
 30
0.0
 11
123.78121836
 21
46.343739453
 31
0.0
  0
LINE
  8
0
  6
LTYPE2
 62
     2
 10
120.034820115
 20
62.5
 30
0.0
 11
129.062605467
 21
62.5
 31
0.0
  0
LINE
  8
0
  6
LTYPE2
 62
     2
 10
118.71878164
 20
71.343739453
 30
0.0
 11
123.78121836
 21
71.343739453
 31
0.0
  0
LINE
  8
0
  6
LTYPE2
 62
     2
 10
121.25
 20
73.874957813
 30
0.0
 11
121.25
 21
68.812521093
 31
0.0
  0
LINE
  8
0
  6
LTYPE2
 62
     2
 10
158.75
 20
73.874957813
 30
0.0
 11
158.75
 21
68.812521093
 31
0.0
  0
LINE
  8
0
  6
LTYPE2
 62
     2
 10
156.21878164
 20
71.343739453
 30
0.0
 11
161.28121836
 21
71.343739453
 31
0.0
  0
TEXT
  8
0
  6
CONTINUOUS
 62
     2
 10
93.691
 20
158.755335042
 30
0.3
 40
3.0
  1
ヒューズ
 50
0.0
 41
0.9
 51
0.0
  7
KANJI5
  0
TEXT
  8
0
  6
CONTINUOUS
 62
     2
 10
142.399
 20
158.755335042
 30
0.3
 40
3.0
  1
ヒューズ
 50
0.0
 41
0.9
 51
0.0
  7
KANJI5
  0
TEXT
  8
0
  6
CONTINUOUS
 62
     2
 10
172.0
 20
180.0
 30
0.4
 40
4.0
  1
エホ゜キシモールト゛計器用変圧器
 50
0.0
 41
0.9
 51
0.0
  7
KANJI0
  0
LINE
  8
0
  6
CONTINUOUS
 62
     2
 10
180.0
 20
131.0
 30
0.0
 11
180.0
 21
116.0
 31
0.0
  0
LINE
  8
0
  6
CONTINUOUS
 62
     2
 10
208.0
 20
148.0
 30
0.0
 11
208.0
 21
143.0
 31
0.0
  0
LINE
  8
0
  6
CONTINUOUS
 62
     2
 10
198.0
 20
168.0
 30
0.0
 11
223.0
 21
168.0
 31
0.0
  0
TEXT
  8
0
  6
CONTINUOUS
 62
     2
 10
202.0
 20
169.0
 30
0.3
 40
3.0
  1
＃１　　　６６００Ｖ
 50
0.0
 41
0.9
 51
0.0
  7
KANJI2
  0
TEXT
  8
0
  6
CONTINUOUS
 62
     2
 10
202.0
 20
164.0
 30
0.3
 40
3.0
  1
＃２　　　３３００Ｖ
 50
0.0
 41
0.9
 51
0.0
  7
KANJI2
  0
LINE
  8
0
  6
CONTINUOUS
 62
     2
 10
208.0
 20
173.0
 30
0.0
 11
208.0
 21
163.0
 31
0.0
  0
TEXT
  8
0
  6
CONTINUOUS
 62
     2
 10
166.5
 20
134.0
 30
0.3
 40
3.0
  1
質　量
 50
0.0
 41
0.9
 51
0.0
  7
KANJI2
  0
TEXT
  8
0
  6
CONTINUOUS
 62
     2
 10
73.898502692
 20
30.441666771
 30
0.3
 40
3.0
  1
４－φ１０取付穴
 50
0.0
 41
0.9
 51
0.0
  7
KANJI5
  0
LINE
  8
0
  6
CONTINUOUS
 62
     2
 10
73.898502692
 20
30.0
 30
0.0
 11
97.280502692
 21
30.0
 31
0.0
  0
TEXT
  8
0
  6
CONTINUOUS
 62
     1
 10
179.0
 20
56.0
 30
0.0
 40
4.0
  1
エポキシモールド計器用変圧器外形図
 50
0.0
 41
0.75
 51
0.0
  7
KANJI8
  0
TEXT
  8
0
  6
CONTINUOUS
 62
     3
 10
182.0
 20
42.0
 30
0.2
 40
5.8
  1
ＭＳ－９４７９Ａ
 50
0.0
 41
0.827586207
 51
0.0
  7
KANJI9
  0
TEXT
  8
0
  6
CONTINUOUS
 62
     1
 10
181.0
 20
69.946
 30
0.4
 40
4.0
  1
ＰＭｅ－３Ｅａ
 50
0.0
 41
0.9
 51
0.0
  7
KANJI10
  0
TEXT
  8
0
  6
CONTINUOUS
 62
     1
 10
181.0
 20
64.946
 30
0.4
 40
4.0
  1
ＰＭｅ－６Ｅａ
 50
0.0
 41
0.9
 51
0.0
  7
KANJI10
  0
ENDSEC
  0
EOF
