  0
SECTION
  2
HEADER
  9
$ACADVER
  1
AC1009
  9
$DWGCODEPAGE
  3
dos932
  9
$EXTMIN
 10
0.0
 20
0.0
 30
0.0
  9
$EXTMAX
 10
297.0
 20
210.0
 30
0.0
  9
$LIMMIN
 10
0.0
 20
0.0
  9
$LIMMAX
 10
297.0
 20
210.0
  9
$LTSCALE
 40
1.0
  9
$PDMODE
 70
     0
  0
ENDSEC
  0
SECTION
  2
TABLES
  0
TABLE
  2
VPORT
 70
     1
  0
VPORT
  2
*ACTIVE
 70
     0
 10
0.0
 20
0.0
 11
1.0
 21
1.0
 12
148.5
 22
105.0
 13
0.0
 23
0.0
 14
10.0
 24
10.0
 15
10.0
 25
10.0
 16
0.0
 26
0.0
 36
1.0
 17
0.0
 27
0.0
 37
0.0
 40
297.0
 41
1.414285714
 42
50.0
 43
0.0
 44
0.0
 50
0.0
 51
0.0
 71
     0
 72
  1000
 73
     1
 74
     3
 75
     0
 76
     0
 77
     0
 78
     0
  0
ENDTAB
  0
TABLE
  2
LTYPE
 70
     2
  0
LTYPE
  2
CONTINUOUS
 70
    64
  3
Solid line
 72
    65
 73
     0
 40
0.0
  0
LTYPE
  2
LTYPE1
 70
    64
  3
CENTER
 72
    65
 73
     4
 40
64.0
 49
44.8
 49
-6.4
 49
6.4
 49
-6.4
  0
ENDTAB
  0
TABLE
  2
LAYER
 70
   128
  0
LAYER
  2
0
 70
     0
 62
     7
  6
CONTINUOUS
  0
LAYER
  2
2
 70
     0
 62
     7
  6
CONTINUOUS
  0
LAYER
  2
3
 70
     0
 62
     7
  6
CONTINUOUS
  0
LAYER
  2
4
 70
     0
 62
     7
  6
CONTINUOUS
  0
LAYER
  2
5
 70
     0
 62
     7
  6
CONTINUOUS
  0
LAYER
  2
6
 70
     0
 62
     7
  6
CONTINUOUS
  0
LAYER
  2
7
 70
     0
 62
     7
  6
CONTINUOUS
  0
LAYER
  2
8
 70
     0
 62
     7
  6
CONTINUOUS
  0
LAYER
  2
9
 70
     0
 62
     7
  6
CONTINUOUS
  0
LAYER
  2
10
 70
     0
 62
     7
  6
CONTINUOUS
  0
LAYER
  2
11
 70
     0
 62
     7
  6
CONTINUOUS
  0
LAYER
  2
12
 70
     0
 62
     7
  6
CONTINUOUS
  0
LAYER
  2
13
 70
     0
 62
     7
  6
CONTINUOUS
  0
LAYER
  2
14
 70
     0
 62
     7
  6
CONTINUOUS
  0
LAYER
  2
15
 70
     0
 62
     7
  6
CONTINUOUS
  0
LAYER
  2
16
 70
     0
 62
     7
  6
CONTINUOUS
  0
LAYER
  2
17
 70
     0
 62
     7
  6
CONTINUOUS
  0
LAYER
  2
18
 70
     0
 62
     7
  6
CONTINUOUS
  0
LAYER
  2
19
 70
     0
 62
     7
  6
CONTINUOUS
  0
LAYER
  2
20
 70
     0
 62
     7
  6
CONTINUOUS
  0
LAYER
  2
21
 70
     0
 62
     7
  6
CONTINUOUS
  0
LAYER
  2
22
 70
     0
 62
     7
  6
CONTINUOUS
  0
LAYER
  2
23
 70
     0
 62
     7
  6
CONTINUOUS
  0
LAYER
  2
24
 70
     0
 62
     7
  6
CONTINUOUS
  0
LAYER
  2
25
 70
     0
 62
     7
  6
CONTINUOUS
  0
LAYER
  2
26
 70
     0
 62
     7
  6
CONTINUOUS
  0
LAYER
  2
27
 70
     0
 62
     7
  6
CONTINUOUS
  0
LAYER
  2
28
 70
     0
 62
     7
  6
CONTINUOUS
  0
LAYER
  2
29
 70
     0
 62
     7
  6
CONTINUOUS
  0
LAYER
  2
30
 70
     0
 62
     7
  6
CONTINUOUS
  0
LAYER
  2
31
 70
     0
 62
     7
  6
CONTINUOUS
  0
LAYER
  2
32
 70
     0
 62
     7
  6
CONTINUOUS
  0
LAYER
  2
33
 70
     0
 62
     7
  6
CONTINUOUS
  0
LAYER
  2
34
 70
     0
 62
     7
  6
CONTINUOUS
  0
LAYER
  2
35
 70
     0
 62
     7
  6
CONTINUOUS
  0
LAYER
  2
36
 70
     0
 62
     7
  6
CONTINUOUS
  0
LAYER
  2
37
 70
     0
 62
     7
  6
CONTINUOUS
  0
LAYER
  2
38
 70
     0
 62
     7
  6
CONTINUOUS
  0
LAYER
  2
39
 70
     0
 62
     7
  6
CONTINUOUS
  0
LAYER
  2
40
 70
     0
 62
     7
  6
CONTINUOUS
  0
LAYER
  2
41
 70
     0
 62
     7
  6
CONTINUOUS
  0
LAYER
  2
42
 70
     0
 62
     7
  6
CONTINUOUS
  0
LAYER
  2
43
 70
     0
 62
     7
  6
CONTINUOUS
  0
LAYER
  2
44
 70
     0
 62
     7
  6
CONTINUOUS
  0
LAYER
  2
45
 70
     0
 62
     7
  6
CONTINUOUS
  0
LAYER
  2
46
 70
     0
 62
     7
  6
CONTINUOUS
  0
LAYER
  2
47
 70
     0
 62
     7
  6
CONTINUOUS
  0
LAYER
  2
48
 70
     0
 62
     7
  6
CONTINUOUS
  0
LAYER
  2
49
 70
     0
 62
     7
  6
CONTINUOUS
  0
LAYER
  2
50
 70
     0
 62
     7
  6
CONTINUOUS
  0
LAYER
  2
51
 70
     0
 62
     7
  6
CONTINUOUS
  0
LAYER
  2
52
 70
     0
 62
     7
  6
CONTINUOUS
  0
LAYER
  2
53
 70
     0
 62
     7
  6
CONTINUOUS
  0
LAYER
  2
54
 70
     0
 62
     7
  6
CONTINUOUS
  0
LAYER
  2
55
 70
     0
 62
     7
  6
CONTINUOUS
  0
LAYER
  2
56
 70
     0
 62
     7
  6
CONTINUOUS
  0
LAYER
  2
57
 70
     0
 62
     7
  6
CONTINUOUS
  0
LAYER
  2
58
 70
     0
 62
     7
  6
CONTINUOUS
  0
LAYER
  2
59
 70
     0
 62
     7
  6
CONTINUOUS
  0
LAYER
  2
60
 70
     0
 62
     7
  6
CONTINUOUS
  0
LAYER
  2
61
 70
     0
 62
     7
  6
CONTINUOUS
  0
LAYER
  2
62
 70
     0
 62
     7
  6
CONTINUOUS
  0
LAYER
  2
63
 70
     0
 62
     7
  6
CONTINUOUS
  0
LAYER
  2
64
 70
     0
 62
     7
  6
CONTINUOUS
  0
LAYER
  2
65
 70
     0
 62
     7
  6
CONTINUOUS
  0
LAYER
  2
66
 70
     0
 62
     7
  6
CONTINUOUS
  0
LAYER
  2
67
 70
     0
 62
     7
  6
CONTINUOUS
  0
LAYER
  2
68
 70
     0
 62
     7
  6
CONTINUOUS
  0
LAYER
  2
69
 70
     0
 62
     7
  6
CONTINUOUS
  0
LAYER
  2
70
 70
     0
 62
     7
  6
CONTINUOUS
  0
LAYER
  2
71
 70
     0
 62
     7
  6
CONTINUOUS
  0
LAYER
  2
72
 70
     0
 62
     7
  6
CONTINUOUS
  0
LAYER
  2
73
 70
     0
 62
     7
  6
CONTINUOUS
  0
LAYER
  2
74
 70
     0
 62
     7
  6
CONTINUOUS
  0
LAYER
  2
75
 70
     0
 62
     7
  6
CONTINUOUS
  0
LAYER
  2
76
 70
     0
 62
     7
  6
CONTINUOUS
  0
LAYER
  2
77
 70
     0
 62
     7
  6
CONTINUOUS
  0
LAYER
  2
78
 70
     0
 62
     7
  6
CONTINUOUS
  0
LAYER
  2
79
 70
     0
 62
     7
  6
CONTINUOUS
  0
LAYER
  2
80
 70
     0
 62
     7
  6
CONTINUOUS
  0
LAYER
  2
81
 70
     0
 62
     7
  6
CONTINUOUS
  0
LAYER
  2
82
 70
     0
 62
     7
  6
CONTINUOUS
  0
LAYER
  2
83
 70
     0
 62
     7
  6
CONTINUOUS
  0
LAYER
  2
84
 70
     0
 62
     7
  6
CONTINUOUS
  0
LAYER
  2
85
 70
     0
 62
     7
  6
CONTINUOUS
  0
LAYER
  2
86
 70
     0
 62
     7
  6
CONTINUOUS
  0
LAYER
  2
87
 70
     0
 62
     7
  6
CONTINUOUS
  0
LAYER
  2
88
 70
     0
 62
     7
  6
CONTINUOUS
  0
LAYER
  2
89
 70
     0
 62
     7
  6
CONTINUOUS
  0
LAYER
  2
90
 70
     0
 62
     7
  6
CONTINUOUS
  0
LAYER
  2
91
 70
     0
 62
     7
  6
CONTINUOUS
  0
LAYER
  2
92
 70
     0
 62
     7
  6
CONTINUOUS
  0
LAYER
  2
93
 70
     0
 62
     7
  6
CONTINUOUS
  0
LAYER
  2
94
 70
     0
 62
     7
  6
CONTINUOUS
  0
LAYER
  2
95
 70
     0
 62
     7
  6
CONTINUOUS
  0
LAYER
  2
96
 70
     0
 62
     7
  6
CONTINUOUS
  0
LAYER
  2
97
 70
     0
 62
     7
  6
CONTINUOUS
  0
LAYER
  2
98
 70
     0
 62
     7
  6
CONTINUOUS
  0
LAYER
  2
99
 70
     0
 62
     7
  6
CONTINUOUS
  0
LAYER
  2
100
 70
     0
 62
     7
  6
CONTINUOUS
  0
LAYER
  2
101
 70
     0
 62
     7
  6
CONTINUOUS
  0
LAYER
  2
102
 70
     0
 62
     7
  6
CONTINUOUS
  0
LAYER
  2
103
 70
     0
 62
     7
  6
CONTINUOUS
  0
LAYER
  2
104
 70
     0
 62
     7
  6
CONTINUOUS
  0
LAYER
  2
105
 70
     0
 62
     7
  6
CONTINUOUS
  0
LAYER
  2
106
 70
     0
 62
     7
  6
CONTINUOUS
  0
LAYER
  2
107
 70
     0
 62
     7
  6
CONTINUOUS
  0
LAYER
  2
108
 70
     0
 62
     7
  6
CONTINUOUS
  0
LAYER
  2
109
 70
     0
 62
     7
  6
CONTINUOUS
  0
LAYER
  2
110
 70
     0
 62
     7
  6
CONTINUOUS
  0
LAYER
  2
111
 70
     0
 62
     7
  6
CONTINUOUS
  0
LAYER
  2
112
 70
     0
 62
     7
  6
CONTINUOUS
  0
LAYER
  2
113
 70
     0
 62
     7
  6
CONTINUOUS
  0
LAYER
  2
114
 70
     0
 62
     7
  6
CONTINUOUS
  0
LAYER
  2
115
 70
     0
 62
     7
  6
CONTINUOUS
  0
LAYER
  2
116
 70
     0
 62
     7
  6
CONTINUOUS
  0
LAYER
  2
117
 70
     0
 62
     7
  6
CONTINUOUS
  0
LAYER
  2
118
 70
     0
 62
     7
  6
CONTINUOUS
  0
LAYER
  2
119
 70
     0
 62
     7
  6
CONTINUOUS
  0
LAYER
  2
120
 70
     0
 62
     7
  6
CONTINUOUS
  0
LAYER
  2
121
 70
     0
 62
     7
  6
CONTINUOUS
  0
LAYER
  2
122
 70
     0
 62
     7
  6
CONTINUOUS
  0
LAYER
  2
123
 70
     0
 62
     7
  6
CONTINUOUS
  0
LAYER
  2
124
 70
     0
 62
     7
  6
CONTINUOUS
  0
LAYER
  2
125
 70
     0
 62
     7
  6
CONTINUOUS
  0
LAYER
  2
126
 70
     0
 62
     7
  6
CONTINUOUS
  0
LAYER
  2
127
 70
     0
 62
     7
  6
CONTINUOUS
  0
LAYER
  2
128
 70
     0
 62
     7
  6
CONTINUOUS
  0
ENDTAB
  0
TABLE
  2
STYLE
 70
    17
  0
STYLE
  2
STANDARD
 70
     0
 40
0.0
 41
1.0
 50
0.0
 71
     0
 42
0.2
  3
txt.shx
  4
extfont.shx
  0
STYLE
  2
KANJI0
 70
     0
 40
1.89
 41
1.0
 50
0.0
 71
     0
 42
1.89
  3
txt.shx
  4
extfont.shx
  0
STYLE
  2
KANJI1
 70
     0
 40
1.575
 41
0.6
 50
0.0
 71
     0
 42
1.575
  3
txt.shx
  4
extfont.shx
  0
STYLE
  2
KANJI2
 70
     0
 40
1.89
 41
0.666
 50
0.0
 71
     0
 42
1.89
  3
txt.shx
  4
extfont.shx
  0
STYLE
  2
KANJI3
 70
     0
 40
0.945
 41
1.0
 50
0.0
 71
     0
 42
0.945
  3
txt.shx
  4
extfont.shx
  0
STYLE
  2
KANJI4
 70
     0
 40
1.26
 41
0.75
 50
0.0
 71
     0
 42
1.26
  3
txt.shx
  4
extfont.shx
  0
STYLE
  2
KANJI5
 70
     0
 40
1.89
 41
0.333
 50
0.0
 71
     0
 42
1.89
  3
txt.shx
  4
extfont.shx
  0
STYLE
  2
KANJI6
 70
     0
 40
2.205
 41
0.857
 50
0.0
 71
     0
 42
2.205
  3
txt.shx
  4
extfont.shx
  0
STYLE
  2
KANJI7
 70
     0
 40
1.26
 41
1.0
 50
0.0
 71
     0
 42
1.26
  3
txt.shx
  4
extfont.shx
  0
STYLE
  2
KANJI8
 70
     0
 40
2.52
 41
0.75
 50
0.0
 71
     0
 42
2.52
  3
txt.shx
  4
extfont.shx
  0
STYLE
  2
KANJI9
 70
     0
 40
1.26
 41
0.5
 50
0.0
 71
     0
 42
1.26
  3
txt.shx
  4
extfont.shx
  0
STYLE
  2
KANJI10
 70
     0
 40
0.63
 41
1.0
 50
0.0
 71
     0
 42
0.63
  3
txt.shx
  4
extfont.shx
  0
STYLE
  2
KANJI11
 70
     0
 40
5.04
 41
0.5
 50
0.0
 71
     0
 42
5.04
  3
txt.shx
  4
extfont.shx
  0
STYLE
  2
KANJI12
 70
     0
 40
0.945
 41
0.666
 50
0.0
 71
     0
 42
0.945
  3
txt.shx
  4
extfont.shx
  0
STYLE
  2
KANJI13
 70
     0
 40
0.882
 41
0.714
 50
0.0
 71
     0
 42
0.882
  3
txt.shx
  4
extfont.shx
  0
STYLE
  2
KANJI14
 70
     0
 40
1.89
 41
1.0
 50
0.0
 71
     0
 42
1.89
  3
txt.shx
  4
extfont.shx
  0
STYLE
  2
KANJI15
 70
     0
 40
3.15
 41
0.8
 50
0.0
 71
     0
 42
3.15
  3
txt.shx
  4
extfont.shx
  0
ENDTAB
  0
TABLE
  2
VIEW
 70
     0
  0
ENDTAB
  0
ENDSEC
  0
SECTION
  2
BLOCKS
  0
ENDSEC
  0
SECTION
  2
ENTITIES
  0
LINE
  8
0
  6
CONTINUOUS
 62
     7
 10
145.97
 20
85.24
 30
0.0
 11
208.97
 21
85.24
 31
0.0
  0
LINE
  8
0
  6
CONTINUOUS
 62
     7
 10
208.97
 20
85.24
 30
0.0
 11
208.97
 21
34.84
 31
0.0
  0
LINE
  8
0
  6
CONTINUOUS
 62
     7
 10
208.97
 20
34.84
 30
0.0
 11
145.97
 21
34.84
 31
0.0
  0
LINE
  8
0
  6
CONTINUOUS
 62
     7
 10
145.97
 20
34.84
 30
0.0
 11
145.97
 21
85.24
 31
0.0
  0
TEXT
  8
0
  6
CONTINUOUS
 62
     7
 10
152.27
 20
82.09
 30
0.0
 40
1.89
  1
ソ
 50
0.0
 41
1.0
 51
0.0
  7
KANJI0
  0
TEXT
  8
0
  6
CONTINUOUS
 62
     7
 10
154.16
 20
82.09
 30
0.0
 40
1.89
  1
ケ
 50
0.0
 41
1.0
 51
0.0
  7
KANJI0
  0
TEXT
  8
0
  6
CONTINUOUS
 62
     7
 10
156.05
 20
82.09
 30
0.0
 40
1.89
  1
ッ
 50
0.0
 41
1.0
 51
0.0
  7
KANJI0
  0
TEXT
  8
0
  6
CONTINUOUS
 62
     7
 10
157.94
 20
82.09
 30
0.0
 40
1.89
  1
ト
 50
0.0
 41
1.0
 51
0.0
  7
KANJI0
  0
TEXT
  8
0
  6
CONTINUOUS
 62
     7
 10
159.83
 20
82.09
 30
0.0
 40
1.89
  1
を
 50
0.0
 41
1.0
 51
0.0
  7
KANJI0
  0
TEXT
  8
0
  6
CONTINUOUS
 62
     7
 10
161.72
 20
82.09
 30
0.0
 40
1.89
  1
取
 50
0.0
 41
1.0
 51
0.0
  7
KANJI0
  0
TEXT
  8
0
  6
CONTINUOUS
 62
     7
 10
163.61
 20
82.09
 30
0.0
 40
1.89
  1
り
 50
0.0
 41
1.0
 51
0.0
  7
KANJI0
  0
TEXT
  8
0
  6
CONTINUOUS
 62
     7
 10
165.5
 20
82.09
 30
0.0
 40
1.89
  1
付
 50
0.0
 41
1.0
 51
0.0
  7
KANJI0
  0
TEXT
  8
0
  6
CONTINUOUS
 62
     7
 10
167.39
 20
82.09
 30
0.0
 40
1.89
  1
け
 50
0.0
 41
1.0
 51
0.0
  7
KANJI0
  0
TEXT
  8
0
  6
CONTINUOUS
 62
     7
 10
169.28
 20
82.09
 30
0.0
 40
1.89
  1
た
 50
0.0
 41
1.0
 51
0.0
  7
KANJI0
  0
TEXT
  8
0
  6
CONTINUOUS
 62
     7
 10
171.17
 20
82.09
 30
0.0
 40
1.89
  1
状
 50
0.0
 41
1.0
 51
0.0
  7
KANJI0
  0
TEXT
  8
0
  6
CONTINUOUS
 62
     7
 10
173.06
 20
82.09
 30
0.0
 40
1.89
  1
態
 50
0.0
 41
1.0
 51
0.0
  7
KANJI0
  0
TEXT
  8
0
  6
CONTINUOUS
 62
     7
 10
176.84
 20
82.09
 30
0.0
 40
1.89
  1
（
 50
0.0
 41
1.0
 51
0.0
  7
KANJI0
  0
TEXT
  8
0
  6
CONTINUOUS
 62
     7
 10
181.25
 20
82.09
 30
0.0
 40
1.89
  1
）
 50
0.0
 41
1.0
 51
0.0
  7
KANJI0
  0
TEXT
  8
0
  6
CONTINUOUS
 62
     7
 10
179.36
 20
82.405
 30
0.0
 40
1.575
  1
／
 50
0.0
 41
0.6
 51
0.0
  7
KANJI1
  0
TEXT
  8
0
  6
CONTINUOUS
 62
     7
 10
179.99
 20
81.46
 30
0.0
 40
1.575
  1
２
 50
0.0
 41
0.6
 51
0.0
  7
KANJI1
  0
TEXT
  8
0
  6
CONTINUOUS
 62
     7
 10
179.045
 20
83.35
 30
0.0
 40
1.575
  1
１
 50
0.0
 41
0.6
 51
0.0
  7
KANJI1
  0
TEXT
  8
0
  6
CONTINUOUS
 62
     7
 10
79.19
 20
15.31
 30
0.0
 40
1.89
  1
ソ
 50
0.0
 41
1.0
 51
0.0
  7
KANJI0
  0
TEXT
  8
0
  6
CONTINUOUS
 62
     7
 10
81.08
 20
15.31
 30
0.0
 40
1.89
  1
ケ
 50
0.0
 41
1.0
 51
0.0
  7
KANJI0
  0
TEXT
  8
0
  6
CONTINUOUS
 62
     7
 10
82.97
 20
15.31
 30
0.0
 40
1.89
  1
ッ
 50
0.0
 41
1.0
 51
0.0
  7
KANJI0
  0
TEXT
  8
0
  6
CONTINUOUS
 62
     7
 10
84.86
 20
15.31
 30
0.0
 40
1.89
  1
ト
 50
0.0
 41
1.0
 51
0.0
  7
KANJI0
  0
LINE
  8
0
  6
CONTINUOUS
 62
     7
 10
77.3
 20
14.68
 30
0.0
 11
88.64
 21
14.68
 31
0.0
  0
TEXT
  8
0
  6
CONTINUOUS
 62
     7
 10
50.21
 20
85.87
 30
0.0
 40
1.89
  1
５
 50
0.0
 41
0.666
 51
0.0
  7
KANJI2
  0
TEXT
  8
0
  6
CONTINUOUS
 62
     7
 10
51.47
 20
85.87
 30
0.0
 40
1.89
  1
０
 50
0.0
 41
0.666
 51
0.0
  7
KANJI2
  0
TEXT
  8
0
  6
CONTINUOUS
 62
     7
 10
89.9
 20
78.31
 30
0.0
 40
1.89
  1
５
 50
0.0
 41
0.666
 51
0.0
  7
KANJI2
  0
LINE
  8
0
  6
CONTINUOUS
 62
     7
 10
47.69
 20
73.9
 30
0.0
 11
23.12
 21
73.9
 31
0.0
  0
LINE
  8
0
  6
CONTINUOUS
 62
     7
 10
23.12
 20
23.5
 30
0.0
 11
42.65
 21
23.5
 31
0.0
  0
LINE
  8
0
  6
CONTINUOUS
 62
     7
 10
24.38
 20
73.9
 30
0.0
 11
24.38
 21
23.5
 31
0.0
  0
LINE
  8
0
  6
CONTINUOUS
 62
     7
 10
24.706088
 20
72.682903
 30
0.0
 11
24.38
 21
73.9
 31
0.0
  0
LINE
  8
0
  6
CONTINUOUS
 62
     7
 10
24.38
 20
73.9
 30
0.0
 11
24.053912
 21
72.682903
 31
0.0
  0
LINE
  8
0
  6
CONTINUOUS
 62
     7
 10
24.053912
 20
24.717097
 30
0.0
 11
24.38
 21
23.5
 31
0.0
  0
LINE
  8
0
  6
CONTINUOUS
 62
     7
 10
24.38
 20
23.5
 30
0.0
 11
24.706088
 21
24.717097
 31
0.0
  0
TEXT
  8
0
  6
CONTINUOUS
 62
     7
 10
23.75
 20
47.44
 30
0.0
 40
1.89
  1
８
 50
90.0
 41
0.666
 51
0.0
  7
KANJI2
  0
TEXT
  8
0
  6
CONTINUOUS
 62
     7
 10
23.75
 20
48.7
 30
0.0
 40
1.89
  1
０
 50
90.0
 41
0.666
 51
0.0
  7
KANJI2
  0
LINE
  8
0
  6
LTYPE1
 62
     7
 10
38.87
 20
44.29
 30
0.0
 11
38.87
 21
82.09
 31
0.0
  0
LINE
  8
0
  6
LTYPE1
 62
     7
 10
64.07
 20
44.29
 30
0.0
 11
64.07
 21
82.09
 31
0.0
  0
LINE
  8
0
  6
CONTINUOUS
 62
     7
 10
38.87
 20
80.83
 30
0.0
 11
64.07
 21
80.83
 31
0.0
  0
LINE
  8
0
  6
CONTINUOUS
 62
     7
 10
40.087097
 20
81.156088
 30
0.0
 11
38.87
 21
80.83
 31
0.0
  0
LINE
  8
0
  6
CONTINUOUS
 62
     7
 10
38.87
 20
80.83
 30
0.0
 11
40.087097
 21
80.503912
 31
0.0
  0
LINE
  8
0
  6
CONTINUOUS
 62
     7
 10
62.852903
 20
80.503912
 30
0.0
 11
64.07
 21
80.83
 31
0.0
  0
LINE
  8
0
  6
CONTINUOUS
 62
     7
 10
64.07
 20
80.83
 30
0.0
 11
62.852903
 21
81.156088
 31
0.0
  0
TEXT
  8
0
  6
CONTINUOUS
 62
     7
 10
50.21
 20
81.46
 30
0.0
 40
1.89
  1
４
 50
0.0
 41
0.666
 51
0.0
  7
KANJI2
  0
TEXT
  8
0
  6
CONTINUOUS
 62
     7
 10
51.47
 20
81.46
 30
0.0
 40
1.89
  1
０
 50
0.0
 41
0.666
 51
0.0
  7
KANJI2
  0
LINE
  8
0
  6
CONTINUOUS
 62
     7
 10
67.22
 20
73.9
 30
0.0
 11
67.22
 21
86.5
 31
0.0
  0
LINE
  8
0
  6
CONTINUOUS
 62
     7
 10
35.72
 20
73.27
 30
0.0
 11
35.72
 21
86.5
 31
0.0
  0
LINE
  8
0
  6
CONTINUOUS
 62
     7
 10
35.72
 20
85.24
 30
0.0
 11
67.22
 21
85.24
 31
0.0
  0
LINE
  8
0
  6
CONTINUOUS
 62
     7
 10
36.937097
 20
85.566088
 30
0.0
 11
35.72
 21
85.24
 31
0.0
  0
LINE
  8
0
  6
CONTINUOUS
 62
     7
 10
35.72
 20
85.24
 30
0.0
 11
36.937097
 21
84.913912
 31
0.0
  0
LINE
  8
0
  6
CONTINUOUS
 62
     7
 10
66.002903
 20
84.913912
 30
0.0
 11
67.22
 21
85.24
 31
0.0
  0
LINE
  8
0
  6
CONTINUOUS
 62
     7
 10
67.22
 20
85.24
 30
0.0
 11
66.002903
 21
85.566088
 31
0.0
  0
LINE
  8
0
  6
CONTINUOUS
 62
     7
 10
54.116
 20
48.7
 30
0.0
 11
54.053
 21
49.141
 31
0.0
  0
LINE
  8
0
  6
CONTINUOUS
 62
     7
 10
54.053
 20
49.141
 30
0.0
 11
53.927
 21
49.582
 31
0.0
  0
LINE
  8
0
  6
CONTINUOUS
 62
     7
 10
53.927
 20
49.582
 30
0.0
 11
53.738
 21
50.023
 31
0.0
  0
LINE
  8
0
  6
CONTINUOUS
 62
     7
 10
53.738
 20
50.023
 30
0.0
 11
53.486
 21
50.401
 31
0.0
  0
LINE
  8
0
  6
CONTINUOUS
 62
     7
 10
53.486
 20
50.401
 30
0.0
 11
53.171
 21
50.716
 31
0.0
  0
LINE
  8
0
  6
CONTINUOUS
 62
     7
 10
52.352
 20
51.157
 30
0.0
 11
51.911
 21
51.283
 31
0.0
  0
LINE
  8
0
  6
CONTINUOUS
 62
     7
 10
51.911
 20
51.283
 30
0.0
 11
51.47
 21
51.346
 31
0.0
  0
LINE
  8
0
  6
CONTINUOUS
 62
     7
 10
51.47
 20
51.346
 30
0.0
 11
51.029
 21
51.283
 31
0.0
  0
LINE
  8
0
  6
CONTINUOUS
 62
     7
 10
51.029
 20
51.283
 30
0.0
 11
50.588
 21
51.157
 31
0.0
  0
LINE
  8
0
  6
CONTINUOUS
 62
     7
 10
49.013
 20
49.582
 30
0.0
 11
48.887
 21
49.141
 31
0.0
  0
LINE
  8
0
  6
CONTINUOUS
 62
     7
 10
48.887
 20
49.141
 30
0.0
 11
48.824
 21
48.7
 31
0.0
  0
LINE
  8
0
  6
CONTINUOUS
 62
     7
 10
48.824
 20
48.7
 30
0.0
 11
48.887
 21
48.259
 31
0.0
  0
LINE
  8
0
  6
CONTINUOUS
 62
     7
 10
48.887
 20
48.259
 30
0.0
 11
49.013
 21
47.818
 31
0.0
  0
LINE
  8
0
  6
CONTINUOUS
 62
     7
 10
49.013
 20
47.818
 30
0.0
 11
49.202
 21
47.377
 31
0.0
  0
LINE
  8
0
  6
CONTINUOUS
 62
     7
 10
49.202
 20
47.377
 30
0.0
 11
49.454
 21
46.999
 31
0.0
  0
LINE
  8
0
  6
CONTINUOUS
 62
     7
 10
49.769
 20
46.684
 30
0.0
 11
50.147
 21
46.432
 31
0.0
  0
LINE
  8
0
  6
CONTINUOUS
 62
     7
 10
52.793
 20
46.432
 30
0.0
 11
53.171
 21
46.684
 31
0.0
  0
LINE
  8
0
  6
CONTINUOUS
 62
     7
 10
53.171
 20
46.684
 30
0.0
 11
53.486
 21
46.999
 31
0.0
  0
LINE
  8
0
  6
CONTINUOUS
 62
     7
 10
53.486
 20
46.999
 30
0.0
 11
53.738
 21
47.377
 31
0.0
  0
LINE
  8
0
  6
CONTINUOUS
 62
     7
 10
53.738
 20
47.377
 30
0.0
 11
53.927
 21
47.818
 31
0.0
  0
LINE
  8
0
  6
CONTINUOUS
 62
     7
 10
53.927
 20
47.818
 30
0.0
 11
54.053
 21
48.259
 31
0.0
  0
LINE
  8
0
  6
CONTINUOUS
 62
     7
 10
54.053
 20
48.259
 30
0.0
 11
54.116
 21
48.637
 31
0.0
  0
ARC
  8
0
  6
CONTINUOUS
 62
     7
 10
51.47
 20
46.054
 30
0.0
 40
0.819
 50
166.0
 51
0.0
  0
ARC
  8
0
  6
CONTINUOUS
 62
     7
 10
51.47
 20
46.054
 30
0.0
 40
0.819
 50
0.0
 51
13.0
  0
LINE
  8
0
  6
CONTINUOUS
 62
     7
 10
49.454
 20
46.999
 30
0.0
 11
49.769
 21
46.684
 31
0.0
  0
LINE
  8
0
  6
CONTINUOUS
 62
     7
 10
52.352
 20
46.243
 30
0.0
 11
52.793
 21
46.432
 31
0.0
  0
LINE
  8
0
  6
CONTINUOUS
 62
     7
 10
52.289
 20
46.243
 30
0.0
 11
52.352
 21
46.243
 31
0.0
  0
LINE
  8
0
  6
CONTINUOUS
 62
     7
 10
50.147
 20
46.432
 30
0.0
 11
50.588
 21
46.243
 31
0.0
  0
LINE
  8
0
  6
CONTINUOUS
 62
     7
 10
50.588
 20
46.243
 30
0.0
 11
50.651
 21
46.243
 31
0.0
  0
LINE
  8
0
  6
CONTINUOUS
 62
     7
 10
50.336
 20
72.64
 30
0.0
 11
50.336
 21
73.9
 31
0.0
  0
LINE
  8
0
  6
CONTINUOUS
 62
     7
 10
52.604
 20
73.9
 30
0.0
 11
52.604
 21
72.64
 31
0.0
  0
LINE
  8
0
  6
CONTINUOUS
 62
     7
 10
54.179
 20
73.9
 30
0.0
 11
54.179
 21
62.686
 31
0.0
  0
LINE
  8
0
  6
CONTINUOUS
 62
     7
 10
54.179
 20
62.686
 30
0.0
 11
59.093
 21
62.686
 31
0.0
  0
LINE
  8
0
  6
CONTINUOUS
 62
     7
 10
59.093
 20
62.686
 30
0.0
 11
59.093
 21
72.64
 31
0.0
  0
LINE
  8
0
  6
CONTINUOUS
 62
     7
 10
60.668
 20
72.64
 30
0.0
 11
60.668
 21
62.686
 31
0.0
  0
LINE
  8
0
  6
CONTINUOUS
 62
     7
 10
60.668
 20
62.686
 30
0.0
 11
65.582
 21
62.686
 31
0.0
  0
LINE
  8
0
  6
CONTINUOUS
 62
     7
 10
65.582
 20
62.686
 30
0.0
 11
65.582
 21
72.64
 31
0.0
  0
LINE
  8
0
  6
CONTINUOUS
 62
     7
 10
52.604
 20
73.9
 30
0.0
 11
54.179
 21
73.9
 31
0.0
  0
LINE
  8
0
  6
CONTINUOUS
 62
     7
 10
37.358
 20
27.91
 30
0.0
 11
42.272
 21
27.91
 31
0.0
  0
LINE
  8
0
  6
CONTINUOUS
 62
     7
 10
43.847
 20
27.91
 30
0.0
 11
48.761
 21
27.91
 31
0.0
  0
LINE
  8
0
  6
CONTINUOUS
 62
     7
 10
59.093
 20
27.91
 30
0.0
 11
54.179
 21
27.91
 31
0.0
  0
LINE
  8
0
  6
CONTINUOUS
 62
     7
 10
65.582
 20
27.91
 30
0.0
 11
60.668
 21
27.91
 31
0.0
  0
LINE
  8
0
  6
CONTINUOUS
 62
     7
 10
37.358
 20
28.54
 30
0.0
 11
42.272
 21
28.54
 31
0.0
  0
LINE
  8
0
  6
CONTINUOUS
 62
     7
 10
43.847
 20
28.54
 30
0.0
 11
48.761
 21
28.54
 31
0.0
  0
LINE
  8
0
  6
CONTINUOUS
 62
     7
 10
59.093
 20
28.54
 30
0.0
 11
54.179
 21
28.54
 31
0.0
  0
LINE
  8
0
  6
CONTINUOUS
 62
     7
 10
65.582
 20
28.54
 30
0.0
 11
60.668
 21
28.54
 31
0.0
  0
LINE
  8
0
  6
CONTINUOUS
 62
     7
 10
54.179
 20
69.49
 30
0.0
 11
59.093
 21
69.49
 31
0.0
  0
LINE
  8
0
  6
CONTINUOUS
 62
     7
 10
60.668
 20
69.49
 30
0.0
 11
65.582
 21
69.49
 31
0.0
  0
LINE
  8
0
  6
CONTINUOUS
 62
     7
 10
43.847
 20
69.49
 30
0.0
 11
48.761
 21
69.49
 31
0.0
  0
LINE
  8
0
  6
CONTINUOUS
 62
     7
 10
37.358
 20
69.49
 30
0.0
 11
42.272
 21
69.49
 31
0.0
  0
LINE
  8
0
  6
CONTINUOUS
 62
     7
 10
54.179
 20
68.86
 30
0.0
 11
59.093
 21
68.86
 31
0.0
  0
LINE
  8
0
  6
CONTINUOUS
 62
     7
 10
60.668
 20
68.86
 30
0.0
 11
65.582
 21
68.86
 31
0.0
  0
LINE
  8
0
  6
CONTINUOUS
 62
     7
 10
43.847
 20
68.86
 30
0.0
 11
48.761
 21
68.86
 31
0.0
  0
LINE
  8
0
  6
CONTINUOUS
 62
     7
 10
37.358
 20
68.86
 30
0.0
 11
42.272
 21
68.86
 31
0.0
  0
LINE
  8
0
  6
CONTINUOUS
 62
     7
 10
37.358
 20
68.356
 30
0.0
 11
42.272
 21
68.356
 31
0.0
  0
LINE
  8
0
  6
CONTINUOUS
 62
     7
 10
48.761
 20
73.9
 30
0.0
 11
48.761
 21
62.686
 31
0.0
  0
LINE
  8
0
  6
CONTINUOUS
 62
     7
 10
48.761
 20
62.686
 30
0.0
 11
43.847
 21
62.686
 31
0.0
  0
LINE
  8
0
  6
CONTINUOUS
 62
     7
 10
43.847
 20
62.686
 30
0.0
 11
43.847
 21
72.64
 31
0.0
  0
LINE
  8
0
  6
CONTINUOUS
 62
     7
 10
42.272
 20
72.64
 30
0.0
 11
42.272
 21
62.686
 31
0.0
  0
LINE
  8
0
  6
CONTINUOUS
 62
     7
 10
42.272
 20
62.686
 30
0.0
 11
37.358
 21
62.686
 31
0.0
  0
LINE
  8
0
  6
CONTINUOUS
 62
     7
 10
37.358
 20
62.686
 30
0.0
 11
37.358
 21
72.64
 31
0.0
  0
LINE
  8
0
  6
CONTINUOUS
 62
     7
 10
50.336
 20
73.9
 30
0.0
 11
48.761
 21
73.9
 31
0.0
  0
LINE
  8
0
  6
CONTINUOUS
 62
     7
 10
43.847
 20
68.356
 30
0.0
 11
48.761
 21
68.356
 31
0.0
  0
LINE
  8
0
  6
CONTINUOUS
 62
     7
 10
54.179
 20
68.356
 30
0.0
 11
59.093
 21
68.356
 31
0.0
  0
LINE
  8
0
  6
CONTINUOUS
 62
     7
 10
60.668
 20
68.356
 30
0.0
 11
65.582
 21
68.356
 31
0.0
  0
LINE
  8
0
  6
CONTINUOUS
 62
     7
 10
65.582
 20
68.041
 30
0.0
 11
60.668
 21
68.041
 31
0.0
  0
LINE
  8
0
  6
CONTINUOUS
 62
     7
 10
59.093
 20
68.041
 30
0.0
 11
54.179
 21
68.041
 31
0.0
  0
LINE
  8
0
  6
CONTINUOUS
 62
     7
 10
48.761
 20
68.041
 30
0.0
 11
43.847
 21
68.041
 31
0.0
  0
LINE
  8
0
  6
CONTINUOUS
 62
     7
 10
42.272
 20
68.041
 30
0.0
 11
37.358
 21
68.041
 31
0.0
  0
LINE
  8
0
  6
CONTINUOUS
 62
     7
 10
65.582
 20
29.044
 30
0.0
 11
60.668
 21
29.044
 31
0.0
  0
LINE
  8
0
  6
CONTINUOUS
 62
     7
 10
59.093
 20
29.044
 30
0.0
 11
54.179
 21
29.044
 31
0.0
  0
LINE
  8
0
  6
CONTINUOUS
 62
     7
 10
48.761
 20
29.044
 30
0.0
 11
43.847
 21
29.044
 31
0.0
  0
LINE
  8
0
  6
CONTINUOUS
 62
     7
 10
42.272
 20
29.044
 30
0.0
 11
37.358
 21
29.044
 31
0.0
  0
LINE
  8
0
  6
CONTINUOUS
 62
     7
 10
37.358
 20
29.359
 30
0.0
 11
42.272
 21
29.359
 31
0.0
  0
LINE
  8
0
  6
CONTINUOUS
 62
     7
 10
43.847
 20
29.359
 30
0.0
 11
48.761
 21
29.359
 31
0.0
  0
LINE
  8
0
  6
CONTINUOUS
 62
     7
 10
54.179
 20
29.359
 30
0.0
 11
59.093
 21
29.359
 31
0.0
  0
LINE
  8
0
  6
CONTINUOUS
 62
     7
 10
60.668
 20
29.359
 30
0.0
 11
65.582
 21
29.359
 31
0.0
  0
LINE
  8
0
  6
CONTINUOUS
 62
     7
 10
50.336
 20
73.9
 30
0.0
 11
52.604
 21
73.9
 31
0.0
  0
LINE
  8
0
  6
CONTINUOUS
 62
     7
 10
50.336
 20
59.095
 30
0.0
 11
50.336
 21
72.64
 31
0.0
  0
LINE
  8
0
  6
CONTINUOUS
 62
     7
 10
52.604
 20
72.64
 30
0.0
 11
52.604
 21
59.095
 31
0.0
  0
LINE
  8
0
  6
CONTINUOUS
 62
     7
 10
52.604
 20
67.915
 30
0.0
 11
50.336
 21
67.915
 31
0.0
  0
LINE
  8
0
  6
CONTINUOUS
 62
     7
 10
50.336
 20
66.97
 30
0.0
 11
52.604
 21
66.97
 31
0.0
  0
LINE
  8
0
  6
CONTINUOUS
 62
     7
 10
50.336
 20
59.41
 30
0.0
 11
52.604
 21
59.41
 31
0.0
  0
LINE
  8
0
  6
CONTINUOUS
 62
     7
 10
50.336
 20
59.095
 30
0.0
 11
52.604
 21
59.095
 31
0.0
  0
LINE
  8
0
  6
CONTINUOUS
 62
     7
 10
67.22
 20
72.64
 30
0.0
 11
67.22
 21
24.76
 31
0.0
  0
LINE
  8
0
  6
CONTINUOUS
 62
     7
 10
35.72
 20
72.64
 30
0.0
 11
48.761
 21
72.64
 31
0.0
  0
LINE
  8
0
  6
CONTINUOUS
 62
     7
 10
54.179
 20
72.64
 30
0.0
 11
67.22
 21
72.64
 31
0.0
  0
LINE
  8
0
  6
CONTINUOUS
 62
     7
 10
54.179
 20
24.76
 30
0.0
 11
67.22
 21
24.76
 31
0.0
  0
LINE
  8
0
  6
CONTINUOUS
 62
     7
 10
52.604
 20
29.485
 30
0.0
 11
50.336
 21
29.485
 31
0.0
  0
LINE
  8
0
  6
CONTINUOUS
 62
     7
 10
50.336
 20
30.43
 30
0.0
 11
52.604
 21
30.43
 31
0.0
  0
LINE
  8
0
  6
CONTINUOUS
 62
     7
 10
50.336
 20
37.99
 30
0.0
 11
52.604
 21
37.99
 31
0.0
  0
LINE
  8
0
  6
CONTINUOUS
 62
     7
 10
50.336
 20
38.305
 30
0.0
 11
52.604
 21
38.305
 31
0.0
  0
LINE
  8
0
  6
CONTINUOUS
 62
     7
 10
52.604
 20
23.5
 30
0.0
 11
52.604
 21
38.305
 31
0.0
  0
LINE
  8
0
  6
CONTINUOUS
 62
     7
 10
50.336
 20
72.01
 30
0.0
 11
52.604
 21
72.01
 31
0.0
  0
LINE
  8
0
  6
CONTINUOUS
 62
     7
 10
50.336
 20
25.39
 30
0.0
 11
52.604
 21
25.39
 31
0.0
  0
POLYLINE
  8
0
  6
CONTINUOUS
 62
     7
 66
     1
 70
     1
  0
VERTEX
  8
0
  6
CONTINUOUS
 62
     7
 10
62.621
 20
48.7
 30
0.0
  0
VERTEX
  8
0
  6
CONTINUOUS
 62
     7
 10
62.642987
 20
48.951622
 30
0.0
  0
VERTEX
  8
0
  6
CONTINUOUS
 62
     7
 10
62.708381
 20
49.195558
 30
0.0
  0
VERTEX
  8
0
  6
CONTINUOUS
 62
     7
 10
62.815103
 20
49.4245
 30
0.0
  0
VERTEX
  8
0
  6
CONTINUOUS
 62
     7
 10
62.960003
 20
49.631392
 30
0.0
  0
VERTEX
  8
0
  6
CONTINUOUS
 62
     7
 10
63.138608
 20
49.809997
 30
0.0
  0
VERTEX
  8
0
  6
CONTINUOUS
 62
     7
 10
63.3455
 20
49.954897
 30
0.0
  0
VERTEX
  8
0
  6
CONTINUOUS
 62
     7
 10
63.574442
 20
50.061619
 30
0.0
  0
VERTEX
  8
0
  6
CONTINUOUS
 62
     7
 10
63.818378
 20
50.127013
 30
0.0
  0
VERTEX
  8
0
  6
CONTINUOUS
 62
     7
 10
64.07
 20
50.149
 30
0.0
  0
VERTEX
  8
0
  6
CONTINUOUS
 62
     7
 10
64.321622
 20
50.127013
 30
0.0
  0
VERTEX
  8
0
  6
CONTINUOUS
 62
     7
 10
64.565558
 20
50.061619
 30
0.0
  0
VERTEX
  8
0
  6
CONTINUOUS
 62
     7
 10
64.7945
 20
49.954897
 30
0.0
  0
VERTEX
  8
0
  6
CONTINUOUS
 62
     7
 10
65.001392
 20
49.809997
 30
0.0
  0
VERTEX
  8
0
  6
CONTINUOUS
 62
     7
 10
65.179997
 20
49.631392
 30
0.0
  0
VERTEX
  8
0
  6
CONTINUOUS
 62
     7
 10
65.324897
 20
49.4245
 30
0.0
  0
VERTEX
  8
0
  6
CONTINUOUS
 62
     7
 10
65.431619
 20
49.195558
 30
0.0
  0
VERTEX
  8
0
  6
CONTINUOUS
 62
     7
 10
65.497013
 20
48.951622
 30
0.0
  0
VERTEX
  8
0
  6
CONTINUOUS
 62
     7
 10
65.519
 20
48.7
 30
0.0
  0
VERTEX
  8
0
  6
CONTINUOUS
 62
     7
 10
65.497013
 20
48.448378
 30
0.0
  0
VERTEX
  8
0
  6
CONTINUOUS
 62
     7
 10
65.431619
 20
48.204442
 30
0.0
  0
VERTEX
  8
0
  6
CONTINUOUS
 62
     7
 10
65.324897
 20
47.9755
 30
0.0
  0
VERTEX
  8
0
  6
CONTINUOUS
 62
     7
 10
65.179997
 20
47.768608
 30
0.0
  0
VERTEX
  8
0
  6
CONTINUOUS
 62
     7
 10
65.001392
 20
47.590003
 30
0.0
  0
VERTEX
  8
0
  6
CONTINUOUS
 62
     7
 10
64.7945
 20
47.445103
 30
0.0
  0
VERTEX
  8
0
  6
CONTINUOUS
 62
     7
 10
64.565558
 20
47.338381
 30
0.0
  0
VERTEX
  8
0
  6
CONTINUOUS
 62
     7
 10
64.321622
 20
47.272987
 30
0.0
  0
VERTEX
  8
0
  6
CONTINUOUS
 62
     7
 10
64.07
 20
47.251
 30
0.0
  0
VERTEX
  8
0
  6
CONTINUOUS
 62
     7
 10
63.818378
 20
47.272987
 30
0.0
  0
VERTEX
  8
0
  6
CONTINUOUS
 62
     7
 10
63.574442
 20
47.338381
 30
0.0
  0
VERTEX
  8
0
  6
CONTINUOUS
 62
     7
 10
63.3455
 20
47.445103
 30
0.0
  0
VERTEX
  8
0
  6
CONTINUOUS
 62
     7
 10
63.138608
 20
47.590003
 30
0.0
  0
VERTEX
  8
0
  6
CONTINUOUS
 62
     7
 10
62.960003
 20
47.768608
 30
0.0
  0
VERTEX
  8
0
  6
CONTINUOUS
 62
     7
 10
62.815103
 20
47.9755
 30
0.0
  0
VERTEX
  8
0
  6
CONTINUOUS
 62
     7
 10
62.708381
 20
48.204442
 30
0.0
  0
VERTEX
  8
0
  6
CONTINUOUS
 62
     7
 10
62.642987
 20
48.448378
 30
0.0
  0
SEQEND
  0
LINE
  8
0
  6
CONTINUOUS
 62
     7
 10
62.18
 20
45.991
 30
0.0
 11
67.22
 21
45.991
 31
0.0
  0
POLYLINE
  8
0
  6
CONTINUOUS
 62
     7
 66
     1
  0
VERTEX
  8
0
  6
CONTINUOUS
 62
     7
 10
62.18
 20
45.991
 30
0.0
  0
VERTEX
  8
0
  6
CONTINUOUS
 62
     7
 10
62.070632
 20
46.000576
 30
0.0
  0
VERTEX
  8
0
  6
CONTINUOUS
 62
     7
 10
61.96454
 20
46.028989
 30
0.0
  0
VERTEX
  8
0
  6
CONTINUOUS
 62
     7
 10
61.865
 20
46.07542
 30
0.0
  0
VERTEX
  8
0
  6
CONTINUOUS
 62
     7
 10
61.775036
 20
46.13842
 30
0.0
  0
VERTEX
  8
0
  6
CONTINUOUS
 62
     7
 10
61.69742
 20
46.216036
 30
0.0
  0
VERTEX
  8
0
  6
CONTINUOUS
 62
     7
 10
61.63442
 20
46.306
 30
0.0
  0
VERTEX
  8
0
  6
CONTINUOUS
 62
     7
 10
61.587989
 20
46.40554
 30
0.0
  0
VERTEX
  8
0
  6
CONTINUOUS
 62
     7
 10
61.559576
 20
46.511632
 30
0.0
  0
VERTEX
  8
0
  6
CONTINUOUS
 62
     7
 10
61.55
 20
46.621
 30
0.0
  0
SEQEND
  0
LINE
  8
0
  6
CONTINUOUS
 62
     7
 10
67.22
 20
51.409
 30
0.0
 11
62.18
 21
51.409
 31
0.0
  0
LINE
  8
0
  6
CONTINUOUS
 62
     7
 10
61.55
 20
50.779
 30
0.0
 11
61.55
 21
46.621
 31
0.0
  0
POLYLINE
  8
0
  6
CONTINUOUS
 62
     7
 66
     1
  0
VERTEX
  8
0
  6
CONTINUOUS
 62
     7
 10
61.55
 20
50.779
 30
0.0
  0
VERTEX
  8
0
  6
CONTINUOUS
 62
     7
 10
61.559576
 20
50.888368
 30
0.0
  0
VERTEX
  8
0
  6
CONTINUOUS
 62
     7
 10
61.587989
 20
50.99446
 30
0.0
  0
VERTEX
  8
0
  6
CONTINUOUS
 62
     7
 10
61.63442
 20
51.094
 30
0.0
  0
VERTEX
  8
0
  6
CONTINUOUS
 62
     7
 10
61.69742
 20
51.183964
 30
0.0
  0
VERTEX
  8
0
  6
CONTINUOUS
 62
     7
 10
61.775036
 20
51.26158
 30
0.0
  0
VERTEX
  8
0
  6
CONTINUOUS
 62
     7
 10
61.865
 20
51.32458
 30
0.0
  0
VERTEX
  8
0
  6
CONTINUOUS
 62
     7
 10
61.96454
 20
51.371011
 30
0.0
  0
VERTEX
  8
0
  6
CONTINUOUS
 62
     7
 10
62.070632
 20
51.399424
 30
0.0
  0
VERTEX
  8
0
  6
CONTINUOUS
 62
     7
 10
62.18
 20
51.409
 30
0.0
  0
SEQEND
  0
LINE
  8
0
  6
CONTINUOUS
 62
     7
 10
60.29
 20
24.76
 30
0.0
 11
60.29
 21
24.445
 31
0.0
  0
LINE
  8
0
  6
CONTINUOUS
 62
     7
 10
42.65
 20
24.76
 30
0.0
 11
42.65
 21
24.445
 31
0.0
  0
LINE
  8
0
  6
CONTINUOUS
 62
     7
 10
42.65
 20
24.445
 30
0.0
 11
43.595
 21
23.5
 31
0.0
  0
LINE
  8
0
  6
CONTINUOUS
 62
     7
 10
60.29
 20
24.445
 30
0.0
 11
59.345
 21
23.5
 31
0.0
  0
LINE
  8
0
  6
CONTINUOUS
 62
     7
 10
48.005
 20
23.5
 30
0.0
 11
48.005
 21
22.24
 31
0.0
  0
LINE
  8
0
  6
CONTINUOUS
 62
     7
 10
54.935
 20
23.5
 30
0.0
 11
54.935
 21
22.24
 31
0.0
  0
LINE
  8
0
  6
CONTINUOUS
 62
     7
 10
49.895
 20
20.98
 30
0.0
 11
53.045
 21
20.98
 31
0.0
  0
LINE
  8
0
  6
CONTINUOUS
 62
     7
 10
48.005
 20
22.24
 30
0.0
 11
49.895
 21
20.98
 31
0.0
  0
LINE
  8
0
  6
CONTINUOUS
 62
     7
 10
54.935
 20
22.24
 30
0.0
 11
53.045
 21
20.98
 31
0.0
  0
LINE
  8
0
  6
CONTINUOUS
 62
     7
 10
50.336
 20
38.305
 30
0.0
 11
50.336
 21
23.5
 31
0.0
  0
LINE
  8
0
  6
CONTINUOUS
 62
     7
 10
50.336
 20
23.5
 30
0.0
 11
52.604
 21
23.5
 31
0.0
  0
LINE
  8
0
  6
CONTINUOUS
 62
     7
 10
49.265
 20
23.5
 30
0.0
 11
49.265
 21
22.87
 31
0.0
  0
LINE
  8
0
  6
CONTINUOUS
 62
     7
 10
53.675
 20
23.5
 30
0.0
 11
53.675
 21
22.87
 31
0.0
  0
ARC
  8
0
  6
CONTINUOUS
 62
     7
 10
51.47
 20
22.87
 30
0.0
 40
1.134
 50
180.0
 51
0.0
  0
LINE
  8
0
  6
CONTINUOUS
 62
     7
 10
48.005
 20
23.5
 30
0.0
 11
43.595
 21
23.5
 31
0.0
  0
LINE
  8
0
  6
CONTINUOUS
 62
     7
 10
50.336
 20
22.87
 30
0.0
 11
49.265
 21
22.87
 31
0.0
  0
LINE
  8
0
  6
CONTINUOUS
 62
     7
 10
53.675
 20
22.87
 30
0.0
 11
52.604
 21
22.87
 31
0.0
  0
LINE
  8
0
  6
CONTINUOUS
 62
     7
 10
54.935
 20
23.5
 30
0.0
 11
59.345
 21
23.5
 31
0.0
  0
LINE
  8
0
  6
CONTINUOUS
 62
     7
 10
53.171
 20
50.716
 30
0.0
 11
52.793
 21
50.968
 31
0.0
  0
LINE
  8
0
  6
CONTINUOUS
 62
     7
 10
52.793
 20
50.968
 30
0.0
 11
52.352
 21
51.157
 31
0.0
  0
CIRCLE
  8
0
  6
CONTINUOUS
 62
     7
 10
51.47
 20
48.7
 30
0.0
 40
3.465
  0
LINE
  8
0
  6
CONTINUOUS
 62
     7
 10
50.588
 20
51.157
 30
0.0
 11
50.147
 21
50.968
 31
0.0
  0
LINE
  8
0
  6
CONTINUOUS
 62
     7
 10
50.147
 20
50.968
 30
0.0
 11
49.769
 21
50.716
 31
0.0
  0
LINE
  8
0
  6
CONTINUOUS
 62
     7
 10
49.769
 20
50.716
 30
0.0
 11
49.454
 21
50.401
 31
0.0
  0
LINE
  8
0
  6
CONTINUOUS
 62
     7
 10
49.454
 20
50.401
 30
0.0
 11
49.202
 21
50.023
 31
0.0
  0
LINE
  8
0
  6
CONTINUOUS
 62
     7
 10
49.202
 20
50.023
 30
0.0
 11
49.013
 21
49.582
 31
0.0
  0
LINE
  8
0
  6
CONTINUOUS
 62
     7
 10
54.179
 20
23.5
 30
0.0
 11
54.179
 21
34.714
 31
0.0
  0
LINE
  8
0
  6
CONTINUOUS
 62
     7
 10
54.179
 20
34.714
 30
0.0
 11
59.093
 21
34.714
 31
0.0
  0
LINE
  8
0
  6
CONTINUOUS
 62
     7
 10
59.093
 20
34.714
 30
0.0
 11
59.093
 21
24.76
 31
0.0
  0
LINE
  8
0
  6
CONTINUOUS
 62
     7
 10
60.668
 20
24.76
 30
0.0
 11
60.668
 21
34.714
 31
0.0
  0
LINE
  8
0
  6
CONTINUOUS
 62
     7
 10
60.668
 20
34.714
 30
0.0
 11
65.582
 21
34.714
 31
0.0
  0
LINE
  8
0
  6
CONTINUOUS
 62
     7
 10
65.582
 20
34.714
 30
0.0
 11
65.582
 21
24.76
 31
0.0
  0
LINE
  8
0
  6
CONTINUOUS
 62
     7
 10
52.604
 20
23.5
 30
0.0
 11
54.179
 21
23.5
 31
0.0
  0
LINE
  8
0
  6
CONTINUOUS
 62
     7
 10
41.768
 20
66.151
 30
0.0
 11
42.083
 21
66.151
 31
0.0
  0
LINE
  8
0
  6
CONTINUOUS
 62
     7
 10
41.768
 20
67.978
 30
0.0
 11
42.083
 21
67.663
 31
0.0
  0
LINE
  8
0
  6
CONTINUOUS
 62
     7
 10
42.083
 20
65.395
 30
0.0
 11
41.768
 21
65.395
 31
0.0
  0
LINE
  8
0
  6
CONTINUOUS
 62
     7
 10
39.563
 20
67.726
 30
0.0
 11
39.563
 21
67.978
 31
0.0
  0
LINE
  8
0
  6
CONTINUOUS
 62
     7
 10
40.067
 20
67.726
 30
0.0
 11
40.067
 21
67.978
 31
0.0
  0
POLYLINE
  8
0
  6
CONTINUOUS
 62
     7
 66
     1
  0
VERTEX
  8
0
  6
CONTINUOUS
 62
     7
 10
38.366
 20
66.088
 30
0.0
  0
VERTEX
  8
0
  6
CONTINUOUS
 62
     7
 10
39.563
 20
66.088
 30
0.0
  0
VERTEX
  8
0
  6
CONTINUOUS
 62
     7
 10
39.563
 20
67.033
 30
0.0
  0
VERTEX
  8
0
  6
CONTINUOUS
 62
     7
 10
40.067
 20
67.033
 30
0.0
  0
VERTEX
  8
0
  6
CONTINUOUS
 62
     7
 10
40.067
 20
66.088
 30
0.0
  0
VERTEX
  8
0
  6
CONTINUOUS
 62
     7
 10
41.327
 20
66.088
 30
0.0
  0
SEQEND
  0
POLYLINE
  8
0
  6
CONTINUOUS
 62
     7
 66
     1
  0
VERTEX
  8
0
  6
CONTINUOUS
 62
     7
 10
38.366
 20
65.458
 30
0.0
  0
VERTEX
  8
0
  6
CONTINUOUS
 62
     7
 10
39.563
 20
65.458
 30
0.0
  0
VERTEX
  8
0
  6
CONTINUOUS
 62
     7
 10
39.563
 20
64.513
 30
0.0
  0
VERTEX
  8
0
  6
CONTINUOUS
 62
     7
 10
40.067
 20
64.513
 30
0.0
  0
VERTEX
  8
0
  6
CONTINUOUS
 62
     7
 10
40.067
 20
65.458
 30
0.0
  0
VERTEX
  8
0
  6
CONTINUOUS
 62
     7
 10
41.327
 20
65.458
 30
0.0
  0
SEQEND
  0
LINE
  8
0
  6
CONTINUOUS
 62
     7
 10
42.02
 20
67.348
 30
0.0
 11
41.39
 21
67.978
 31
0.0
  0
POLYLINE
  8
0
  6
CONTINUOUS
 62
     7
 66
     1
 70
     1
  0
VERTEX
  8
0
  6
CONTINUOUS
 62
     7
 10
41.327
 20
65.773
 30
0.0
  0
VERTEX
  8
0
  6
CONTINUOUS
 62
     7
 10
41.304005
 20
65.510416
 30
0.0
  0
VERTEX
  8
0
  6
CONTINUOUS
 62
     7
 10
41.235839
 20
65.255896
 30
0.0
  0
VERTEX
  8
0
  6
CONTINUOUS
 62
     7
 10
41.124455
 20
65.017
 30
0.0
  0
VERTEX
  8
0
  6
CONTINUOUS
 62
     7
 10
40.973255
 20
64.801099
 30
0.0
  0
VERTEX
  8
0
  6
CONTINUOUS
 62
     7
 10
40.786901
 20
64.614745
 30
0.0
  0
VERTEX
  8
0
  6
CONTINUOUS
 62
     7
 10
40.571
 20
64.463545
 30
0.0
  0
VERTEX
  8
0
  6
CONTINUOUS
 62
     7
 10
40.332104
 20
64.352161
 30
0.0
  0
VERTEX
  8
0
  6
CONTINUOUS
 62
     7
 10
40.077584
 20
64.283995
 30
0.0
  0
VERTEX
  8
0
  6
CONTINUOUS
 62
     7
 10
39.815
 20
64.261
 30
0.0
  0
VERTEX
  8
0
  6
CONTINUOUS
 62
     7
 10
39.552416
 20
64.283995
 30
0.0
  0
VERTEX
  8
0
  6
CONTINUOUS
 62
     7
 10
39.297896
 20
64.352161
 30
0.0
  0
VERTEX
  8
0
  6
CONTINUOUS
 62
     7
 10
39.059
 20
64.463545
 30
0.0
  0
VERTEX
  8
0
  6
CONTINUOUS
 62
     7
 10
38.843099
 20
64.614745
 30
0.0
  0
VERTEX
  8
0
  6
CONTINUOUS
 62
     7
 10
38.656745
 20
64.801099
 30
0.0
  0
VERTEX
  8
0
  6
CONTINUOUS
 62
     7
 10
38.505545
 20
65.017
 30
0.0
  0
VERTEX
  8
0
  6
CONTINUOUS
 62
     7
 10
38.394161
 20
65.255896
 30
0.0
  0
VERTEX
  8
0
  6
CONTINUOUS
 62
     7
 10
38.325995
 20
65.510416
 30
0.0
  0
VERTEX
  8
0
  6
CONTINUOUS
 62
     7
 10
38.303
 20
65.773
 30
0.0
  0
VERTEX
  8
0
  6
CONTINUOUS
 62
     7
 10
38.325995
 20
66.035584
 30
0.0
  0
VERTEX
  8
0
  6
CONTINUOUS
 62
     7
 10
38.394161
 20
66.290104
 30
0.0
  0
VERTEX
  8
0
  6
CONTINUOUS
 62
     7
 10
38.505545
 20
66.529
 30
0.0
  0
VERTEX
  8
0
  6
CONTINUOUS
 62
     7
 10
38.656745
 20
66.744901
 30
0.0
  0
VERTEX
  8
0
  6
CONTINUOUS
 62
     7
 10
38.843099
 20
66.931255
 30
0.0
  0
VERTEX
  8
0
  6
CONTINUOUS
 62
     7
 10
39.059
 20
67.082455
 30
0.0
  0
VERTEX
  8
0
  6
CONTINUOUS
 62
     7
 10
39.297896
 20
67.193839
 30
0.0
  0
VERTEX
  8
0
  6
CONTINUOUS
 62
     7
 10
39.552416
 20
67.262005
 30
0.0
  0
VERTEX
  8
0
  6
CONTINUOUS
 62
     7
 10
39.815
 20
67.285
 30
0.0
  0
VERTEX
  8
0
  6
CONTINUOUS
 62
     7
 10
40.077584
 20
67.262005
 30
0.0
  0
VERTEX
  8
0
  6
CONTINUOUS
 62
     7
 10
40.332104
 20
67.193839
 30
0.0
  0
VERTEX
  8
0
  6
CONTINUOUS
 62
     7
 10
40.571
 20
67.082455
 30
0.0
  0
VERTEX
  8
0
  6
CONTINUOUS
 62
     7
 10
40.786901
 20
66.931255
 30
0.0
  0
VERTEX
  8
0
  6
CONTINUOUS
 62
     7
 10
40.973255
 20
66.744901
 30
0.0
  0
VERTEX
  8
0
  6
CONTINUOUS
 62
     7
 10
41.124455
 20
66.529
 30
0.0
  0
VERTEX
  8
0
  6
CONTINUOUS
 62
     7
 10
41.235839
 20
66.290104
 30
0.0
  0
VERTEX
  8
0
  6
CONTINUOUS
 62
     7
 10
41.304005
 20
66.035584
 30
0.0
  0
SEQEND
  0
LINE
  8
0
  6
CONTINUOUS
 62
     7
 10
41.39
 20
63.568
 30
0.0
 11
42.02
 21
64.198
 31
0.0
  0
LINE
  8
0
  6
CONTINUOUS
 62
     7
 10
41.705
 20
63.568
 30
0.0
 11
42.083
 21
63.946
 31
0.0
  0
LINE
  8
0
  6
CONTINUOUS
 62
     7
 10
40.067
 20
63.82
 30
0.0
 11
40.067
 21
63.568
 31
0.0
  0
LINE
  8
0
  6
CONTINUOUS
 62
     7
 10
39.563
 20
63.82
 30
0.0
 11
39.563
 21
63.568
 31
0.0
  0
LINE
  8
0
  6
CONTINUOUS
 62
     7
 10
37.61
 20
64.198
 30
0.0
 11
38.24
 21
63.568
 31
0.0
  0
LINE
  8
0
  6
CONTINUOUS
 62
     7
 10
37.61
 20
63.883
 30
0.0
 11
37.925
 21
63.568
 31
0.0
  0
LINE
  8
0
  6
CONTINUOUS
 62
     7
 10
37.862
 20
65.395
 30
0.0
 11
37.61
 21
65.395
 31
0.0
  0
POLYLINE
  8
0
  6
CONTINUOUS
 62
     7
 66
     1
 70
     1
  0
VERTEX
  8
0
  6
CONTINUOUS
 62
     7
 10
41.768
 20
65.773
 30
0.0
  0
VERTEX
  8
0
  6
CONTINUOUS
 62
     7
 10
41.738327
 20
65.433871
 30
0.0
  0
VERTEX
  8
0
  6
CONTINUOUS
 62
     7
 10
41.65019
 20
65.105011
 30
0.0
  0
VERTEX
  8
0
  6
CONTINUOUS
 62
     7
 10
41.506361
 20
64.7965
 30
0.0
  0
VERTEX
  8
0
  6
CONTINUOUS
 62
     7
 10
41.311061
 20
64.517662
 30
0.0
  0
VERTEX
  8
0
  6
CONTINUOUS
 62
     7
 10
41.070338
 20
64.276939
 30
0.0
  0
VERTEX
  8
0
  6
CONTINUOUS
 62
     7
 10
40.7915
 20
64.081639
 30
0.0
  0
VERTEX
  8
0
  6
CONTINUOUS
 62
     7
 10
40.482989
 20
63.93781
 30
0.0
  0
VERTEX
  8
0
  6
CONTINUOUS
 62
     7
 10
40.154129
 20
63.849673
 30
0.0
  0
VERTEX
  8
0
  6
CONTINUOUS
 62
     7
 10
39.815
 20
63.82
 30
0.0
  0
VERTEX
  8
0
  6
CONTINUOUS
 62
     7
 10
39.475871
 20
63.849673
 30
0.0
  0
VERTEX
  8
0
  6
CONTINUOUS
 62
     7
 10
39.147011
 20
63.93781
 30
0.0
  0
VERTEX
  8
0
  6
CONTINUOUS
 62
     7
 10
38.8385
 20
64.081639
 30
0.0
  0
VERTEX
  8
0
  6
CONTINUOUS
 62
     7
 10
38.559662
 20
64.276939
 30
0.0
  0
VERTEX
  8
0
  6
CONTINUOUS
 62
     7
 10
38.318939
 20
64.517662
 30
0.0
  0
VERTEX
  8
0
  6
CONTINUOUS
 62
     7
 10
38.123639
 20
64.7965
 30
0.0
  0
VERTEX
  8
0
  6
CONTINUOUS
 62
     7
 10
37.97981
 20
65.105011
 30
0.0
  0
VERTEX
  8
0
  6
CONTINUOUS
 62
     7
 10
37.891673
 20
65.433871
 30
0.0
  0
VERTEX
  8
0
  6
CONTINUOUS
 62
     7
 10
37.862
 20
65.773
 30
0.0
  0
VERTEX
  8
0
  6
CONTINUOUS
 62
     7
 10
37.891673
 20
66.112129
 30
0.0
  0
VERTEX
  8
0
  6
CONTINUOUS
 62
     7
 10
37.97981
 20
66.440989
 30
0.0
  0
VERTEX
  8
0
  6
CONTINUOUS
 62
     7
 10
38.123639
 20
66.7495
 30
0.0
  0
VERTEX
  8
0
  6
CONTINUOUS
 62
     7
 10
38.318939
 20
67.028338
 30
0.0
  0
VERTEX
  8
0
  6
CONTINUOUS
 62
     7
 10
38.559662
 20
67.269061
 30
0.0
  0
VERTEX
  8
0
  6
CONTINUOUS
 62
     7
 10
38.8385
 20
67.464361
 30
0.0
  0
VERTEX
  8
0
  6
CONTINUOUS
 62
     7
 10
39.147011
 20
67.60819
 30
0.0
  0
VERTEX
  8
0
  6
CONTINUOUS
 62
     7
 10
39.475871
 20
67.696327
 30
0.0
  0
VERTEX
  8
0
  6
CONTINUOUS
 62
     7
 10
39.815
 20
67.726
 30
0.0
  0
VERTEX
  8
0
  6
CONTINUOUS
 62
     7
 10
40.154129
 20
67.696327
 30
0.0
  0
VERTEX
  8
0
  6
CONTINUOUS
 62
     7
 10
40.482989
 20
67.60819
 30
0.0
  0
VERTEX
  8
0
  6
CONTINUOUS
 62
     7
 10
40.7915
 20
67.464361
 30
0.0
  0
VERTEX
  8
0
  6
CONTINUOUS
 62
     7
 10
41.070338
 20
67.269061
 30
0.0
  0
VERTEX
  8
0
  6
CONTINUOUS
 62
     7
 10
41.311061
 20
67.028338
 30
0.0
  0
VERTEX
  8
0
  6
CONTINUOUS
 62
     7
 10
41.506361
 20
66.7495
 30
0.0
  0
VERTEX
  8
0
  6
CONTINUOUS
 62
     7
 10
41.65019
 20
66.440989
 30
0.0
  0
VERTEX
  8
0
  6
CONTINUOUS
 62
     7
 10
41.738327
 20
66.112129
 30
0.0
  0
SEQEND
  0
LINE
  8
0
  6
CONTINUOUS
 62
     7
 10
37.862
 20
66.151
 30
0.0
 11
37.61
 21
66.151
 31
0.0
  0
LINE
  8
0
  6
CONTINUOUS
 62
     7
 10
38.24
 20
67.978
 30
0.0
 11
37.61
 21
67.348
 31
0.0
  0
LINE
  8
0
  6
CONTINUOUS
 62
     7
 10
37.925
 20
67.978
 30
0.0
 11
37.61
 21
67.663
 31
0.0
  0
LINE
  8
0
  6
CONTINUOUS
 62
     7
 10
42.083
 20
67.978
 30
0.0
 11
37.61
 21
67.978
 31
0.0
  0
LINE
  8
0
  6
CONTINUOUS
 62
     7
 10
42.02
 20
63.568
 30
0.0
 11
42.02
 21
67.978
 31
0.0
  0
LINE
  8
0
  6
CONTINUOUS
 62
     7
 10
37.61
 20
63.568
 30
0.0
 11
37.61
 21
67.978
 31
0.0
  0
LINE
  8
0
  6
CONTINUOUS
 62
     7
 10
42.083
 20
63.568
 30
0.0
 11
37.61
 21
63.568
 31
0.0
  0
LINE
  8
0
  6
CONTINUOUS
 62
     7
 10
48.257
 20
66.151
 30
0.0
 11
48.572
 21
66.151
 31
0.0
  0
LINE
  8
0
  6
CONTINUOUS
 62
     7
 10
48.257
 20
67.978
 30
0.0
 11
48.572
 21
67.663
 31
0.0
  0
LINE
  8
0
  6
CONTINUOUS
 62
     7
 10
48.572
 20
65.395
 30
0.0
 11
48.257
 21
65.395
 31
0.0
  0
LINE
  8
0
  6
CONTINUOUS
 62
     7
 10
46.052
 20
67.726
 30
0.0
 11
46.052
 21
67.978
 31
0.0
  0
LINE
  8
0
  6
CONTINUOUS
 62
     7
 10
46.556
 20
67.726
 30
0.0
 11
46.556
 21
67.978
 31
0.0
  0
POLYLINE
  8
0
  6
CONTINUOUS
 62
     7
 66
     1
  0
VERTEX
  8
0
  6
CONTINUOUS
 62
     7
 10
44.855
 20
66.088
 30
0.0
  0
VERTEX
  8
0
  6
CONTINUOUS
 62
     7
 10
46.052
 20
66.088
 30
0.0
  0
VERTEX
  8
0
  6
CONTINUOUS
 62
     7
 10
46.052
 20
67.033
 30
0.0
  0
VERTEX
  8
0
  6
CONTINUOUS
 62
     7
 10
46.556
 20
67.033
 30
0.0
  0
VERTEX
  8
0
  6
CONTINUOUS
 62
     7
 10
46.556
 20
66.088
 30
0.0
  0
VERTEX
  8
0
  6
CONTINUOUS
 62
     7
 10
47.816
 20
66.088
 30
0.0
  0
SEQEND
  0
POLYLINE
  8
0
  6
CONTINUOUS
 62
     7
 66
     1
  0
VERTEX
  8
0
  6
CONTINUOUS
 62
     7
 10
44.855
 20
65.458
 30
0.0
  0
VERTEX
  8
0
  6
CONTINUOUS
 62
     7
 10
46.052
 20
65.458
 30
0.0
  0
VERTEX
  8
0
  6
CONTINUOUS
 62
     7
 10
46.052
 20
64.513
 30
0.0
  0
VERTEX
  8
0
  6
CONTINUOUS
 62
     7
 10
46.556
 20
64.513
 30
0.0
  0
VERTEX
  8
0
  6
CONTINUOUS
 62
     7
 10
46.556
 20
65.458
 30
0.0
  0
VERTEX
  8
0
  6
CONTINUOUS
 62
     7
 10
47.816
 20
65.458
 30
0.0
  0
SEQEND
  0
LINE
  8
0
  6
CONTINUOUS
 62
     7
 10
48.509
 20
67.348
 30
0.0
 11
47.879
 21
67.978
 31
0.0
  0
POLYLINE
  8
0
  6
CONTINUOUS
 62
     7
 66
     1
 70
     1
  0
VERTEX
  8
0
  6
CONTINUOUS
 62
     7
 10
47.816
 20
65.773
 30
0.0
  0
VERTEX
  8
0
  6
CONTINUOUS
 62
     7
 10
47.793005
 20
65.510416
 30
0.0
  0
VERTEX
  8
0
  6
CONTINUOUS
 62
     7
 10
47.724839
 20
65.255896
 30
0.0
  0
VERTEX
  8
0
  6
CONTINUOUS
 62
     7
 10
47.613455
 20
65.017
 30
0.0
  0
VERTEX
  8
0
  6
CONTINUOUS
 62
     7
 10
47.462255
 20
64.801099
 30
0.0
  0
VERTEX
  8
0
  6
CONTINUOUS
 62
     7
 10
47.275901
 20
64.614745
 30
0.0
  0
VERTEX
  8
0
  6
CONTINUOUS
 62
     7
 10
47.06
 20
64.463545
 30
0.0
  0
VERTEX
  8
0
  6
CONTINUOUS
 62
     7
 10
46.821104
 20
64.352161
 30
0.0
  0
VERTEX
  8
0
  6
CONTINUOUS
 62
     7
 10
46.566584
 20
64.283995
 30
0.0
  0
VERTEX
  8
0
  6
CONTINUOUS
 62
     7
 10
46.304
 20
64.261
 30
0.0
  0
VERTEX
  8
0
  6
CONTINUOUS
 62
     7
 10
46.041416
 20
64.283995
 30
0.0
  0
VERTEX
  8
0
  6
CONTINUOUS
 62
     7
 10
45.786896
 20
64.352161
 30
0.0
  0
VERTEX
  8
0
  6
CONTINUOUS
 62
     7
 10
45.548
 20
64.463545
 30
0.0
  0
VERTEX
  8
0
  6
CONTINUOUS
 62
     7
 10
45.332099
 20
64.614745
 30
0.0
  0
VERTEX
  8
0
  6
CONTINUOUS
 62
     7
 10
45.145745
 20
64.801099
 30
0.0
  0
VERTEX
  8
0
  6
CONTINUOUS
 62
     7
 10
44.994545
 20
65.017
 30
0.0
  0
VERTEX
  8
0
  6
CONTINUOUS
 62
     7
 10
44.883161
 20
65.255896
 30
0.0
  0
VERTEX
  8
0
  6
CONTINUOUS
 62
     7
 10
44.814995
 20
65.510416
 30
0.0
  0
VERTEX
  8
0
  6
CONTINUOUS
 62
     7
 10
44.792
 20
65.773
 30
0.0
  0
VERTEX
  8
0
  6
CONTINUOUS
 62
     7
 10
44.814995
 20
66.035584
 30
0.0
  0
VERTEX
  8
0
  6
CONTINUOUS
 62
     7
 10
44.883161
 20
66.290104
 30
0.0
  0
VERTEX
  8
0
  6
CONTINUOUS
 62
     7
 10
44.994545
 20
66.529
 30
0.0
  0
VERTEX
  8
0
  6
CONTINUOUS
 62
     7
 10
45.145745
 20
66.744901
 30
0.0
  0
VERTEX
  8
0
  6
CONTINUOUS
 62
     7
 10
45.332099
 20
66.931255
 30
0.0
  0
VERTEX
  8
0
  6
CONTINUOUS
 62
     7
 10
45.548
 20
67.082455
 30
0.0
  0
VERTEX
  8
0
  6
CONTINUOUS
 62
     7
 10
45.786896
 20
67.193839
 30
0.0
  0
VERTEX
  8
0
  6
CONTINUOUS
 62
     7
 10
46.041416
 20
67.262005
 30
0.0
  0
VERTEX
  8
0
  6
CONTINUOUS
 62
     7
 10
46.304
 20
67.285
 30
0.0
  0
VERTEX
  8
0
  6
CONTINUOUS
 62
     7
 10
46.566584
 20
67.262005
 30
0.0
  0
VERTEX
  8
0
  6
CONTINUOUS
 62
     7
 10
46.821104
 20
67.193839
 30
0.0
  0
VERTEX
  8
0
  6
CONTINUOUS
 62
     7
 10
47.06
 20
67.082455
 30
0.0
  0
VERTEX
  8
0
  6
CONTINUOUS
 62
     7
 10
47.275901
 20
66.931255
 30
0.0
  0
VERTEX
  8
0
  6
CONTINUOUS
 62
     7
 10
47.462255
 20
66.744901
 30
0.0
  0
VERTEX
  8
0
  6
CONTINUOUS
 62
     7
 10
47.613455
 20
66.529
 30
0.0
  0
VERTEX
  8
0
  6
CONTINUOUS
 62
     7
 10
47.724839
 20
66.290104
 30
0.0
  0
VERTEX
  8
0
  6
CONTINUOUS
 62
     7
 10
47.793005
 20
66.035584
 30
0.0
  0
SEQEND
  0
LINE
  8
0
  6
CONTINUOUS
 62
     7
 10
47.879
 20
63.568
 30
0.0
 11
48.509
 21
64.198
 31
0.0
  0
LINE
  8
0
  6
CONTINUOUS
 62
     7
 10
48.194
 20
63.568
 30
0.0
 11
48.572
 21
63.946
 31
0.0
  0
LINE
  8
0
  6
CONTINUOUS
 62
     7
 10
46.556
 20
63.82
 30
0.0
 11
46.556
 21
63.568
 31
0.0
  0
LINE
  8
0
  6
CONTINUOUS
 62
     7
 10
46.052
 20
63.82
 30
0.0
 11
46.052
 21
63.568
 31
0.0
  0
LINE
  8
0
  6
CONTINUOUS
 62
     7
 10
44.099
 20
64.198
 30
0.0
 11
44.729
 21
63.568
 31
0.0
  0
LINE
  8
0
  6
CONTINUOUS
 62
     7
 10
44.099
 20
63.883
 30
0.0
 11
44.414
 21
63.568
 31
0.0
  0
LINE
  8
0
  6
CONTINUOUS
 62
     7
 10
44.351
 20
65.395
 30
0.0
 11
44.099
 21
65.395
 31
0.0
  0
POLYLINE
  8
0
  6
CONTINUOUS
 62
     7
 66
     1
 70
     1
  0
VERTEX
  8
0
  6
CONTINUOUS
 62
     7
 10
48.257
 20
65.773
 30
0.0
  0
VERTEX
  8
0
  6
CONTINUOUS
 62
     7
 10
48.227327
 20
65.433871
 30
0.0
  0
VERTEX
  8
0
  6
CONTINUOUS
 62
     7
 10
48.13919
 20
65.105011
 30
0.0
  0
VERTEX
  8
0
  6
CONTINUOUS
 62
     7
 10
47.995361
 20
64.7965
 30
0.0
  0
VERTEX
  8
0
  6
CONTINUOUS
 62
     7
 10
47.800061
 20
64.517662
 30
0.0
  0
VERTEX
  8
0
  6
CONTINUOUS
 62
     7
 10
47.559338
 20
64.276939
 30
0.0
  0
VERTEX
  8
0
  6
CONTINUOUS
 62
     7
 10
47.2805
 20
64.081639
 30
0.0
  0
VERTEX
  8
0
  6
CONTINUOUS
 62
     7
 10
46.971989
 20
63.93781
 30
0.0
  0
VERTEX
  8
0
  6
CONTINUOUS
 62
     7
 10
46.643129
 20
63.849673
 30
0.0
  0
VERTEX
  8
0
  6
CONTINUOUS
 62
     7
 10
46.304
 20
63.82
 30
0.0
  0
VERTEX
  8
0
  6
CONTINUOUS
 62
     7
 10
45.964871
 20
63.849673
 30
0.0
  0
VERTEX
  8
0
  6
CONTINUOUS
 62
     7
 10
45.636011
 20
63.93781
 30
0.0
  0
VERTEX
  8
0
  6
CONTINUOUS
 62
     7
 10
45.3275
 20
64.081639
 30
0.0
  0
VERTEX
  8
0
  6
CONTINUOUS
 62
     7
 10
45.048662
 20
64.276939
 30
0.0
  0
VERTEX
  8
0
  6
CONTINUOUS
 62
     7
 10
44.807939
 20
64.517662
 30
0.0
  0
VERTEX
  8
0
  6
CONTINUOUS
 62
     7
 10
44.612639
 20
64.7965
 30
0.0
  0
VERTEX
  8
0
  6
CONTINUOUS
 62
     7
 10
44.46881
 20
65.105011
 30
0.0
  0
VERTEX
  8
0
  6
CONTINUOUS
 62
     7
 10
44.380673
 20
65.433871
 30
0.0
  0
VERTEX
  8
0
  6
CONTINUOUS
 62
     7
 10
44.351
 20
65.773
 30
0.0
  0
VERTEX
  8
0
  6
CONTINUOUS
 62
     7
 10
44.380673
 20
66.112129
 30
0.0
  0
VERTEX
  8
0
  6
CONTINUOUS
 62
     7
 10
44.46881
 20
66.440989
 30
0.0
  0
VERTEX
  8
0
  6
CONTINUOUS
 62
     7
 10
44.612639
 20
66.7495
 30
0.0
  0
VERTEX
  8
0
  6
CONTINUOUS
 62
     7
 10
44.807939
 20
67.028338
 30
0.0
  0
VERTEX
  8
0
  6
CONTINUOUS
 62
     7
 10
45.048662
 20
67.269061
 30
0.0
  0
VERTEX
  8
0
  6
CONTINUOUS
 62
     7
 10
45.3275
 20
67.464361
 30
0.0
  0
VERTEX
  8
0
  6
CONTINUOUS
 62
     7
 10
45.636011
 20
67.60819
 30
0.0
  0
VERTEX
  8
0
  6
CONTINUOUS
 62
     7
 10
45.964871
 20
67.696327
 30
0.0
  0
VERTEX
  8
0
  6
CONTINUOUS
 62
     7
 10
46.304
 20
67.726
 30
0.0
  0
VERTEX
  8
0
  6
CONTINUOUS
 62
     7
 10
46.643129
 20
67.696327
 30
0.0
  0
VERTEX
  8
0
  6
CONTINUOUS
 62
     7
 10
46.971989
 20
67.60819
 30
0.0
  0
VERTEX
  8
0
  6
CONTINUOUS
 62
     7
 10
47.2805
 20
67.464361
 30
0.0
  0
VERTEX
  8
0
  6
CONTINUOUS
 62
     7
 10
47.559338
 20
67.269061
 30
0.0
  0
VERTEX
  8
0
  6
CONTINUOUS
 62
     7
 10
47.800061
 20
67.028338
 30
0.0
  0
VERTEX
  8
0
  6
CONTINUOUS
 62
     7
 10
47.995361
 20
66.7495
 30
0.0
  0
VERTEX
  8
0
  6
CONTINUOUS
 62
     7
 10
48.13919
 20
66.440989
 30
0.0
  0
VERTEX
  8
0
  6
CONTINUOUS
 62
     7
 10
48.227327
 20
66.112129
 30
0.0
  0
SEQEND
  0
LINE
  8
0
  6
CONTINUOUS
 62
     7
 10
44.351
 20
66.151
 30
0.0
 11
44.099
 21
66.151
 31
0.0
  0
LINE
  8
0
  6
CONTINUOUS
 62
     7
 10
44.729
 20
67.978
 30
0.0
 11
44.099
 21
67.348
 31
0.0
  0
LINE
  8
0
  6
CONTINUOUS
 62
     7
 10
44.414
 20
67.978
 30
0.0
 11
44.099
 21
67.663
 31
0.0
  0
LINE
  8
0
  6
CONTINUOUS
 62
     7
 10
48.572
 20
67.978
 30
0.0
 11
44.099
 21
67.978
 31
0.0
  0
LINE
  8
0
  6
CONTINUOUS
 62
     7
 10
48.509
 20
63.568
 30
0.0
 11
48.509
 21
67.978
 31
0.0
  0
LINE
  8
0
  6
CONTINUOUS
 62
     7
 10
44.099
 20
63.568
 30
0.0
 11
44.099
 21
67.978
 31
0.0
  0
LINE
  8
0
  6
CONTINUOUS
 62
     7
 10
48.572
 20
63.568
 30
0.0
 11
44.099
 21
63.568
 31
0.0
  0
LINE
  8
0
  6
CONTINUOUS
 62
     7
 10
58.589
 20
66.151
 30
0.0
 11
58.904
 21
66.151
 31
0.0
  0
LINE
  8
0
  6
CONTINUOUS
 62
     7
 10
58.589
 20
67.978
 30
0.0
 11
58.904
 21
67.663
 31
0.0
  0
LINE
  8
0
  6
CONTINUOUS
 62
     7
 10
58.904
 20
65.395
 30
0.0
 11
58.589
 21
65.395
 31
0.0
  0
LINE
  8
0
  6
CONTINUOUS
 62
     7
 10
56.384
 20
67.726
 30
0.0
 11
56.384
 21
67.978
 31
0.0
  0
LINE
  8
0
  6
CONTINUOUS
 62
     7
 10
56.888
 20
67.726
 30
0.0
 11
56.888
 21
67.978
 31
0.0
  0
POLYLINE
  8
0
  6
CONTINUOUS
 62
     7
 66
     1
  0
VERTEX
  8
0
  6
CONTINUOUS
 62
     7
 10
55.187
 20
66.088
 30
0.0
  0
VERTEX
  8
0
  6
CONTINUOUS
 62
     7
 10
56.384
 20
66.088
 30
0.0
  0
VERTEX
  8
0
  6
CONTINUOUS
 62
     7
 10
56.384
 20
67.033
 30
0.0
  0
VERTEX
  8
0
  6
CONTINUOUS
 62
     7
 10
56.888
 20
67.033
 30
0.0
  0
VERTEX
  8
0
  6
CONTINUOUS
 62
     7
 10
56.888
 20
66.088
 30
0.0
  0
VERTEX
  8
0
  6
CONTINUOUS
 62
     7
 10
58.148
 20
66.088
 30
0.0
  0
SEQEND
  0
POLYLINE
  8
0
  6
CONTINUOUS
 62
     7
 66
     1
  0
VERTEX
  8
0
  6
CONTINUOUS
 62
     7
 10
55.187
 20
65.458
 30
0.0
  0
VERTEX
  8
0
  6
CONTINUOUS
 62
     7
 10
56.384
 20
65.458
 30
0.0
  0
VERTEX
  8
0
  6
CONTINUOUS
 62
     7
 10
56.384
 20
64.513
 30
0.0
  0
VERTEX
  8
0
  6
CONTINUOUS
 62
     7
 10
56.888
 20
64.513
 30
0.0
  0
VERTEX
  8
0
  6
CONTINUOUS
 62
     7
 10
56.888
 20
65.458
 30
0.0
  0
VERTEX
  8
0
  6
CONTINUOUS
 62
     7
 10
58.148
 20
65.458
 30
0.0
  0
SEQEND
  0
LINE
  8
0
  6
CONTINUOUS
 62
     7
 10
58.841
 20
67.348
 30
0.0
 11
58.211
 21
67.978
 31
0.0
  0
POLYLINE
  8
0
  6
CONTINUOUS
 62
     7
 66
     1
 70
     1
  0
VERTEX
  8
0
  6
CONTINUOUS
 62
     7
 10
58.148
 20
65.773
 30
0.0
  0
VERTEX
  8
0
  6
CONTINUOUS
 62
     7
 10
58.125005
 20
65.510416
 30
0.0
  0
VERTEX
  8
0
  6
CONTINUOUS
 62
     7
 10
58.056839
 20
65.255896
 30
0.0
  0
VERTEX
  8
0
  6
CONTINUOUS
 62
     7
 10
57.945455
 20
65.017
 30
0.0
  0
VERTEX
  8
0
  6
CONTINUOUS
 62
     7
 10
57.794255
 20
64.801099
 30
0.0
  0
VERTEX
  8
0
  6
CONTINUOUS
 62
     7
 10
57.607901
 20
64.614745
 30
0.0
  0
VERTEX
  8
0
  6
CONTINUOUS
 62
     7
 10
57.392
 20
64.463545
 30
0.0
  0
VERTEX
  8
0
  6
CONTINUOUS
 62
     7
 10
57.153104
 20
64.352161
 30
0.0
  0
VERTEX
  8
0
  6
CONTINUOUS
 62
     7
 10
56.898584
 20
64.283995
 30
0.0
  0
VERTEX
  8
0
  6
CONTINUOUS
 62
     7
 10
56.636
 20
64.261
 30
0.0
  0
VERTEX
  8
0
  6
CONTINUOUS
 62
     7
 10
56.373416
 20
64.283995
 30
0.0
  0
VERTEX
  8
0
  6
CONTINUOUS
 62
     7
 10
56.118896
 20
64.352161
 30
0.0
  0
VERTEX
  8
0
  6
CONTINUOUS
 62
     7
 10
55.88
 20
64.463545
 30
0.0
  0
VERTEX
  8
0
  6
CONTINUOUS
 62
     7
 10
55.664099
 20
64.614745
 30
0.0
  0
VERTEX
  8
0
  6
CONTINUOUS
 62
     7
 10
55.477745
 20
64.801099
 30
0.0
  0
VERTEX
  8
0
  6
CONTINUOUS
 62
     7
 10
55.326545
 20
65.017
 30
0.0
  0
VERTEX
  8
0
  6
CONTINUOUS
 62
     7
 10
55.215161
 20
65.255896
 30
0.0
  0
VERTEX
  8
0
  6
CONTINUOUS
 62
     7
 10
55.146995
 20
65.510416
 30
0.0
  0
VERTEX
  8
0
  6
CONTINUOUS
 62
     7
 10
55.124
 20
65.773
 30
0.0
  0
VERTEX
  8
0
  6
CONTINUOUS
 62
     7
 10
55.146995
 20
66.035584
 30
0.0
  0
VERTEX
  8
0
  6
CONTINUOUS
 62
     7
 10
55.215161
 20
66.290104
 30
0.0
  0
VERTEX
  8
0
  6
CONTINUOUS
 62
     7
 10
55.326545
 20
66.529
 30
0.0
  0
VERTEX
  8
0
  6
CONTINUOUS
 62
     7
 10
55.477745
 20
66.744901
 30
0.0
  0
VERTEX
  8
0
  6
CONTINUOUS
 62
     7
 10
55.664099
 20
66.931255
 30
0.0
  0
VERTEX
  8
0
  6
CONTINUOUS
 62
     7
 10
55.88
 20
67.082455
 30
0.0
  0
VERTEX
  8
0
  6
CONTINUOUS
 62
     7
 10
56.118896
 20
67.193839
 30
0.0
  0
VERTEX
  8
0
  6
CONTINUOUS
 62
     7
 10
56.373416
 20
67.262005
 30
0.0
  0
VERTEX
  8
0
  6
CONTINUOUS
 62
     7
 10
56.636
 20
67.285
 30
0.0
  0
VERTEX
  8
0
  6
CONTINUOUS
 62
     7
 10
56.898584
 20
67.262005
 30
0.0
  0
VERTEX
  8
0
  6
CONTINUOUS
 62
     7
 10
57.153104
 20
67.193839
 30
0.0
  0
VERTEX
  8
0
  6
CONTINUOUS
 62
     7
 10
57.392
 20
67.082455
 30
0.0
  0
VERTEX
  8
0
  6
CONTINUOUS
 62
     7
 10
57.607901
 20
66.931255
 30
0.0
  0
VERTEX
  8
0
  6
CONTINUOUS
 62
     7
 10
57.794255
 20
66.744901
 30
0.0
  0
VERTEX
  8
0
  6
CONTINUOUS
 62
     7
 10
57.945455
 20
66.529
 30
0.0
  0
VERTEX
  8
0
  6
CONTINUOUS
 62
     7
 10
58.056839
 20
66.290104
 30
0.0
  0
VERTEX
  8
0
  6
CONTINUOUS
 62
     7
 10
58.125005
 20
66.035584
 30
0.0
  0
SEQEND
  0
LINE
  8
0
  6
CONTINUOUS
 62
     7
 10
58.211
 20
63.568
 30
0.0
 11
58.841
 21
64.198
 31
0.0
  0
LINE
  8
0
  6
CONTINUOUS
 62
     7
 10
58.526
 20
63.568
 30
0.0
 11
58.904
 21
63.946
 31
0.0
  0
LINE
  8
0
  6
CONTINUOUS
 62
     7
 10
56.888
 20
63.82
 30
0.0
 11
56.888
 21
63.568
 31
0.0
  0
LINE
  8
0
  6
CONTINUOUS
 62
     7
 10
56.384
 20
63.82
 30
0.0
 11
56.384
 21
63.568
 31
0.0
  0
LINE
  8
0
  6
CONTINUOUS
 62
     7
 10
54.431
 20
64.198
 30
0.0
 11
55.061
 21
63.568
 31
0.0
  0
LINE
  8
0
  6
CONTINUOUS
 62
     7
 10
54.431
 20
63.883
 30
0.0
 11
54.746
 21
63.568
 31
0.0
  0
LINE
  8
0
  6
CONTINUOUS
 62
     7
 10
54.683
 20
65.395
 30
0.0
 11
54.431
 21
65.395
 31
0.0
  0
POLYLINE
  8
0
  6
CONTINUOUS
 62
     7
 66
     1
 70
     1
  0
VERTEX
  8
0
  6
CONTINUOUS
 62
     7
 10
58.589
 20
65.773
 30
0.0
  0
VERTEX
  8
0
  6
CONTINUOUS
 62
     7
 10
58.559327
 20
65.433871
 30
0.0
  0
VERTEX
  8
0
  6
CONTINUOUS
 62
     7
 10
58.47119
 20
65.105011
 30
0.0
  0
VERTEX
  8
0
  6
CONTINUOUS
 62
     7
 10
58.327361
 20
64.7965
 30
0.0
  0
VERTEX
  8
0
  6
CONTINUOUS
 62
     7
 10
58.132061
 20
64.517662
 30
0.0
  0
VERTEX
  8
0
  6
CONTINUOUS
 62
     7
 10
57.891338
 20
64.276939
 30
0.0
  0
VERTEX
  8
0
  6
CONTINUOUS
 62
     7
 10
57.6125
 20
64.081639
 30
0.0
  0
VERTEX
  8
0
  6
CONTINUOUS
 62
     7
 10
57.303989
 20
63.93781
 30
0.0
  0
VERTEX
  8
0
  6
CONTINUOUS
 62
     7
 10
56.975129
 20
63.849673
 30
0.0
  0
VERTEX
  8
0
  6
CONTINUOUS
 62
     7
 10
56.636
 20
63.82
 30
0.0
  0
VERTEX
  8
0
  6
CONTINUOUS
 62
     7
 10
56.296871
 20
63.849673
 30
0.0
  0
VERTEX
  8
0
  6
CONTINUOUS
 62
     7
 10
55.968011
 20
63.93781
 30
0.0
  0
VERTEX
  8
0
  6
CONTINUOUS
 62
     7
 10
55.6595
 20
64.081639
 30
0.0
  0
VERTEX
  8
0
  6
CONTINUOUS
 62
     7
 10
55.380662
 20
64.276939
 30
0.0
  0
VERTEX
  8
0
  6
CONTINUOUS
 62
     7
 10
55.139939
 20
64.517662
 30
0.0
  0
VERTEX
  8
0
  6
CONTINUOUS
 62
     7
 10
54.944639
 20
64.7965
 30
0.0
  0
VERTEX
  8
0
  6
CONTINUOUS
 62
     7
 10
54.80081
 20
65.105011
 30
0.0
  0
VERTEX
  8
0
  6
CONTINUOUS
 62
     7
 10
54.712673
 20
65.433871
 30
0.0
  0
VERTEX
  8
0
  6
CONTINUOUS
 62
     7
 10
54.683
 20
65.773
 30
0.0
  0
VERTEX
  8
0
  6
CONTINUOUS
 62
     7
 10
54.712673
 20
66.112129
 30
0.0
  0
VERTEX
  8
0
  6
CONTINUOUS
 62
     7
 10
54.80081
 20
66.440989
 30
0.0
  0
VERTEX
  8
0
  6
CONTINUOUS
 62
     7
 10
54.944639
 20
66.7495
 30
0.0
  0
VERTEX
  8
0
  6
CONTINUOUS
 62
     7
 10
55.139939
 20
67.028338
 30
0.0
  0
VERTEX
  8
0
  6
CONTINUOUS
 62
     7
 10
55.380662
 20
67.269061
 30
0.0
  0
VERTEX
  8
0
  6
CONTINUOUS
 62
     7
 10
55.6595
 20
67.464361
 30
0.0
  0
VERTEX
  8
0
  6
CONTINUOUS
 62
     7
 10
55.968011
 20
67.60819
 30
0.0
  0
VERTEX
  8
0
  6
CONTINUOUS
 62
     7
 10
56.296871
 20
67.696327
 30
0.0
  0
VERTEX
  8
0
  6
CONTINUOUS
 62
     7
 10
56.636
 20
67.726
 30
0.0
  0
VERTEX
  8
0
  6
CONTINUOUS
 62
     7
 10
56.975129
 20
67.696327
 30
0.0
  0
VERTEX
  8
0
  6
CONTINUOUS
 62
     7
 10
57.303989
 20
67.60819
 30
0.0
  0
VERTEX
  8
0
  6
CONTINUOUS
 62
     7
 10
57.6125
 20
67.464361
 30
0.0
  0
VERTEX
  8
0
  6
CONTINUOUS
 62
     7
 10
57.891338
 20
67.269061
 30
0.0
  0
VERTEX
  8
0
  6
CONTINUOUS
 62
     7
 10
58.132061
 20
67.028338
 30
0.0
  0
VERTEX
  8
0
  6
CONTINUOUS
 62
     7
 10
58.327361
 20
66.7495
 30
0.0
  0
VERTEX
  8
0
  6
CONTINUOUS
 62
     7
 10
58.47119
 20
66.440989
 30
0.0
  0
VERTEX
  8
0
  6
CONTINUOUS
 62
     7
 10
58.559327
 20
66.112129
 30
0.0
  0
SEQEND
  0
LINE
  8
0
  6
CONTINUOUS
 62
     7
 10
54.683
 20
66.151
 30
0.0
 11
54.431
 21
66.151
 31
0.0
  0
LINE
  8
0
  6
CONTINUOUS
 62
     7
 10
55.061
 20
67.978
 30
0.0
 11
54.431
 21
67.348
 31
0.0
  0
LINE
  8
0
  6
CONTINUOUS
 62
     7
 10
54.746
 20
67.978
 30
0.0
 11
54.431
 21
67.663
 31
0.0
  0
LINE
  8
0
  6
CONTINUOUS
 62
     7
 10
58.904
 20
67.978
 30
0.0
 11
54.431
 21
67.978
 31
0.0
  0
LINE
  8
0
  6
CONTINUOUS
 62
     7
 10
58.841
 20
63.568
 30
0.0
 11
58.841
 21
67.978
 31
0.0
  0
LINE
  8
0
  6
CONTINUOUS
 62
     7
 10
54.431
 20
63.568
 30
0.0
 11
54.431
 21
67.978
 31
0.0
  0
LINE
  8
0
  6
CONTINUOUS
 62
     7
 10
58.904
 20
63.568
 30
0.0
 11
54.431
 21
63.568
 31
0.0
  0
LINE
  8
0
  6
CONTINUOUS
 62
     7
 10
65.078
 20
66.151
 30
0.0
 11
65.393
 21
66.151
 31
0.0
  0
LINE
  8
0
  6
CONTINUOUS
 62
     7
 10
65.078
 20
67.978
 30
0.0
 11
65.393
 21
67.663
 31
0.0
  0
LINE
  8
0
  6
CONTINUOUS
 62
     7
 10
65.393
 20
65.395
 30
0.0
 11
65.078
 21
65.395
 31
0.0
  0
LINE
  8
0
  6
CONTINUOUS
 62
     7
 10
62.873
 20
67.726
 30
0.0
 11
62.873
 21
67.978
 31
0.0
  0
LINE
  8
0
  6
CONTINUOUS
 62
     7
 10
63.377
 20
67.726
 30
0.0
 11
63.377
 21
67.978
 31
0.0
  0
POLYLINE
  8
0
  6
CONTINUOUS
 62
     7
 66
     1
  0
VERTEX
  8
0
  6
CONTINUOUS
 62
     7
 10
61.676
 20
66.088
 30
0.0
  0
VERTEX
  8
0
  6
CONTINUOUS
 62
     7
 10
62.873
 20
66.088
 30
0.0
  0
VERTEX
  8
0
  6
CONTINUOUS
 62
     7
 10
62.873
 20
67.033
 30
0.0
  0
VERTEX
  8
0
  6
CONTINUOUS
 62
     7
 10
63.377
 20
67.033
 30
0.0
  0
VERTEX
  8
0
  6
CONTINUOUS
 62
     7
 10
63.377
 20
66.088
 30
0.0
  0
VERTEX
  8
0
  6
CONTINUOUS
 62
     7
 10
64.637
 20
66.088
 30
0.0
  0
SEQEND
  0
POLYLINE
  8
0
  6
CONTINUOUS
 62
     7
 66
     1
  0
VERTEX
  8
0
  6
CONTINUOUS
 62
     7
 10
61.676
 20
65.458
 30
0.0
  0
VERTEX
  8
0
  6
CONTINUOUS
 62
     7
 10
62.873
 20
65.458
 30
0.0
  0
VERTEX
  8
0
  6
CONTINUOUS
 62
     7
 10
62.873
 20
64.513
 30
0.0
  0
VERTEX
  8
0
  6
CONTINUOUS
 62
     7
 10
63.377
 20
64.513
 30
0.0
  0
VERTEX
  8
0
  6
CONTINUOUS
 62
     7
 10
63.377
 20
65.458
 30
0.0
  0
VERTEX
  8
0
  6
CONTINUOUS
 62
     7
 10
64.637
 20
65.458
 30
0.0
  0
SEQEND
  0
LINE
  8
0
  6
CONTINUOUS
 62
     7
 10
65.33
 20
67.348
 30
0.0
 11
64.7
 21
67.978
 31
0.0
  0
POLYLINE
  8
0
  6
CONTINUOUS
 62
     7
 66
     1
 70
     1
  0
VERTEX
  8
0
  6
CONTINUOUS
 62
     7
 10
64.637
 20
65.773
 30
0.0
  0
VERTEX
  8
0
  6
CONTINUOUS
 62
     7
 10
64.614005
 20
65.510416
 30
0.0
  0
VERTEX
  8
0
  6
CONTINUOUS
 62
     7
 10
64.545839
 20
65.255896
 30
0.0
  0
VERTEX
  8
0
  6
CONTINUOUS
 62
     7
 10
64.434455
 20
65.017
 30
0.0
  0
VERTEX
  8
0
  6
CONTINUOUS
 62
     7
 10
64.283255
 20
64.801099
 30
0.0
  0
VERTEX
  8
0
  6
CONTINUOUS
 62
     7
 10
64.096901
 20
64.614745
 30
0.0
  0
VERTEX
  8
0
  6
CONTINUOUS
 62
     7
 10
63.881
 20
64.463545
 30
0.0
  0
VERTEX
  8
0
  6
CONTINUOUS
 62
     7
 10
63.642104
 20
64.352161
 30
0.0
  0
VERTEX
  8
0
  6
CONTINUOUS
 62
     7
 10
63.387584
 20
64.283995
 30
0.0
  0
VERTEX
  8
0
  6
CONTINUOUS
 62
     7
 10
63.125
 20
64.261
 30
0.0
  0
VERTEX
  8
0
  6
CONTINUOUS
 62
     7
 10
62.862416
 20
64.283995
 30
0.0
  0
VERTEX
  8
0
  6
CONTINUOUS
 62
     7
 10
62.607896
 20
64.352161
 30
0.0
  0
VERTEX
  8
0
  6
CONTINUOUS
 62
     7
 10
62.369
 20
64.463545
 30
0.0
  0
VERTEX
  8
0
  6
CONTINUOUS
 62
     7
 10
62.153099
 20
64.614745
 30
0.0
  0
VERTEX
  8
0
  6
CONTINUOUS
 62
     7
 10
61.966745
 20
64.801099
 30
0.0
  0
VERTEX
  8
0
  6
CONTINUOUS
 62
     7
 10
61.815545
 20
65.017
 30
0.0
  0
VERTEX
  8
0
  6
CONTINUOUS
 62
     7
 10
61.704161
 20
65.255896
 30
0.0
  0
VERTEX
  8
0
  6
CONTINUOUS
 62
     7
 10
61.635995
 20
65.510416
 30
0.0
  0
VERTEX
  8
0
  6
CONTINUOUS
 62
     7
 10
61.613
 20
65.773
 30
0.0
  0
VERTEX
  8
0
  6
CONTINUOUS
 62
     7
 10
61.635995
 20
66.035584
 30
0.0
  0
VERTEX
  8
0
  6
CONTINUOUS
 62
     7
 10
61.704161
 20
66.290104
 30
0.0
  0
VERTEX
  8
0
  6
CONTINUOUS
 62
     7
 10
61.815545
 20
66.529
 30
0.0
  0
VERTEX
  8
0
  6
CONTINUOUS
 62
     7
 10
61.966745
 20
66.744901
 30
0.0
  0
VERTEX
  8
0
  6
CONTINUOUS
 62
     7
 10
62.153099
 20
66.931255
 30
0.0
  0
VERTEX
  8
0
  6
CONTINUOUS
 62
     7
 10
62.369
 20
67.082455
 30
0.0
  0
VERTEX
  8
0
  6
CONTINUOUS
 62
     7
 10
62.607896
 20
67.193839
 30
0.0
  0
VERTEX
  8
0
  6
CONTINUOUS
 62
     7
 10
62.862416
 20
67.262005
 30
0.0
  0
VERTEX
  8
0
  6
CONTINUOUS
 62
     7
 10
63.125
 20
67.285
 30
0.0
  0
VERTEX
  8
0
  6
CONTINUOUS
 62
     7
 10
63.387584
 20
67.262005
 30
0.0
  0
VERTEX
  8
0
  6
CONTINUOUS
 62
     7
 10
63.642104
 20
67.193839
 30
0.0
  0
VERTEX
  8
0
  6
CONTINUOUS
 62
     7
 10
63.881
 20
67.082455
 30
0.0
  0
VERTEX
  8
0
  6
CONTINUOUS
 62
     7
 10
64.096901
 20
66.931255
 30
0.0
  0
VERTEX
  8
0
  6
CONTINUOUS
 62
     7
 10
64.283255
 20
66.744901
 30
0.0
  0
VERTEX
  8
0
  6
CONTINUOUS
 62
     7
 10
64.434455
 20
66.529
 30
0.0
  0
VERTEX
  8
0
  6
CONTINUOUS
 62
     7
 10
64.545839
 20
66.290104
 30
0.0
  0
VERTEX
  8
0
  6
CONTINUOUS
 62
     7
 10
64.614005
 20
66.035584
 30
0.0
  0
SEQEND
  0
LINE
  8
0
  6
CONTINUOUS
 62
     7
 10
64.7
 20
63.568
 30
0.0
 11
65.33
 21
64.198
 31
0.0
  0
LINE
  8
0
  6
CONTINUOUS
 62
     7
 10
65.015
 20
63.568
 30
0.0
 11
65.393
 21
63.946
 31
0.0
  0
LINE
  8
0
  6
CONTINUOUS
 62
     7
 10
63.377
 20
63.82
 30
0.0
 11
63.377
 21
63.568
 31
0.0
  0
LINE
  8
0
  6
CONTINUOUS
 62
     7
 10
62.873
 20
63.82
 30
0.0
 11
62.873
 21
63.568
 31
0.0
  0
LINE
  8
0
  6
CONTINUOUS
 62
     7
 10
60.92
 20
64.198
 30
0.0
 11
61.55
 21
63.568
 31
0.0
  0
LINE
  8
0
  6
CONTINUOUS
 62
     7
 10
60.92
 20
63.883
 30
0.0
 11
61.235
 21
63.568
 31
0.0
  0
LINE
  8
0
  6
CONTINUOUS
 62
     7
 10
61.172
 20
65.395
 30
0.0
 11
60.92
 21
65.395
 31
0.0
  0
POLYLINE
  8
0
  6
CONTINUOUS
 62
     7
 66
     1
 70
     1
  0
VERTEX
  8
0
  6
CONTINUOUS
 62
     7
 10
65.078
 20
65.773
 30
0.0
  0
VERTEX
  8
0
  6
CONTINUOUS
 62
     7
 10
65.048327
 20
65.433871
 30
0.0
  0
VERTEX
  8
0
  6
CONTINUOUS
 62
     7
 10
64.96019
 20
65.105011
 30
0.0
  0
VERTEX
  8
0
  6
CONTINUOUS
 62
     7
 10
64.816361
 20
64.7965
 30
0.0
  0
VERTEX
  8
0
  6
CONTINUOUS
 62
     7
 10
64.621061
 20
64.517662
 30
0.0
  0
VERTEX
  8
0
  6
CONTINUOUS
 62
     7
 10
64.380338
 20
64.276939
 30
0.0
  0
VERTEX
  8
0
  6
CONTINUOUS
 62
     7
 10
64.1015
 20
64.081639
 30
0.0
  0
VERTEX
  8
0
  6
CONTINUOUS
 62
     7
 10
63.792989
 20
63.93781
 30
0.0
  0
VERTEX
  8
0
  6
CONTINUOUS
 62
     7
 10
63.464129
 20
63.849673
 30
0.0
  0
VERTEX
  8
0
  6
CONTINUOUS
 62
     7
 10
63.125
 20
63.82
 30
0.0
  0
VERTEX
  8
0
  6
CONTINUOUS
 62
     7
 10
62.785871
 20
63.849673
 30
0.0
  0
VERTEX
  8
0
  6
CONTINUOUS
 62
     7
 10
62.457011
 20
63.93781
 30
0.0
  0
VERTEX
  8
0
  6
CONTINUOUS
 62
     7
 10
62.1485
 20
64.081639
 30
0.0
  0
VERTEX
  8
0
  6
CONTINUOUS
 62
     7
 10
61.869662
 20
64.276939
 30
0.0
  0
VERTEX
  8
0
  6
CONTINUOUS
 62
     7
 10
61.628939
 20
64.517662
 30
0.0
  0
VERTEX
  8
0
  6
CONTINUOUS
 62
     7
 10
61.433639
 20
64.7965
 30
0.0
  0
VERTEX
  8
0
  6
CONTINUOUS
 62
     7
 10
61.28981
 20
65.105011
 30
0.0
  0
VERTEX
  8
0
  6
CONTINUOUS
 62
     7
 10
61.201673
 20
65.433871
 30
0.0
  0
VERTEX
  8
0
  6
CONTINUOUS
 62
     7
 10
61.172
 20
65.773
 30
0.0
  0
VERTEX
  8
0
  6
CONTINUOUS
 62
     7
 10
61.201673
 20
66.112129
 30
0.0
  0
VERTEX
  8
0
  6
CONTINUOUS
 62
     7
 10
61.28981
 20
66.440989
 30
0.0
  0
VERTEX
  8
0
  6
CONTINUOUS
 62
     7
 10
61.433639
 20
66.7495
 30
0.0
  0
VERTEX
  8
0
  6
CONTINUOUS
 62
     7
 10
61.628939
 20
67.028338
 30
0.0
  0
VERTEX
  8
0
  6
CONTINUOUS
 62
     7
 10
61.869662
 20
67.269061
 30
0.0
  0
VERTEX
  8
0
  6
CONTINUOUS
 62
     7
 10
62.1485
 20
67.464361
 30
0.0
  0
VERTEX
  8
0
  6
CONTINUOUS
 62
     7
 10
62.457011
 20
67.60819
 30
0.0
  0
VERTEX
  8
0
  6
CONTINUOUS
 62
     7
 10
62.785871
 20
67.696327
 30
0.0
  0
VERTEX
  8
0
  6
CONTINUOUS
 62
     7
 10
63.125
 20
67.726
 30
0.0
  0
VERTEX
  8
0
  6
CONTINUOUS
 62
     7
 10
63.464129
 20
67.696327
 30
0.0
  0
VERTEX
  8
0
  6
CONTINUOUS
 62
     7
 10
63.792989
 20
67.60819
 30
0.0
  0
VERTEX
  8
0
  6
CONTINUOUS
 62
     7
 10
64.1015
 20
67.464361
 30
0.0
  0
VERTEX
  8
0
  6
CONTINUOUS
 62
     7
 10
64.380338
 20
67.269061
 30
0.0
  0
VERTEX
  8
0
  6
CONTINUOUS
 62
     7
 10
64.621061
 20
67.028338
 30
0.0
  0
VERTEX
  8
0
  6
CONTINUOUS
 62
     7
 10
64.816361
 20
66.7495
 30
0.0
  0
VERTEX
  8
0
  6
CONTINUOUS
 62
     7
 10
64.96019
 20
66.440989
 30
0.0
  0
VERTEX
  8
0
  6
CONTINUOUS
 62
     7
 10
65.048327
 20
66.112129
 30
0.0
  0
SEQEND
  0
LINE
  8
0
  6
CONTINUOUS
 62
     7
 10
61.172
 20
66.151
 30
0.0
 11
60.92
 21
66.151
 31
0.0
  0
LINE
  8
0
  6
CONTINUOUS
 62
     7
 10
61.55
 20
67.978
 30
0.0
 11
60.92
 21
67.348
 31
0.0
  0
LINE
  8
0
  6
CONTINUOUS
 62
     7
 10
61.235
 20
67.978
 30
0.0
 11
60.92
 21
67.663
 31
0.0
  0
LINE
  8
0
  6
CONTINUOUS
 62
     7
 10
65.393
 20
67.978
 30
0.0
 11
60.92
 21
67.978
 31
0.0
  0
LINE
  8
0
  6
CONTINUOUS
 62
     7
 10
65.33
 20
63.568
 30
0.0
 11
65.33
 21
67.978
 31
0.0
  0
LINE
  8
0
  6
CONTINUOUS
 62
     7
 10
60.92
 20
63.568
 30
0.0
 11
60.92
 21
67.978
 31
0.0
  0
LINE
  8
0
  6
CONTINUOUS
 62
     7
 10
65.393
 20
63.568
 30
0.0
 11
60.92
 21
63.568
 31
0.0
  0
LINE
  8
0
  6
CONTINUOUS
 62
     7
 10
35.72
 20
24.76
 30
0.0
 11
35.72
 21
72.64
 31
0.0
  0
LINE
  8
0
  6
CONTINUOUS
 62
     7
 10
67.22
 20
71.695
 30
0.0
 11
65.582
 21
71.695
 31
0.0
  0
LINE
  8
0
  6
CONTINUOUS
 62
     7
 10
37.358
 20
71.695
 30
0.0
 11
35.72
 21
71.695
 31
0.0
  0
LINE
  8
0
  6
CONTINUOUS
 62
     7
 10
42.272
 20
71.695
 30
0.0
 11
43.847
 21
71.695
 31
0.0
  0
LINE
  8
0
  6
CONTINUOUS
 62
     7
 10
60.668
 20
71.695
 30
0.0
 11
59.093
 21
71.695
 31
0.0
  0
LINE
  8
0
  6
CONTINUOUS
 62
     7
 10
48.761
 20
72.955
 30
0.0
 11
50.336
 21
72.955
 31
0.0
  0
LINE
  8
0
  6
CONTINUOUS
 62
     7
 10
52.604
 20
72.955
 30
0.0
 11
54.179
 21
72.955
 31
0.0
  0
LINE
  8
0
  6
CONTINUOUS
 62
     7
 10
35.72
 20
25.705
 30
0.0
 11
37.358
 21
25.705
 31
0.0
  0
LINE
  8
0
  6
CONTINUOUS
 62
     7
 10
42.272
 20
25.705
 30
0.0
 11
43.847
 21
25.705
 31
0.0
  0
LINE
  8
0
  6
CONTINUOUS
 62
     7
 10
59.093
 20
25.705
 30
0.0
 11
60.668
 21
25.705
 31
0.0
  0
LINE
  8
0
  6
CONTINUOUS
 62
     7
 10
65.582
 20
25.705
 30
0.0
 11
67.22
 21
25.705
 31
0.0
  0
LINE
  8
0
  6
CONTINUOUS
 62
     7
 10
52.604
 20
24.445
 30
0.0
 11
54.179
 21
24.445
 31
0.0
  0
LINE
  8
0
  6
CONTINUOUS
 62
     7
 10
48.761
 20
24.445
 30
0.0
 11
50.336
 21
24.445
 31
0.0
  0
CIRCLE
  8
0
  6
CONTINUOUS
 62
     7
 10
51.47
 20
48.7
 30
0.0
 40
9.135
  0
CIRCLE
  8
0
  6
CONTINUOUS
 62
     7
 10
38.87
 20
48.7
 30
0.0
 40
1.449
  0
LINE
  8
0
  6
CONTINUOUS
 62
     7
 10
40.76
 20
45.991
 30
0.0
 11
35.72
 21
45.991
 31
0.0
  0
ARC
  8
0
  6
CONTINUOUS
 62
     7
 10
40.76
 20
46.621
 30
0.0
 40
0.63
 50
270.0
 51
0.0
  0
LINE
  8
0
  6
CONTINUOUS
 62
     7
 10
35.72
 20
51.409
 30
0.0
 11
40.76
 21
51.409
 31
0.0
  0
LINE
  8
0
  6
CONTINUOUS
 62
     7
 10
41.39
 20
50.779
 30
0.0
 11
41.39
 21
46.621
 31
0.0
  0
ARC
  8
0
  6
CONTINUOUS
 62
     7
 10
40.76
 20
50.779
 30
0.0
 40
0.63
 50
0.0
 51
90.0
  0
LINE
  8
0
  6
LTYPE1
 62
     7
 10
72.26
 20
48.7
 30
0.0
 11
31.31
 21
48.7
 31
0.0
  0
LINE
  8
0
  6
LTYPE1
 62
     7
 10
51.47
 20
78.94
 30
0.0
 11
51.47
 21
15.94
 31
0.0
  0
LINE
  8
0
  6
CONTINUOUS
 62
     7
 10
23.12
 20
20.98
 30
0.0
 11
48.32
 21
20.98
 31
0.0
  0
LINE
  8
0
  6
CONTINUOUS
 62
     7
 10
24.38
 20
20.98
 30
0.0
 11
24.38
 21
18.46
 31
0.0
  0
LINE
  8
0
  6
CONTINUOUS
 62
     7
 10
24.706088
 20
19.762903
 30
0.0
 11
24.38
 21
20.98
 31
0.0
  0
LINE
  8
0
  6
CONTINUOUS
 62
     7
 10
24.38
 20
20.98
 30
0.0
 11
24.053912
 21
19.762903
 31
0.0
  0
LINE
  8
0
  6
CONTINUOUS
 62
     7
 10
24.38
 20
23.5
 30
0.0
 11
24.38
 21
20.35
 31
0.0
  0
TEXT
  8
0
  6
CONTINUOUS
 62
     7
 10
23.75
 20
21.61
 30
0.0
 40
1.89
  1
４
 50
90.0
 41
0.666
 51
0.0
  7
KANJI2
  0
TEXT
  8
0
  6
CONTINUOUS
 62
     7
 10
76.67
 20
78.31
 30
0.0
 40
1.89
  1
端
 50
0.0
 41
1.0
 51
0.0
  7
KANJI0
  0
TEXT
  8
0
  6
CONTINUOUS
 62
     7
 10
78.56
 20
78.31
 30
0.0
 40
1.89
  1
子
 50
0.0
 41
1.0
 51
0.0
  7
KANJI0
  0
TEXT
  8
0
  6
CONTINUOUS
 62
     7
 10
80.45
 20
78.31
 30
0.0
 40
1.89
  1
ネ
 50
0.0
 41
1.0
 51
0.0
  7
KANJI0
  0
TEXT
  8
0
  6
CONTINUOUS
 62
     7
 10
82.34
 20
78.31
 30
0.0
 40
1.89
  1
ジ
 50
0.0
 41
1.0
 51
0.0
  7
KANJI0
  0
TEXT
  8
0
  6
CONTINUOUS
 62
     7
 10
86.12
 20
78.31
 30
0.0
 40
1.89
  1
Ｍ
 50
0.0
 41
0.666
 51
0.0
  7
KANJI2
  0
TEXT
  8
0
  6
CONTINUOUS
 62
     7
 10
87.38
 20
78.31
 30
0.0
 40
1.89
  1
３
 50
0.0
 41
0.666
 51
0.0
  7
KANJI2
  0
TEXT
  8
0
  6
CONTINUOUS
 62
     7
 10
88.64
 20
78.31
 30
0.0
 40
1.89
  1
．
 50
0.0
 41
0.666
 51
0.0
  7
KANJI2
  0
LINE
  8
0
  6
CONTINUOUS
 62
     7
 10
74.78
 20
77.68
 30
0.0
 11
92.42
 21
77.68
 31
0.0
  0
LINE
  8
0
  6
CONTINUOUS
 62
     7
 10
64.7
 20
66.97
 30
0.0
 11
74.78
 21
77.68
 31
0.0
  0
LINE
  8
0
  6
CONTINUOUS
 62
     7
 10
65.297366
 20
68.07943
 30
0.0
 11
64.7
 21
66.97
 31
0.0
  0
LINE
  8
0
  6
CONTINUOUS
 62
     7
 10
64.7
 20
66.97
 30
0.0
 11
65.772008
 21
67.632067
 31
0.0
  0
LINE
  8
0
  6
CONTINUOUS
 62
     7
 10
65.33
 20
49.96
 30
0.0
 11
74.78
 21
60.04
 31
0.0
  0
LINE
  8
0
  6
CONTINUOUS
 62
     7
 10
65.925413
 20
51.070438
 30
0.0
 11
65.33
 21
49.96
 31
0.0
  0
LINE
  8
0
  6
CONTINUOUS
 62
     7
 10
65.33
 20
49.96
 30
0.0
 11
66.400874
 21
50.623957
 31
0.0
  0
TEXT
  8
0
  6
CONTINUOUS
 62
     7
 10
76.04
 20
60.67
 30
0.0
 40
1.89
  1
２
 50
0.0
 41
0.666
 51
0.0
  7
KANJI2
  0
TEXT
  8
0
  6
CONTINUOUS
 62
     7
 10
77.3
 20
60.67
 30
0.0
 40
1.89
  1
－
 50
0.0
 41
0.666
 51
0.0
  7
KANJI2
  0
TEXT
  8
0
  6
CONTINUOUS
 62
     7
 10
78.56
 20
60.67
 30
0.0
 40
1.89
  1
φ
 50
0.0
 41
0.666
 51
0.0
  7
KANJI2
  0
TEXT
  8
0
  6
CONTINUOUS
 62
     7
 10
79.82
 20
60.67
 30
0.0
 40
1.89
  1
４
 50
0.0
 41
0.666
 51
0.0
  7
KANJI2
  0
TEXT
  8
0
  6
CONTINUOUS
 62
     7
 10
81.08
 20
60.67
 30
0.0
 40
1.89
  1
．
 50
0.0
 41
0.666
 51
0.0
  7
KANJI2
  0
TEXT
  8
0
  6
CONTINUOUS
 62
     7
 10
82.34
 20
60.67
 30
0.0
 40
1.89
  1
５
 50
0.0
 41
0.666
 51
0.0
  7
KANJI2
  0
TEXT
  8
0
  6
CONTINUOUS
 62
     7
 10
84.23
 20
60.67
 30
0.0
 40
1.89
  1
穴
 50
0.0
 41
1.0
 51
0.0
  7
KANJI0
  0
LINE
  8
0
  6
CONTINUOUS
 62
     7
 10
74.78
 20
60.04
 30
0.0
 11
88.01
 21
60.04
 31
0.0
  0
TEXT
  8
0
  6
CONTINUOUS
 62
     7
 10
52.73
 20
82.405
 30
0.0
 40
0.945
  1
＋
 50
0.0
 41
1.0
 51
0.0
  7
KANJI3
  0
TEXT
  8
0
  6
CONTINUOUS
 62
     7
 10
53.675
 20
82.09
 30
0.0
 40
1.26
  1
０
 50
0.0
 41
0.75
 51
0.0
  7
KANJI4
  0
TEXT
  8
0
  6
CONTINUOUS
 62
     7
 10
54.62
 20
82.09
 30
0.0
 40
1.26
  1
．
 50
0.0
 41
0.75
 51
0.0
  7
KANJI4
  0
TEXT
  8
0
  6
CONTINUOUS
 62
     7
 10
55.565
 20
82.09
 30
0.0
 40
1.26
  1
２
 50
0.0
 41
0.75
 51
0.0
  7
KANJI4
  0
TEXT
  8
0
  6
CONTINUOUS
 62
     7
 10
52.73
 20
81.775
 30
0.0
 40
0.945
  1
－
 50
0.0
 41
1.0
 51
0.0
  7
KANJI3
  0
CIRCLE
  8
0
  6
CONTINUOUS
 62
     7
 10
48.509
 20
53.299
 30
0.0
 40
1.071
  0
CIRCLE
  8
0
  6
CONTINUOUS
 62
     7
 10
48.509
 20
53.299
 30
0.0
 40
0.945
  0
CIRCLE
  8
0
  6
CONTINUOUS
 62
     7
 10
54.431
 20
53.299
 30
0.0
 40
1.071
  0
CIRCLE
  8
0
  6
CONTINUOUS
 62
     7
 10
54.431
 20
53.299
 30
0.0
 40
0.945
  0
CIRCLE
  8
0
  6
CONTINUOUS
 62
     7
 10
51.47
 20
54.181
 30
0.0
 40
1.071
  0
CIRCLE
  8
0
  6
CONTINUOUS
 62
     7
 10
51.47
 20
54.181
 30
0.0
 40
0.945
  0
CIRCLE
  8
0
  6
CONTINUOUS
 62
     7
 10
46.493
 20
50.905
 30
0.0
 40
1.071
  0
CIRCLE
  8
0
  6
CONTINUOUS
 62
     7
 10
46.493
 20
50.905
 30
0.0
 40
0.945
  0
CIRCLE
  8
0
  6
CONTINUOUS
 62
     7
 10
46.052
 20
47.881
 30
0.0
 40
0.945
  0
CIRCLE
  8
0
  6
CONTINUOUS
 62
     7
 10
46.052
 20
47.881
 30
0.0
 40
1.071
  0
CIRCLE
  8
0
  6
CONTINUOUS
 62
     7
 10
47.375
 20
45.046
 30
0.0
 40
0.945
  0
CIRCLE
  8
0
  6
CONTINUOUS
 62
     7
 10
47.375
 20
45.046
 30
0.0
 40
1.071
  0
CIRCLE
  8
0
  6
CONTINUOUS
 62
     7
 10
50.021
 20
43.408
 30
0.0
 40
0.945
  0
CIRCLE
  8
0
  6
CONTINUOUS
 62
     7
 10
50.021
 20
43.408
 30
0.0
 40
1.071
  0
CIRCLE
  8
0
  6
CONTINUOUS
 62
     7
 10
52.919
 20
43.408
 30
0.0
 40
0.945
  0
CIRCLE
  8
0
  6
CONTINUOUS
 62
     7
 10
52.919
 20
43.408
 30
0.0
 40
1.071
  0
CIRCLE
  8
0
  6
CONTINUOUS
 62
     7
 10
55.565
 20
45.046
 30
0.0
 40
0.945
  0
CIRCLE
  8
0
  6
CONTINUOUS
 62
     7
 10
55.565
 20
45.046
 30
0.0
 40
1.071
  0
CIRCLE
  8
0
  6
CONTINUOUS
 62
     7
 10
56.888
 20
47.818
 30
0.0
 40
0.945
  0
CIRCLE
  8
0
  6
CONTINUOUS
 62
     7
 10
56.888
 20
47.818
 30
0.0
 40
1.071
  0
CIRCLE
  8
0
  6
CONTINUOUS
 62
     7
 10
56.447
 20
50.905
 30
0.0
 40
0.945
  0
CIRCLE
  8
0
  6
CONTINUOUS
 62
     7
 10
56.447
 20
50.905
 30
0.0
 40
1.071
  0
LINE
  8
0
  6
CONTINUOUS
 62
     7
 10
35.72
 20
35.344
 30
0.0
 11
35.72
 21
36.919
 31
0.0
  0
LINE
  8
0
  6
CONTINUOUS
 62
     7
 10
48.257
 20
31.249
 30
0.0
 11
48.572
 21
31.249
 31
0.0
  0
LINE
  8
0
  6
CONTINUOUS
 62
     7
 10
48.257
 20
29.422
 30
0.0
 11
48.572
 21
29.737
 31
0.0
  0
LINE
  8
0
  6
CONTINUOUS
 62
     7
 10
48.572
 20
32.005
 30
0.0
 11
48.257
 21
32.005
 31
0.0
  0
LINE
  8
0
  6
CONTINUOUS
 62
     7
 10
46.052
 20
29.674
 30
0.0
 11
46.052
 21
29.422
 31
0.0
  0
LINE
  8
0
  6
CONTINUOUS
 62
     7
 10
46.556
 20
29.674
 30
0.0
 11
46.556
 21
29.422
 31
0.0
  0
POLYLINE
  8
0
  6
CONTINUOUS
 62
     7
 66
     1
  0
VERTEX
  8
0
  6
CONTINUOUS
 62
     7
 10
44.855
 20
31.312
 30
0.0
  0
VERTEX
  8
0
  6
CONTINUOUS
 62
     7
 10
46.052
 20
31.312
 30
0.0
  0
VERTEX
  8
0
  6
CONTINUOUS
 62
     7
 10
46.052
 20
30.367
 30
0.0
  0
VERTEX
  8
0
  6
CONTINUOUS
 62
     7
 10
46.556
 20
30.367
 30
0.0
  0
VERTEX
  8
0
  6
CONTINUOUS
 62
     7
 10
46.556
 20
31.312
 30
0.0
  0
VERTEX
  8
0
  6
CONTINUOUS
 62
     7
 10
47.816
 20
31.312
 30
0.0
  0
SEQEND
  0
POLYLINE
  8
0
  6
CONTINUOUS
 62
     7
 66
     1
  0
VERTEX
  8
0
  6
CONTINUOUS
 62
     7
 10
44.855
 20
31.942
 30
0.0
  0
VERTEX
  8
0
  6
CONTINUOUS
 62
     7
 10
46.052
 20
31.942
 30
0.0
  0
VERTEX
  8
0
  6
CONTINUOUS
 62
     7
 10
46.052
 20
32.887
 30
0.0
  0
VERTEX
  8
0
  6
CONTINUOUS
 62
     7
 10
46.556
 20
32.887
 30
0.0
  0
VERTEX
  8
0
  6
CONTINUOUS
 62
     7
 10
46.556
 20
31.942
 30
0.0
  0
VERTEX
  8
0
  6
CONTINUOUS
 62
     7
 10
47.816
 20
31.942
 30
0.0
  0
SEQEND
  0
LINE
  8
0
  6
CONTINUOUS
 62
     7
 10
48.509
 20
30.052
 30
0.0
 11
47.879
 21
29.422
 31
0.0
  0
CIRCLE
  8
0
  6
CONTINUOUS
 62
     7
 10
46.304
 20
31.627
 30
0.0
 40
1.512
  0
LINE
  8
0
  6
CONTINUOUS
 62
     7
 10
47.879
 20
33.832
 30
0.0
 11
48.509
 21
33.202
 31
0.0
  0
LINE
  8
0
  6
CONTINUOUS
 62
     7
 10
48.194
 20
33.832
 30
0.0
 11
48.572
 21
33.454
 31
0.0
  0
LINE
  8
0
  6
CONTINUOUS
 62
     7
 10
46.556
 20
33.58
 30
0.0
 11
46.556
 21
33.832
 31
0.0
  0
LINE
  8
0
  6
CONTINUOUS
 62
     7
 10
46.052
 20
33.58
 30
0.0
 11
46.052
 21
33.832
 31
0.0
  0
LINE
  8
0
  6
CONTINUOUS
 62
     7
 10
44.099
 20
33.202
 30
0.0
 11
44.729
 21
33.832
 31
0.0
  0
LINE
  8
0
  6
CONTINUOUS
 62
     7
 10
44.099
 20
33.517
 30
0.0
 11
44.414
 21
33.832
 31
0.0
  0
LINE
  8
0
  6
CONTINUOUS
 62
     7
 10
44.351
 20
32.005
 30
0.0
 11
44.099
 21
32.005
 31
0.0
  0
CIRCLE
  8
0
  6
CONTINUOUS
 62
     7
 10
46.304
 20
31.627
 30
0.0
 40
1.953
  0
LINE
  8
0
  6
CONTINUOUS
 62
     7
 10
44.351
 20
31.249
 30
0.0
 11
44.099
 21
31.249
 31
0.0
  0
LINE
  8
0
  6
CONTINUOUS
 62
     7
 10
44.729
 20
29.422
 30
0.0
 11
44.099
 21
30.052
 31
0.0
  0
LINE
  8
0
  6
CONTINUOUS
 62
     7
 10
44.414
 20
29.422
 30
0.0
 11
44.099
 21
29.737
 31
0.0
  0
LINE
  8
0
  6
CONTINUOUS
 62
     7
 10
48.572
 20
29.422
 30
0.0
 11
44.099
 21
29.422
 31
0.0
  0
LINE
  8
0
  6
CONTINUOUS
 62
     7
 10
48.509
 20
33.832
 30
0.0
 11
48.509
 21
29.422
 31
0.0
  0
LINE
  8
0
  6
CONTINUOUS
 62
     7
 10
44.099
 20
33.832
 30
0.0
 11
44.099
 21
29.422
 31
0.0
  0
LINE
  8
0
  6
CONTINUOUS
 62
     7
 10
48.572
 20
33.832
 30
0.0
 11
44.099
 21
33.832
 31
0.0
  0
LINE
  8
0
  6
CONTINUOUS
 62
     7
 10
58.589
 20
31.249
 30
0.0
 11
58.904
 21
31.249
 31
0.0
  0
LINE
  8
0
  6
CONTINUOUS
 62
     7
 10
58.589
 20
29.422
 30
0.0
 11
58.904
 21
29.737
 31
0.0
  0
LINE
  8
0
  6
CONTINUOUS
 62
     7
 10
58.904
 20
32.005
 30
0.0
 11
58.589
 21
32.005
 31
0.0
  0
LINE
  8
0
  6
CONTINUOUS
 62
     7
 10
56.384
 20
29.674
 30
0.0
 11
56.384
 21
29.422
 31
0.0
  0
LINE
  8
0
  6
CONTINUOUS
 62
     7
 10
56.888
 20
29.674
 30
0.0
 11
56.888
 21
29.422
 31
0.0
  0
POLYLINE
  8
0
  6
CONTINUOUS
 62
     7
 66
     1
  0
VERTEX
  8
0
  6
CONTINUOUS
 62
     7
 10
55.187
 20
31.312
 30
0.0
  0
VERTEX
  8
0
  6
CONTINUOUS
 62
     7
 10
56.384
 20
31.312
 30
0.0
  0
VERTEX
  8
0
  6
CONTINUOUS
 62
     7
 10
56.384
 20
30.367
 30
0.0
  0
VERTEX
  8
0
  6
CONTINUOUS
 62
     7
 10
56.888
 20
30.367
 30
0.0
  0
VERTEX
  8
0
  6
CONTINUOUS
 62
     7
 10
56.888
 20
31.312
 30
0.0
  0
VERTEX
  8
0
  6
CONTINUOUS
 62
     7
 10
58.148
 20
31.312
 30
0.0
  0
SEQEND
  0
POLYLINE
  8
0
  6
CONTINUOUS
 62
     7
 66
     1
  0
VERTEX
  8
0
  6
CONTINUOUS
 62
     7
 10
55.187
 20
31.942
 30
0.0
  0
VERTEX
  8
0
  6
CONTINUOUS
 62
     7
 10
56.384
 20
31.942
 30
0.0
  0
VERTEX
  8
0
  6
CONTINUOUS
 62
     7
 10
56.384
 20
32.887
 30
0.0
  0
VERTEX
  8
0
  6
CONTINUOUS
 62
     7
 10
56.888
 20
32.887
 30
0.0
  0
VERTEX
  8
0
  6
CONTINUOUS
 62
     7
 10
56.888
 20
31.942
 30
0.0
  0
VERTEX
  8
0
  6
CONTINUOUS
 62
     7
 10
58.148
 20
31.942
 30
0.0
  0
SEQEND
  0
LINE
  8
0
  6
CONTINUOUS
 62
     7
 10
58.841
 20
30.052
 30
0.0
 11
58.211
 21
29.422
 31
0.0
  0
CIRCLE
  8
0
  6
CONTINUOUS
 62
     7
 10
56.636
 20
31.627
 30
0.0
 40
1.512
  0
LINE
  8
0
  6
CONTINUOUS
 62
     7
 10
58.211
 20
33.832
 30
0.0
 11
58.841
 21
33.202
 31
0.0
  0
LINE
  8
0
  6
CONTINUOUS
 62
     7
 10
58.526
 20
33.832
 30
0.0
 11
58.904
 21
33.454
 31
0.0
  0
LINE
  8
0
  6
CONTINUOUS
 62
     7
 10
56.888
 20
33.58
 30
0.0
 11
56.888
 21
33.832
 31
0.0
  0
LINE
  8
0
  6
CONTINUOUS
 62
     7
 10
56.384
 20
33.58
 30
0.0
 11
56.384
 21
33.832
 31
0.0
  0
LINE
  8
0
  6
CONTINUOUS
 62
     7
 10
54.431
 20
33.202
 30
0.0
 11
55.061
 21
33.832
 31
0.0
  0
LINE
  8
0
  6
CONTINUOUS
 62
     7
 10
54.431
 20
33.517
 30
0.0
 11
54.746
 21
33.832
 31
0.0
  0
LINE
  8
0
  6
CONTINUOUS
 62
     7
 10
54.683
 20
32.005
 30
0.0
 11
54.431
 21
32.005
 31
0.0
  0
CIRCLE
  8
0
  6
CONTINUOUS
 62
     7
 10
56.636
 20
31.627
 30
0.0
 40
1.953
  0
LINE
  8
0
  6
CONTINUOUS
 62
     7
 10
54.683
 20
31.249
 30
0.0
 11
54.431
 21
31.249
 31
0.0
  0
LINE
  8
0
  6
CONTINUOUS
 62
     7
 10
55.061
 20
29.422
 30
0.0
 11
54.431
 21
30.052
 31
0.0
  0
LINE
  8
0
  6
CONTINUOUS
 62
     7
 10
54.746
 20
29.422
 30
0.0
 11
54.431
 21
29.737
 31
0.0
  0
LINE
  8
0
  6
CONTINUOUS
 62
     7
 10
58.904
 20
29.422
 30
0.0
 11
54.431
 21
29.422
 31
0.0
  0
LINE
  8
0
  6
CONTINUOUS
 62
     7
 10
58.841
 20
33.832
 30
0.0
 11
58.841
 21
29.422
 31
0.0
  0
LINE
  8
0
  6
CONTINUOUS
 62
     7
 10
54.431
 20
33.832
 30
0.0
 11
54.431
 21
29.422
 31
0.0
  0
LINE
  8
0
  6
CONTINUOUS
 62
     7
 10
58.904
 20
33.832
 30
0.0
 11
54.431
 21
33.832
 31
0.0
  0
LINE
  8
0
  6
CONTINUOUS
 62
     7
 10
65.078
 20
31.249
 30
0.0
 11
65.393
 21
31.249
 31
0.0
  0
LINE
  8
0
  6
CONTINUOUS
 62
     7
 10
65.078
 20
29.422
 30
0.0
 11
65.393
 21
29.737
 31
0.0
  0
LINE
  8
0
  6
CONTINUOUS
 62
     7
 10
65.393
 20
32.005
 30
0.0
 11
65.078
 21
32.005
 31
0.0
  0
LINE
  8
0
  6
CONTINUOUS
 62
     7
 10
62.873
 20
29.674
 30
0.0
 11
62.873
 21
29.422
 31
0.0
  0
LINE
  8
0
  6
CONTINUOUS
 62
     7
 10
63.377
 20
29.674
 30
0.0
 11
63.377
 21
29.422
 31
0.0
  0
POLYLINE
  8
0
  6
CONTINUOUS
 62
     7
 66
     1
  0
VERTEX
  8
0
  6
CONTINUOUS
 62
     7
 10
61.676
 20
31.312
 30
0.0
  0
VERTEX
  8
0
  6
CONTINUOUS
 62
     7
 10
62.873
 20
31.312
 30
0.0
  0
VERTEX
  8
0
  6
CONTINUOUS
 62
     7
 10
62.873
 20
30.367
 30
0.0
  0
VERTEX
  8
0
  6
CONTINUOUS
 62
     7
 10
63.377
 20
30.367
 30
0.0
  0
VERTEX
  8
0
  6
CONTINUOUS
 62
     7
 10
63.377
 20
31.312
 30
0.0
  0
VERTEX
  8
0
  6
CONTINUOUS
 62
     7
 10
64.637
 20
31.312
 30
0.0
  0
SEQEND
  0
POLYLINE
  8
0
  6
CONTINUOUS
 62
     7
 66
     1
  0
VERTEX
  8
0
  6
CONTINUOUS
 62
     7
 10
61.676
 20
31.942
 30
0.0
  0
VERTEX
  8
0
  6
CONTINUOUS
 62
     7
 10
62.873
 20
31.942
 30
0.0
  0
VERTEX
  8
0
  6
CONTINUOUS
 62
     7
 10
62.873
 20
32.887
 30
0.0
  0
VERTEX
  8
0
  6
CONTINUOUS
 62
     7
 10
63.377
 20
32.887
 30
0.0
  0
VERTEX
  8
0
  6
CONTINUOUS
 62
     7
 10
63.377
 20
31.942
 30
0.0
  0
VERTEX
  8
0
  6
CONTINUOUS
 62
     7
 10
64.637
 20
31.942
 30
0.0
  0
SEQEND
  0
LINE
  8
0
  6
CONTINUOUS
 62
     7
 10
65.33
 20
30.052
 30
0.0
 11
64.7
 21
29.422
 31
0.0
  0
CIRCLE
  8
0
  6
CONTINUOUS
 62
     7
 10
63.125
 20
31.627
 30
0.0
 40
1.512
  0
LINE
  8
0
  6
CONTINUOUS
 62
     7
 10
64.7
 20
33.832
 30
0.0
 11
65.33
 21
33.202
 31
0.0
  0
LINE
  8
0
  6
CONTINUOUS
 62
     7
 10
65.015
 20
33.832
 30
0.0
 11
65.393
 21
33.454
 31
0.0
  0
LINE
  8
0
  6
CONTINUOUS
 62
     7
 10
63.377
 20
33.58
 30
0.0
 11
63.377
 21
33.832
 31
0.0
  0
LINE
  8
0
  6
CONTINUOUS
 62
     7
 10
62.873
 20
33.58
 30
0.0
 11
62.873
 21
33.832
 31
0.0
  0
LINE
  8
0
  6
CONTINUOUS
 62
     7
 10
60.92
 20
33.202
 30
0.0
 11
61.55
 21
33.832
 31
0.0
  0
LINE
  8
0
  6
CONTINUOUS
 62
     7
 10
60.92
 20
33.517
 30
0.0
 11
61.235
 21
33.832
 31
0.0
  0
LINE
  8
0
  6
CONTINUOUS
 62
     7
 10
61.172
 20
32.005
 30
0.0
 11
60.92
 21
32.005
 31
0.0
  0
CIRCLE
  8
0
  6
CONTINUOUS
 62
     7
 10
63.125
 20
31.627
 30
0.0
 40
1.953
  0
LINE
  8
0
  6
CONTINUOUS
 62
     7
 10
61.172
 20
31.249
 30
0.0
 11
60.92
 21
31.249
 31
0.0
  0
LINE
  8
0
  6
CONTINUOUS
 62
     7
 10
61.55
 20
29.422
 30
0.0
 11
60.92
 21
30.052
 31
0.0
  0
LINE
  8
0
  6
CONTINUOUS
 62
     7
 10
61.235
 20
29.422
 30
0.0
 11
60.92
 21
29.737
 31
0.0
  0
LINE
  8
0
  6
CONTINUOUS
 62
     7
 10
65.393
 20
29.422
 30
0.0
 11
60.92
 21
29.422
 31
0.0
  0
LINE
  8
0
  6
CONTINUOUS
 62
     7
 10
65.33
 20
33.832
 30
0.0
 11
65.33
 21
29.422
 31
0.0
  0
LINE
  8
0
  6
CONTINUOUS
 62
     7
 10
60.92
 20
33.832
 30
0.0
 11
60.92
 21
29.422
 31
0.0
  0
LINE
  8
0
  6
CONTINUOUS
 62
     7
 10
65.393
 20
33.832
 30
0.0
 11
60.92
 21
33.832
 31
0.0
  0
LINE
  8
0
  6
CONTINUOUS
 62
     7
 10
41.768
 20
31.249
 30
0.0
 11
42.083
 21
31.249
 31
0.0
  0
LINE
  8
0
  6
CONTINUOUS
 62
     7
 10
41.768
 20
29.422
 30
0.0
 11
42.083
 21
29.737
 31
0.0
  0
LINE
  8
0
  6
CONTINUOUS
 62
     7
 10
42.083
 20
32.005
 30
0.0
 11
41.768
 21
32.005
 31
0.0
  0
LINE
  8
0
  6
CONTINUOUS
 62
     7
 10
39.563
 20
29.674
 30
0.0
 11
39.563
 21
29.422
 31
0.0
  0
LINE
  8
0
  6
CONTINUOUS
 62
     7
 10
40.067
 20
29.674
 30
0.0
 11
40.067
 21
29.422
 31
0.0
  0
POLYLINE
  8
0
  6
CONTINUOUS
 62
     7
 66
     1
  0
VERTEX
  8
0
  6
CONTINUOUS
 62
     7
 10
38.366
 20
31.312
 30
0.0
  0
VERTEX
  8
0
  6
CONTINUOUS
 62
     7
 10
39.563
 20
31.312
 30
0.0
  0
VERTEX
  8
0
  6
CONTINUOUS
 62
     7
 10
39.563
 20
30.367
 30
0.0
  0
VERTEX
  8
0
  6
CONTINUOUS
 62
     7
 10
40.067
 20
30.367
 30
0.0
  0
VERTEX
  8
0
  6
CONTINUOUS
 62
     7
 10
40.067
 20
31.312
 30
0.0
  0
VERTEX
  8
0
  6
CONTINUOUS
 62
     7
 10
41.327
 20
31.312
 30
0.0
  0
SEQEND
  0
POLYLINE
  8
0
  6
CONTINUOUS
 62
     7
 66
     1
  0
VERTEX
  8
0
  6
CONTINUOUS
 62
     7
 10
38.366
 20
31.942
 30
0.0
  0
VERTEX
  8
0
  6
CONTINUOUS
 62
     7
 10
39.563
 20
31.942
 30
0.0
  0
VERTEX
  8
0
  6
CONTINUOUS
 62
     7
 10
39.563
 20
32.887
 30
0.0
  0
VERTEX
  8
0
  6
CONTINUOUS
 62
     7
 10
40.067
 20
32.887
 30
0.0
  0
VERTEX
  8
0
  6
CONTINUOUS
 62
     7
 10
40.067
 20
31.942
 30
0.0
  0
VERTEX
  8
0
  6
CONTINUOUS
 62
     7
 10
41.327
 20
31.942
 30
0.0
  0
SEQEND
  0
LINE
  8
0
  6
CONTINUOUS
 62
     7
 10
42.02
 20
30.052
 30
0.0
 11
41.39
 21
29.422
 31
0.0
  0
CIRCLE
  8
0
  6
CONTINUOUS
 62
     7
 10
39.815
 20
31.627
 30
0.0
 40
1.512
  0
LINE
  8
0
  6
CONTINUOUS
 62
     7
 10
41.39
 20
33.832
 30
0.0
 11
42.02
 21
33.202
 31
0.0
  0
LINE
  8
0
  6
CONTINUOUS
 62
     7
 10
41.705
 20
33.832
 30
0.0
 11
42.083
 21
33.454
 31
0.0
  0
LINE
  8
0
  6
CONTINUOUS
 62
     7
 10
40.067
 20
33.58
 30
0.0
 11
40.067
 21
33.832
 31
0.0
  0
LINE
  8
0
  6
CONTINUOUS
 62
     7
 10
39.563
 20
33.58
 30
0.0
 11
39.563
 21
33.832
 31
0.0
  0
LINE
  8
0
  6
CONTINUOUS
 62
     7
 10
37.61
 20
33.202
 30
0.0
 11
38.24
 21
33.832
 31
0.0
  0
LINE
  8
0
  6
CONTINUOUS
 62
     7
 10
37.61
 20
33.517
 30
0.0
 11
37.925
 21
33.832
 31
0.0
  0
LINE
  8
0
  6
CONTINUOUS
 62
     7
 10
37.862
 20
32.005
 30
0.0
 11
37.61
 21
32.005
 31
0.0
  0
CIRCLE
  8
0
  6
CONTINUOUS
 62
     7
 10
39.815
 20
31.627
 30
0.0
 40
1.953
  0
LINE
  8
0
  6
CONTINUOUS
 62
     7
 10
37.862
 20
31.249
 30
0.0
 11
37.61
 21
31.249
 31
0.0
  0
LINE
  8
0
  6
CONTINUOUS
 62
     7
 10
38.24
 20
29.422
 30
0.0
 11
37.61
 21
30.052
 31
0.0
  0
LINE
  8
0
  6
CONTINUOUS
 62
     7
 10
37.925
 20
29.422
 30
0.0
 11
37.61
 21
29.737
 31
0.0
  0
LINE
  8
0
  6
CONTINUOUS
 62
     7
 10
42.083
 20
29.422
 30
0.0
 11
37.61
 21
29.422
 31
0.0
  0
LINE
  8
0
  6
CONTINUOUS
 62
     7
 10
42.02
 20
33.832
 30
0.0
 11
42.02
 21
29.422
 31
0.0
  0
LINE
  8
0
  6
CONTINUOUS
 62
     7
 10
37.61
 20
33.832
 30
0.0
 11
37.61
 21
29.422
 31
0.0
  0
LINE
  8
0
  6
CONTINUOUS
 62
     7
 10
42.083
 20
33.832
 30
0.0
 11
37.61
 21
33.832
 31
0.0
  0
LINE
  8
0
  6
CONTINUOUS
 62
     7
 10
37.358
 20
35.848
 30
0.0
 11
37.358
 21
34.714
 31
0.0
  0
LINE
  8
0
  6
CONTINUOUS
 62
     7
 10
48.761
 20
23.5
 30
0.0
 11
48.761
 21
34.714
 31
0.0
  0
LINE
  8
0
  6
CONTINUOUS
 62
     7
 10
48.761
 20
34.714
 30
0.0
 11
43.847
 21
34.714
 31
0.0
  0
LINE
  8
0
  6
CONTINUOUS
 62
     7
 10
43.847
 20
34.714
 30
0.0
 11
43.847
 21
24.76
 31
0.0
  0
LINE
  8
0
  6
CONTINUOUS
 62
     7
 10
42.272
 20
24.76
 30
0.0
 11
42.272
 21
34.714
 31
0.0
  0
LINE
  8
0
  6
CONTINUOUS
 62
     7
 10
42.272
 20
34.714
 30
0.0
 11
37.358
 21
34.714
 31
0.0
  0
LINE
  8
0
  6
CONTINUOUS
 62
     7
 10
37.358
 20
34.714
 30
0.0
 11
37.358
 21
24.76
 31
0.0
  0
LINE
  8
0
  6
CONTINUOUS
 62
     7
 10
50.336
 20
23.5
 30
0.0
 11
48.761
 21
23.5
 31
0.0
  0
LINE
  8
0
  6
CONTINUOUS
 62
     7
 10
48.761
 20
24.76
 30
0.0
 11
35.72
 21
24.76
 31
0.0
  0
LINE
  8
0
  6
CONTINUOUS
 62
     7
 10
42.272
 20
32.824
 30
0.0
 11
43.847
 21
32.824
 31
0.0
  0
LINE
  8
0
  6
CONTINUOUS
 62
     7
 10
59.093
 20
32.824
 30
0.0
 11
60.668
 21
32.824
 31
0.0
  0
LINE
  8
0
  6
CONTINUOUS
 62
     7
 10
37.61
 20
35.848
 30
0.0
 11
36.35
 21
35.848
 31
0.0
  0
LINE
  8
0
  6
CONTINUOUS
 62
     7
 10
35.72
 20
32.824
 30
0.0
 11
37.358
 21
32.824
 31
0.0
  0
LINE
  8
0
  6
CONTINUOUS
 62
     7
 10
35.72
 20
34.588
 30
0.0
 11
37.358
 21
34.588
 31
0.0
  0
LINE
  8
0
  6
CONTINUOUS
 62
     7
 10
35.72
 20
33.958
 30
0.0
 11
37.358
 21
33.958
 31
0.0
  0
LINE
  8
0
  6
CONTINUOUS
 62
     7
 10
41.768
 20
41.455
 30
0.0
 11
42.083
 21
41.455
 31
0.0
  0
LINE
  8
0
  6
CONTINUOUS
 62
     7
 10
41.768
 20
39.628
 30
0.0
 11
42.083
 21
39.943
 31
0.0
  0
LINE
  8
0
  6
CONTINUOUS
 62
     7
 10
42.083
 20
42.211
 30
0.0
 11
41.768
 21
42.211
 31
0.0
  0
LINE
  8
0
  6
CONTINUOUS
 62
     7
 10
39.563
 20
39.88
 30
0.0
 11
39.563
 21
39.628
 31
0.0
  0
LINE
  8
0
  6
CONTINUOUS
 62
     7
 10
40.067
 20
39.88
 30
0.0
 11
40.067
 21
39.628
 31
0.0
  0
POLYLINE
  8
0
  6
CONTINUOUS
 62
     7
 66
     1
  0
VERTEX
  8
0
  6
CONTINUOUS
 62
     7
 10
38.366
 20
41.518
 30
0.0
  0
VERTEX
  8
0
  6
CONTINUOUS
 62
     7
 10
39.563
 20
41.518
 30
0.0
  0
VERTEX
  8
0
  6
CONTINUOUS
 62
     7
 10
39.563
 20
40.573
 30
0.0
  0
VERTEX
  8
0
  6
CONTINUOUS
 62
     7
 10
40.067
 20
40.573
 30
0.0
  0
VERTEX
  8
0
  6
CONTINUOUS
 62
     7
 10
40.067
 20
41.518
 30
0.0
  0
VERTEX
  8
0
  6
CONTINUOUS
 62
     7
 10
41.327
 20
41.518
 30
0.0
  0
SEQEND
  0
POLYLINE
  8
0
  6
CONTINUOUS
 62
     7
 66
     1
  0
VERTEX
  8
0
  6
CONTINUOUS
 62
     7
 10
38.366
 20
42.148
 30
0.0
  0
VERTEX
  8
0
  6
CONTINUOUS
 62
     7
 10
39.563
 20
42.148
 30
0.0
  0
VERTEX
  8
0
  6
CONTINUOUS
 62
     7
 10
39.563
 20
43.093
 30
0.0
  0
VERTEX
  8
0
  6
CONTINUOUS
 62
     7
 10
40.067
 20
43.093
 30
0.0
  0
VERTEX
  8
0
  6
CONTINUOUS
 62
     7
 10
40.067
 20
42.148
 30
0.0
  0
VERTEX
  8
0
  6
CONTINUOUS
 62
     7
 10
41.327
 20
42.148
 30
0.0
  0
SEQEND
  0
LINE
  8
0
  6
CONTINUOUS
 62
     7
 10
42.02
 20
40.258
 30
0.0
 11
41.39
 21
39.628
 31
0.0
  0
CIRCLE
  8
0
  6
CONTINUOUS
 62
     7
 10
39.815
 20
41.833
 30
0.0
 40
1.512
  0
LINE
  8
0
  6
CONTINUOUS
 62
     7
 10
41.39
 20
44.038
 30
0.0
 11
42.02
 21
43.408
 31
0.0
  0
LINE
  8
0
  6
CONTINUOUS
 62
     7
 10
41.705
 20
44.038
 30
0.0
 11
42.083
 21
43.66
 31
0.0
  0
LINE
  8
0
  6
CONTINUOUS
 62
     7
 10
40.067
 20
43.786
 30
0.0
 11
40.067
 21
44.038
 31
0.0
  0
LINE
  8
0
  6
CONTINUOUS
 62
     7
 10
39.563
 20
43.786
 30
0.0
 11
39.563
 21
44.038
 31
0.0
  0
LINE
  8
0
  6
CONTINUOUS
 62
     7
 10
37.61
 20
43.408
 30
0.0
 11
38.24
 21
44.038
 31
0.0
  0
LINE
  8
0
  6
CONTINUOUS
 62
     7
 10
37.61
 20
43.723
 30
0.0
 11
37.925
 21
44.038
 31
0.0
  0
LINE
  8
0
  6
CONTINUOUS
 62
     7
 10
37.862
 20
42.211
 30
0.0
 11
37.61
 21
42.211
 31
0.0
  0
CIRCLE
  8
0
  6
CONTINUOUS
 62
     7
 10
39.815
 20
41.833
 30
0.0
 40
1.953
  0
LINE
  8
0
  6
CONTINUOUS
 62
     7
 10
37.862
 20
41.455
 30
0.0
 11
37.61
 21
41.455
 31
0.0
  0
LINE
  8
0
  6
CONTINUOUS
 62
     7
 10
38.24
 20
39.628
 30
0.0
 11
37.61
 21
40.258
 31
0.0
  0
LINE
  8
0
  6
CONTINUOUS
 62
     7
 10
37.925
 20
39.628
 30
0.0
 11
37.61
 21
39.943
 31
0.0
  0
LINE
  8
0
  6
CONTINUOUS
 62
     7
 10
42.083
 20
39.628
 30
0.0
 11
37.61
 21
39.628
 31
0.0
  0
LINE
  8
0
  6
CONTINUOUS
 62
     7
 10
42.02
 20
44.038
 30
0.0
 11
42.02
 21
39.628
 31
0.0
  0
LINE
  8
0
  6
CONTINUOUS
 62
     7
 10
37.61
 20
44.038
 30
0.0
 11
37.61
 21
39.628
 31
0.0
  0
LINE
  8
0
  6
CONTINUOUS
 62
     7
 10
42.083
 20
44.038
 30
0.0
 11
37.61
 21
44.038
 31
0.0
  0
LINE
  8
0
  6
CONTINUOUS
 62
     7
 10
37.358
 20
37.99
 30
0.0
 11
37.358
 21
44.857
 31
0.0
  0
LINE
  8
0
  6
CONTINUOUS
 62
     7
 10
37.358
 20
38.494
 30
0.0
 11
42.272
 21
38.494
 31
0.0
  0
LINE
  8
0
  6
CONTINUOUS
 62
     7
 10
37.61
 20
37.99
 30
0.0
 11
37.61
 21
35.848
 31
0.0
  0
LINE
  8
0
  6
CONTINUOUS
 62
     7
 10
37.61
 20
37.99
 30
0.0
 11
42.272
 21
37.99
 31
0.0
  0
LINE
  8
0
  6
CONTINUOUS
 62
     7
 10
36.35
 20
35.848
 30
0.0
 11
36.35
 21
37.99
 31
0.0
  0
LINE
  8
0
  6
CONTINUOUS
 62
     7
 10
36.35
 20
37.99
 30
0.0
 11
37.61
 21
37.99
 31
0.0
  0
LINE
  8
0
  6
CONTINUOUS
 62
     7
 10
42.272
 20
34.714
 30
0.0
 11
42.272
 21
44.857
 31
0.0
  0
LINE
  8
0
  6
CONTINUOUS
 62
     7
 10
37.358
 20
44.857
 30
0.0
 11
42.272
 21
44.857
 31
0.0
  0
LINE
  8
0
  6
CONTINUOUS
 62
     7
 10
65.582
 20
34.714
 30
0.0
 11
65.582
 21
35.785
 31
0.0
  0
LINE
  8
0
  6
CONTINUOUS
 62
     7
 10
65.33
 20
35.848
 30
0.0
 11
66.59
 21
35.848
 31
0.0
  0
LINE
  8
0
  6
CONTINUOUS
 62
     7
 10
67.22
 20
32.824
 30
0.0
 11
65.582
 21
32.824
 31
0.0
  0
LINE
  8
0
  6
CONTINUOUS
 62
     7
 10
67.22
 20
34.588
 30
0.0
 11
65.582
 21
34.588
 31
0.0
  0
LINE
  8
0
  6
CONTINUOUS
 62
     7
 10
67.22
 20
33.958
 30
0.0
 11
65.582
 21
33.958
 31
0.0
  0
LINE
  8
0
  6
CONTINUOUS
 62
     7
 10
61.172
 20
41.455
 30
0.0
 11
60.857
 21
41.455
 31
0.0
  0
LINE
  8
0
  6
CONTINUOUS
 62
     7
 10
61.172
 20
39.628
 30
0.0
 11
60.857
 21
39.943
 31
0.0
  0
LINE
  8
0
  6
CONTINUOUS
 62
     7
 10
60.857
 20
42.211
 30
0.0
 11
61.172
 21
42.211
 31
0.0
  0
LINE
  8
0
  6
CONTINUOUS
 62
     7
 10
63.377
 20
39.88
 30
0.0
 11
63.377
 21
39.628
 31
0.0
  0
LINE
  8
0
  6
CONTINUOUS
 62
     7
 10
62.873
 20
39.88
 30
0.0
 11
62.873
 21
39.628
 31
0.0
  0
POLYLINE
  8
0
  6
CONTINUOUS
 62
     7
 66
     1
  0
VERTEX
  8
0
  6
CONTINUOUS
 62
     7
 10
64.574
 20
41.518
 30
0.0
  0
VERTEX
  8
0
  6
CONTINUOUS
 62
     7
 10
63.377
 20
41.518
 30
0.0
  0
VERTEX
  8
0
  6
CONTINUOUS
 62
     7
 10
63.377
 20
40.573
 30
0.0
  0
VERTEX
  8
0
  6
CONTINUOUS
 62
     7
 10
62.873
 20
40.573
 30
0.0
  0
VERTEX
  8
0
  6
CONTINUOUS
 62
     7
 10
62.873
 20
41.518
 30
0.0
  0
VERTEX
  8
0
  6
CONTINUOUS
 62
     7
 10
61.613
 20
41.518
 30
0.0
  0
SEQEND
  0
POLYLINE
  8
0
  6
CONTINUOUS
 62
     7
 66
     1
  0
VERTEX
  8
0
  6
CONTINUOUS
 62
     7
 10
64.574
 20
42.148
 30
0.0
  0
VERTEX
  8
0
  6
CONTINUOUS
 62
     7
 10
63.377
 20
42.148
 30
0.0
  0
VERTEX
  8
0
  6
CONTINUOUS
 62
     7
 10
63.377
 20
43.093
 30
0.0
  0
VERTEX
  8
0
  6
CONTINUOUS
 62
     7
 10
62.873
 20
43.093
 30
0.0
  0
VERTEX
  8
0
  6
CONTINUOUS
 62
     7
 10
62.873
 20
42.148
 30
0.0
  0
VERTEX
  8
0
  6
CONTINUOUS
 62
     7
 10
61.613
 20
42.148
 30
0.0
  0
SEQEND
  0
LINE
  8
0
  6
CONTINUOUS
 62
     7
 10
60.92
 20
40.258
 30
0.0
 11
61.55
 21
39.628
 31
0.0
  0
POLYLINE
  8
0
  6
CONTINUOUS
 62
     7
 66
     1
 70
     1
  0
VERTEX
  8
0
  6
CONTINUOUS
 62
     7
 10
61.613
 20
41.833
 30
0.0
  0
VERTEX
  8
0
  6
CONTINUOUS
 62
     7
 10
61.635995
 20
42.095584
 30
0.0
  0
VERTEX
  8
0
  6
CONTINUOUS
 62
     7
 10
61.704161
 20
42.350104
 30
0.0
  0
VERTEX
  8
0
  6
CONTINUOUS
 62
     7
 10
61.815545
 20
42.589
 30
0.0
  0
VERTEX
  8
0
  6
CONTINUOUS
 62
     7
 10
61.966745
 20
42.804901
 30
0.0
  0
VERTEX
  8
0
  6
CONTINUOUS
 62
     7
 10
62.153099
 20
42.991255
 30
0.0
  0
VERTEX
  8
0
  6
CONTINUOUS
 62
     7
 10
62.369
 20
43.142455
 30
0.0
  0
VERTEX
  8
0
  6
CONTINUOUS
 62
     7
 10
62.607896
 20
43.253839
 30
0.0
  0
VERTEX
  8
0
  6
CONTINUOUS
 62
     7
 10
62.862416
 20
43.322005
 30
0.0
  0
VERTEX
  8
0
  6
CONTINUOUS
 62
     7
 10
63.125
 20
43.345
 30
0.0
  0
VERTEX
  8
0
  6
CONTINUOUS
 62
     7
 10
63.387584
 20
43.322005
 30
0.0
  0
VERTEX
  8
0
  6
CONTINUOUS
 62
     7
 10
63.642104
 20
43.253839
 30
0.0
  0
VERTEX
  8
0
  6
CONTINUOUS
 62
     7
 10
63.881
 20
43.142455
 30
0.0
  0
VERTEX
  8
0
  6
CONTINUOUS
 62
     7
 10
64.096901
 20
42.991255
 30
0.0
  0
VERTEX
  8
0
  6
CONTINUOUS
 62
     7
 10
64.283255
 20
42.804901
 30
0.0
  0
VERTEX
  8
0
  6
CONTINUOUS
 62
     7
 10
64.434455
 20
42.589
 30
0.0
  0
VERTEX
  8
0
  6
CONTINUOUS
 62
     7
 10
64.545839
 20
42.350104
 30
0.0
  0
VERTEX
  8
0
  6
CONTINUOUS
 62
     7
 10
64.614005
 20
42.095584
 30
0.0
  0
VERTEX
  8
0
  6
CONTINUOUS
 62
     7
 10
64.637
 20
41.833
 30
0.0
  0
VERTEX
  8
0
  6
CONTINUOUS
 62
     7
 10
64.614005
 20
41.570416
 30
0.0
  0
VERTEX
  8
0
  6
CONTINUOUS
 62
     7
 10
64.545839
 20
41.315896
 30
0.0
  0
VERTEX
  8
0
  6
CONTINUOUS
 62
     7
 10
64.434455
 20
41.077
 30
0.0
  0
VERTEX
  8
0
  6
CONTINUOUS
 62
     7
 10
64.283255
 20
40.861099
 30
0.0
  0
VERTEX
  8
0
  6
CONTINUOUS
 62
     7
 10
64.096901
 20
40.674745
 30
0.0
  0
VERTEX
  8
0
  6
CONTINUOUS
 62
     7
 10
63.881
 20
40.523545
 30
0.0
  0
VERTEX
  8
0
  6
CONTINUOUS
 62
     7
 10
63.642104
 20
40.412161
 30
0.0
  0
VERTEX
  8
0
  6
CONTINUOUS
 62
     7
 10
63.387584
 20
40.343995
 30
0.0
  0
VERTEX
  8
0
  6
CONTINUOUS
 62
     7
 10
63.125
 20
40.321
 30
0.0
  0
VERTEX
  8
0
  6
CONTINUOUS
 62
     7
 10
62.862416
 20
40.343995
 30
0.0
  0
VERTEX
  8
0
  6
CONTINUOUS
 62
     7
 10
62.607896
 20
40.412161
 30
0.0
  0
VERTEX
  8
0
  6
CONTINUOUS
 62
     7
 10
62.369
 20
40.523545
 30
0.0
  0
VERTEX
  8
0
  6
CONTINUOUS
 62
     7
 10
62.153099
 20
40.674745
 30
0.0
  0
VERTEX
  8
0
  6
CONTINUOUS
 62
     7
 10
61.966745
 20
40.861099
 30
0.0
  0
VERTEX
  8
0
  6
CONTINUOUS
 62
     7
 10
61.815545
 20
41.077
 30
0.0
  0
VERTEX
  8
0
  6
CONTINUOUS
 62
     7
 10
61.704161
 20
41.315896
 30
0.0
  0
VERTEX
  8
0
  6
CONTINUOUS
 62
     7
 10
61.635995
 20
41.570416
 30
0.0
  0
SEQEND
  0
LINE
  8
0
  6
CONTINUOUS
 62
     7
 10
61.55
 20
44.038
 30
0.0
 11
60.92
 21
43.408
 31
0.0
  0
LINE
  8
0
  6
CONTINUOUS
 62
     7
 10
61.235
 20
44.038
 30
0.0
 11
60.857
 21
43.66
 31
0.0
  0
LINE
  8
0
  6
CONTINUOUS
 62
     7
 10
62.873
 20
43.786
 30
0.0
 11
62.873
 21
44.038
 31
0.0
  0
LINE
  8
0
  6
CONTINUOUS
 62
     7
 10
63.377
 20
43.786
 30
0.0
 11
63.377
 21
44.038
 31
0.0
  0
LINE
  8
0
  6
CONTINUOUS
 62
     7
 10
65.33
 20
43.408
 30
0.0
 11
64.7
 21
44.038
 31
0.0
  0
LINE
  8
0
  6
CONTINUOUS
 62
     7
 10
65.33
 20
43.723
 30
0.0
 11
65.015
 21
44.038
 31
0.0
  0
LINE
  8
0
  6
CONTINUOUS
 62
     7
 10
65.078
 20
42.211
 30
0.0
 11
65.33
 21
42.211
 31
0.0
  0
POLYLINE
  8
0
  6
CONTINUOUS
 62
     7
 66
     1
 70
     1
  0
VERTEX
  8
0
  6
CONTINUOUS
 62
     7
 10
61.172
 20
41.833
 30
0.0
  0
VERTEX
  8
0
  6
CONTINUOUS
 62
     7
 10
61.201673
 20
42.172129
 30
0.0
  0
VERTEX
  8
0
  6
CONTINUOUS
 62
     7
 10
61.28981
 20
42.500989
 30
0.0
  0
VERTEX
  8
0
  6
CONTINUOUS
 62
     7
 10
61.433639
 20
42.8095
 30
0.0
  0
VERTEX
  8
0
  6
CONTINUOUS
 62
     7
 10
61.628939
 20
43.088338
 30
0.0
  0
VERTEX
  8
0
  6
CONTINUOUS
 62
     7
 10
61.869662
 20
43.329061
 30
0.0
  0
VERTEX
  8
0
  6
CONTINUOUS
 62
     7
 10
62.1485
 20
43.524361
 30
0.0
  0
VERTEX
  8
0
  6
CONTINUOUS
 62
     7
 10
62.457011
 20
43.66819
 30
0.0
  0
VERTEX
  8
0
  6
CONTINUOUS
 62
     7
 10
62.785871
 20
43.756327
 30
0.0
  0
VERTEX
  8
0
  6
CONTINUOUS
 62
     7
 10
63.125
 20
43.786
 30
0.0
  0
VERTEX
  8
0
  6
CONTINUOUS
 62
     7
 10
63.464129
 20
43.756327
 30
0.0
  0
VERTEX
  8
0
  6
CONTINUOUS
 62
     7
 10
63.792989
 20
43.66819
 30
0.0
  0
VERTEX
  8
0
  6
CONTINUOUS
 62
     7
 10
64.1015
 20
43.524361
 30
0.0
  0
VERTEX
  8
0
  6
CONTINUOUS
 62
     7
 10
64.380338
 20
43.329061
 30
0.0
  0
VERTEX
  8
0
  6
CONTINUOUS
 62
     7
 10
64.621061
 20
43.088338
 30
0.0
  0
VERTEX
  8
0
  6
CONTINUOUS
 62
     7
 10
64.816361
 20
42.8095
 30
0.0
  0
VERTEX
  8
0
  6
CONTINUOUS
 62
     7
 10
64.96019
 20
42.500989
 30
0.0
  0
VERTEX
  8
0
  6
CONTINUOUS
 62
     7
 10
65.048327
 20
42.172129
 30
0.0
  0
VERTEX
  8
0
  6
CONTINUOUS
 62
     7
 10
65.078
 20
41.833
 30
0.0
  0
VERTEX
  8
0
  6
CONTINUOUS
 62
     7
 10
65.048327
 20
41.493871
 30
0.0
  0
VERTEX
  8
0
  6
CONTINUOUS
 62
     7
 10
64.96019
 20
41.165011
 30
0.0
  0
VERTEX
  8
0
  6
CONTINUOUS
 62
     7
 10
64.816361
 20
40.8565
 30
0.0
  0
VERTEX
  8
0
  6
CONTINUOUS
 62
     7
 10
64.621061
 20
40.577662
 30
0.0
  0
VERTEX
  8
0
  6
CONTINUOUS
 62
     7
 10
64.380338
 20
40.336939
 30
0.0
  0
VERTEX
  8
0
  6
CONTINUOUS
 62
     7
 10
64.1015
 20
40.141639
 30
0.0
  0
VERTEX
  8
0
  6
CONTINUOUS
 62
     7
 10
63.792989
 20
39.99781
 30
0.0
  0
VERTEX
  8
0
  6
CONTINUOUS
 62
     7
 10
63.464129
 20
39.909673
 30
0.0
  0
VERTEX
  8
0
  6
CONTINUOUS
 62
     7
 10
63.125
 20
39.88
 30
0.0
  0
VERTEX
  8
0
  6
CONTINUOUS
 62
     7
 10
62.785871
 20
39.909673
 30
0.0
  0
VERTEX
  8
0
  6
CONTINUOUS
 62
     7
 10
62.457011
 20
39.99781
 30
0.0
  0
VERTEX
  8
0
  6
CONTINUOUS
 62
     7
 10
62.1485
 20
40.141639
 30
0.0
  0
VERTEX
  8
0
  6
CONTINUOUS
 62
     7
 10
61.869662
 20
40.336939
 30
0.0
  0
VERTEX
  8
0
  6
CONTINUOUS
 62
     7
 10
61.628939
 20
40.577662
 30
0.0
  0
VERTEX
  8
0
  6
CONTINUOUS
 62
     7
 10
61.433639
 20
40.8565
 30
0.0
  0
VERTEX
  8
0
  6
CONTINUOUS
 62
     7
 10
61.28981
 20
41.165011
 30
0.0
  0
VERTEX
  8
0
  6
CONTINUOUS
 62
     7
 10
61.201673
 20
41.493871
 30
0.0
  0
SEQEND
  0
LINE
  8
0
  6
CONTINUOUS
 62
     7
 10
65.078
 20
41.455
 30
0.0
 11
65.33
 21
41.455
 31
0.0
  0
LINE
  8
0
  6
CONTINUOUS
 62
     7
 10
64.7
 20
39.628
 30
0.0
 11
65.33
 21
40.258
 31
0.0
  0
LINE
  8
0
  6
CONTINUOUS
 62
     7
 10
65.015
 20
39.628
 30
0.0
 11
65.33
 21
39.943
 31
0.0
  0
LINE
  8
0
  6
CONTINUOUS
 62
     7
 10
60.857
 20
39.628
 30
0.0
 11
65.33
 21
39.628
 31
0.0
  0
LINE
  8
0
  6
CONTINUOUS
 62
     7
 10
60.92
 20
44.038
 30
0.0
 11
60.92
 21
39.628
 31
0.0
  0
LINE
  8
0
  6
CONTINUOUS
 62
     7
 10
65.33
 20
44.038
 30
0.0
 11
65.33
 21
39.628
 31
0.0
  0
LINE
  8
0
  6
CONTINUOUS
 62
     7
 10
60.857
 20
44.038
 30
0.0
 11
65.33
 21
44.038
 31
0.0
  0
LINE
  8
0
  6
CONTINUOUS
 62
     7
 10
65.582
 20
37.99
 30
0.0
 11
65.582
 21
44.857
 31
0.0
  0
LINE
  8
0
  6
CONTINUOUS
 62
     7
 10
65.582
 20
38.494
 30
0.0
 11
60.668
 21
38.494
 31
0.0
  0
LINE
  8
0
  6
CONTINUOUS
 62
     7
 10
65.33
 20
37.99
 30
0.0
 11
65.33
 21
35.848
 31
0.0
  0
LINE
  8
0
  6
CONTINUOUS
 62
     7
 10
65.33
 20
37.99
 30
0.0
 11
60.668
 21
37.99
 31
0.0
  0
LINE
  8
0
  6
CONTINUOUS
 62
     7
 10
66.59
 20
35.848
 30
0.0
 11
66.59
 21
37.99
 31
0.0
  0
LINE
  8
0
  6
CONTINUOUS
 62
     7
 10
66.59
 20
37.99
 30
0.0
 11
65.33
 21
37.99
 31
0.0
  0
LINE
  8
0
  6
CONTINUOUS
 62
     7
 10
60.668
 20
34.714
 30
0.0
 11
60.668
 21
44.857
 31
0.0
  0
LINE
  8
0
  6
CONTINUOUS
 62
     7
 10
65.582
 20
44.857
 30
0.0
 11
60.668
 21
44.857
 31
0.0
  0
LINE
  8
0
  6
CONTINUOUS
 62
     7
 10
65.582
 20
62.686
 30
0.0
 11
65.582
 21
61.552
 31
0.0
  0
LINE
  8
0
  6
CONTINUOUS
 62
     7
 10
65.33
 20
61.552
 30
0.0
 11
66.59
 21
61.552
 31
0.0
  0
LINE
  8
0
  6
CONTINUOUS
 62
     7
 10
67.22
 20
64.576
 30
0.0
 11
65.582
 21
64.576
 31
0.0
  0
LINE
  8
0
  6
CONTINUOUS
 62
     7
 10
67.22
 20
62.812
 30
0.0
 11
65.582
 21
62.812
 31
0.0
  0
LINE
  8
0
  6
CONTINUOUS
 62
     7
 10
67.22
 20
63.442
 30
0.0
 11
65.582
 21
63.442
 31
0.0
  0
LINE
  8
0
  6
CONTINUOUS
 62
     7
 10
61.172
 20
55.945
 30
0.0
 11
60.857
 21
55.945
 31
0.0
  0
LINE
  8
0
  6
CONTINUOUS
 62
     7
 10
61.172
 20
57.772
 30
0.0
 11
60.857
 21
57.457
 31
0.0
  0
LINE
  8
0
  6
CONTINUOUS
 62
     7
 10
60.857
 20
55.189
 30
0.0
 11
61.172
 21
55.189
 31
0.0
  0
LINE
  8
0
  6
CONTINUOUS
 62
     7
 10
63.377
 20
57.52
 30
0.0
 11
63.377
 21
57.772
 31
0.0
  0
LINE
  8
0
  6
CONTINUOUS
 62
     7
 10
62.873
 20
57.52
 30
0.0
 11
62.873
 21
57.772
 31
0.0
  0
POLYLINE
  8
0
  6
CONTINUOUS
 62
     7
 66
     1
  0
VERTEX
  8
0
  6
CONTINUOUS
 62
     7
 10
64.574
 20
55.882
 30
0.0
  0
VERTEX
  8
0
  6
CONTINUOUS
 62
     7
 10
63.377
 20
55.882
 30
0.0
  0
VERTEX
  8
0
  6
CONTINUOUS
 62
     7
 10
63.377
 20
56.827
 30
0.0
  0
VERTEX
  8
0
  6
CONTINUOUS
 62
     7
 10
62.873
 20
56.827
 30
0.0
  0
VERTEX
  8
0
  6
CONTINUOUS
 62
     7
 10
62.873
 20
55.882
 30
0.0
  0
VERTEX
  8
0
  6
CONTINUOUS
 62
     7
 10
61.613
 20
55.882
 30
0.0
  0
SEQEND
  0
POLYLINE
  8
0
  6
CONTINUOUS
 62
     7
 66
     1
  0
VERTEX
  8
0
  6
CONTINUOUS
 62
     7
 10
64.574
 20
55.252
 30
0.0
  0
VERTEX
  8
0
  6
CONTINUOUS
 62
     7
 10
63.377
 20
55.252
 30
0.0
  0
VERTEX
  8
0
  6
CONTINUOUS
 62
     7
 10
63.377
 20
54.307
 30
0.0
  0
VERTEX
  8
0
  6
CONTINUOUS
 62
     7
 10
62.873
 20
54.307
 30
0.0
  0
VERTEX
  8
0
  6
CONTINUOUS
 62
     7
 10
62.873
 20
55.252
 30
0.0
  0
VERTEX
  8
0
  6
CONTINUOUS
 62
     7
 10
61.613
 20
55.252
 30
0.0
  0
SEQEND
  0
LINE
  8
0
  6
CONTINUOUS
 62
     7
 10
60.92
 20
57.142
 30
0.0
 11
61.55
 21
57.772
 31
0.0
  0
POLYLINE
  8
0
  6
CONTINUOUS
 62
     7
 66
     1
 70
     1
  0
VERTEX
  8
0
  6
CONTINUOUS
 62
     7
 10
61.613
 20
55.567
 30
0.0
  0
VERTEX
  8
0
  6
CONTINUOUS
 62
     7
 10
61.635995
 20
55.304416
 30
0.0
  0
VERTEX
  8
0
  6
CONTINUOUS
 62
     7
 10
61.704161
 20
55.049896
 30
0.0
  0
VERTEX
  8
0
  6
CONTINUOUS
 62
     7
 10
61.815545
 20
54.811
 30
0.0
  0
VERTEX
  8
0
  6
CONTINUOUS
 62
     7
 10
61.966745
 20
54.595099
 30
0.0
  0
VERTEX
  8
0
  6
CONTINUOUS
 62
     7
 10
62.153099
 20
54.408745
 30
0.0
  0
VERTEX
  8
0
  6
CONTINUOUS
 62
     7
 10
62.369
 20
54.257545
 30
0.0
  0
VERTEX
  8
0
  6
CONTINUOUS
 62
     7
 10
62.607896
 20
54.146161
 30
0.0
  0
VERTEX
  8
0
  6
CONTINUOUS
 62
     7
 10
62.862416
 20
54.077995
 30
0.0
  0
VERTEX
  8
0
  6
CONTINUOUS
 62
     7
 10
63.125
 20
54.055
 30
0.0
  0
VERTEX
  8
0
  6
CONTINUOUS
 62
     7
 10
63.387584
 20
54.077995
 30
0.0
  0
VERTEX
  8
0
  6
CONTINUOUS
 62
     7
 10
63.642104
 20
54.146161
 30
0.0
  0
VERTEX
  8
0
  6
CONTINUOUS
 62
     7
 10
63.881
 20
54.257545
 30
0.0
  0
VERTEX
  8
0
  6
CONTINUOUS
 62
     7
 10
64.096901
 20
54.408745
 30
0.0
  0
VERTEX
  8
0
  6
CONTINUOUS
 62
     7
 10
64.283255
 20
54.595099
 30
0.0
  0
VERTEX
  8
0
  6
CONTINUOUS
 62
     7
 10
64.434455
 20
54.811
 30
0.0
  0
VERTEX
  8
0
  6
CONTINUOUS
 62
     7
 10
64.545839
 20
55.049896
 30
0.0
  0
VERTEX
  8
0
  6
CONTINUOUS
 62
     7
 10
64.614005
 20
55.304416
 30
0.0
  0
VERTEX
  8
0
  6
CONTINUOUS
 62
     7
 10
64.637
 20
55.567
 30
0.0
  0
VERTEX
  8
0
  6
CONTINUOUS
 62
     7
 10
64.614005
 20
55.829584
 30
0.0
  0
VERTEX
  8
0
  6
CONTINUOUS
 62
     7
 10
64.545839
 20
56.084104
 30
0.0
  0
VERTEX
  8
0
  6
CONTINUOUS
 62
     7
 10
64.434455
 20
56.323
 30
0.0
  0
VERTEX
  8
0
  6
CONTINUOUS
 62
     7
 10
64.283255
 20
56.538901
 30
0.0
  0
VERTEX
  8
0
  6
CONTINUOUS
 62
     7
 10
64.096901
 20
56.725255
 30
0.0
  0
VERTEX
  8
0
  6
CONTINUOUS
 62
     7
 10
63.881
 20
56.876455
 30
0.0
  0
VERTEX
  8
0
  6
CONTINUOUS
 62
     7
 10
63.642104
 20
56.987839
 30
0.0
  0
VERTEX
  8
0
  6
CONTINUOUS
 62
     7
 10
63.387584
 20
57.056005
 30
0.0
  0
VERTEX
  8
0
  6
CONTINUOUS
 62
     7
 10
63.125
 20
57.079
 30
0.0
  0
VERTEX
  8
0
  6
CONTINUOUS
 62
     7
 10
62.862416
 20
57.056005
 30
0.0
  0
VERTEX
  8
0
  6
CONTINUOUS
 62
     7
 10
62.607896
 20
56.987839
 30
0.0
  0
VERTEX
  8
0
  6
CONTINUOUS
 62
     7
 10
62.369
 20
56.876455
 30
0.0
  0
VERTEX
  8
0
  6
CONTINUOUS
 62
     7
 10
62.153099
 20
56.725255
 30
0.0
  0
VERTEX
  8
0
  6
CONTINUOUS
 62
     7
 10
61.966745
 20
56.538901
 30
0.0
  0
VERTEX
  8
0
  6
CONTINUOUS
 62
     7
 10
61.815545
 20
56.323
 30
0.0
  0
VERTEX
  8
0
  6
CONTINUOUS
 62
     7
 10
61.704161
 20
56.084104
 30
0.0
  0
VERTEX
  8
0
  6
CONTINUOUS
 62
     7
 10
61.635995
 20
55.829584
 30
0.0
  0
SEQEND
  0
LINE
  8
0
  6
CONTINUOUS
 62
     7
 10
61.55
 20
53.362
 30
0.0
 11
60.92
 21
53.992
 31
0.0
  0
LINE
  8
0
  6
CONTINUOUS
 62
     7
 10
61.235
 20
53.362
 30
0.0
 11
60.857
 21
53.74
 31
0.0
  0
LINE
  8
0
  6
CONTINUOUS
 62
     7
 10
62.873
 20
53.614
 30
0.0
 11
62.873
 21
53.362
 31
0.0
  0
LINE
  8
0
  6
CONTINUOUS
 62
     7
 10
63.377
 20
53.614
 30
0.0
 11
63.377
 21
53.362
 31
0.0
  0
LINE
  8
0
  6
CONTINUOUS
 62
     7
 10
65.33
 20
53.992
 30
0.0
 11
64.7
 21
53.362
 31
0.0
  0
LINE
  8
0
  6
CONTINUOUS
 62
     7
 10
65.33
 20
53.677
 30
0.0
 11
65.015
 21
53.362
 31
0.0
  0
LINE
  8
0
  6
CONTINUOUS
 62
     7
 10
65.078
 20
55.189
 30
0.0
 11
65.33
 21
55.189
 31
0.0
  0
POLYLINE
  8
0
  6
CONTINUOUS
 62
     7
 66
     1
 70
     1
  0
VERTEX
  8
0
  6
CONTINUOUS
 62
     7
 10
61.172
 20
55.567
 30
0.0
  0
VERTEX
  8
0
  6
CONTINUOUS
 62
     7
 10
61.201673
 20
55.227871
 30
0.0
  0
VERTEX
  8
0
  6
CONTINUOUS
 62
     7
 10
61.28981
 20
54.899011
 30
0.0
  0
VERTEX
  8
0
  6
CONTINUOUS
 62
     7
 10
61.433639
 20
54.5905
 30
0.0
  0
VERTEX
  8
0
  6
CONTINUOUS
 62
     7
 10
61.628939
 20
54.311662
 30
0.0
  0
VERTEX
  8
0
  6
CONTINUOUS
 62
     7
 10
61.869662
 20
54.070939
 30
0.0
  0
VERTEX
  8
0
  6
CONTINUOUS
 62
     7
 10
62.1485
 20
53.875639
 30
0.0
  0
VERTEX
  8
0
  6
CONTINUOUS
 62
     7
 10
62.457011
 20
53.73181
 30
0.0
  0
VERTEX
  8
0
  6
CONTINUOUS
 62
     7
 10
62.785871
 20
53.643673
 30
0.0
  0
VERTEX
  8
0
  6
CONTINUOUS
 62
     7
 10
63.125
 20
53.614
 30
0.0
  0
VERTEX
  8
0
  6
CONTINUOUS
 62
     7
 10
63.464129
 20
53.643673
 30
0.0
  0
VERTEX
  8
0
  6
CONTINUOUS
 62
     7
 10
63.792989
 20
53.73181
 30
0.0
  0
VERTEX
  8
0
  6
CONTINUOUS
 62
     7
 10
64.1015
 20
53.875639
 30
0.0
  0
VERTEX
  8
0
  6
CONTINUOUS
 62
     7
 10
64.380338
 20
54.070939
 30
0.0
  0
VERTEX
  8
0
  6
CONTINUOUS
 62
     7
 10
64.621061
 20
54.311662
 30
0.0
  0
VERTEX
  8
0
  6
CONTINUOUS
 62
     7
 10
64.816361
 20
54.5905
 30
0.0
  0
VERTEX
  8
0
  6
CONTINUOUS
 62
     7
 10
64.96019
 20
54.899011
 30
0.0
  0
VERTEX
  8
0
  6
CONTINUOUS
 62
     7
 10
65.048327
 20
55.227871
 30
0.0
  0
VERTEX
  8
0
  6
CONTINUOUS
 62
     7
 10
65.078
 20
55.567
 30
0.0
  0
VERTEX
  8
0
  6
CONTINUOUS
 62
     7
 10
65.048327
 20
55.906129
 30
0.0
  0
VERTEX
  8
0
  6
CONTINUOUS
 62
     7
 10
64.96019
 20
56.234989
 30
0.0
  0
VERTEX
  8
0
  6
CONTINUOUS
 62
     7
 10
64.816361
 20
56.5435
 30
0.0
  0
VERTEX
  8
0
  6
CONTINUOUS
 62
     7
 10
64.621061
 20
56.822338
 30
0.0
  0
VERTEX
  8
0
  6
CONTINUOUS
 62
     7
 10
64.380338
 20
57.063061
 30
0.0
  0
VERTEX
  8
0
  6
CONTINUOUS
 62
     7
 10
64.1015
 20
57.258361
 30
0.0
  0
VERTEX
  8
0
  6
CONTINUOUS
 62
     7
 10
63.792989
 20
57.40219
 30
0.0
  0
VERTEX
  8
0
  6
CONTINUOUS
 62
     7
 10
63.464129
 20
57.490327
 30
0.0
  0
VERTEX
  8
0
  6
CONTINUOUS
 62
     7
 10
63.125
 20
57.52
 30
0.0
  0
VERTEX
  8
0
  6
CONTINUOUS
 62
     7
 10
62.785871
 20
57.490327
 30
0.0
  0
VERTEX
  8
0
  6
CONTINUOUS
 62
     7
 10
62.457011
 20
57.40219
 30
0.0
  0
VERTEX
  8
0
  6
CONTINUOUS
 62
     7
 10
62.1485
 20
57.258361
 30
0.0
  0
VERTEX
  8
0
  6
CONTINUOUS
 62
     7
 10
61.869662
 20
57.063061
 30
0.0
  0
VERTEX
  8
0
  6
CONTINUOUS
 62
     7
 10
61.628939
 20
56.822338
 30
0.0
  0
VERTEX
  8
0
  6
CONTINUOUS
 62
     7
 10
61.433639
 20
56.5435
 30
0.0
  0
VERTEX
  8
0
  6
CONTINUOUS
 62
     7
 10
61.28981
 20
56.234989
 30
0.0
  0
VERTEX
  8
0
  6
CONTINUOUS
 62
     7
 10
61.201673
 20
55.906129
 30
0.0
  0
SEQEND
  0
LINE
  8
0
  6
CONTINUOUS
 62
     7
 10
65.078
 20
55.945
 30
0.0
 11
65.33
 21
55.945
 31
0.0
  0
LINE
  8
0
  6
CONTINUOUS
 62
     7
 10
64.7
 20
57.772
 30
0.0
 11
65.33
 21
57.142
 31
0.0
  0
LINE
  8
0
  6
CONTINUOUS
 62
     7
 10
65.015
 20
57.772
 30
0.0
 11
65.33
 21
57.457
 31
0.0
  0
LINE
  8
0
  6
CONTINUOUS
 62
     7
 10
60.857
 20
57.772
 30
0.0
 11
65.33
 21
57.772
 31
0.0
  0
LINE
  8
0
  6
CONTINUOUS
 62
     7
 10
60.92
 20
53.362
 30
0.0
 11
60.92
 21
57.772
 31
0.0
  0
LINE
  8
0
  6
CONTINUOUS
 62
     7
 10
65.33
 20
53.362
 30
0.0
 11
65.33
 21
57.772
 31
0.0
  0
LINE
  8
0
  6
CONTINUOUS
 62
     7
 10
60.857
 20
53.362
 30
0.0
 11
65.33
 21
53.362
 31
0.0
  0
LINE
  8
0
  6
CONTINUOUS
 62
     7
 10
65.582
 20
59.41
 30
0.0
 11
65.582
 21
52.543
 31
0.0
  0
LINE
  8
0
  6
CONTINUOUS
 62
     7
 10
65.582
 20
58.906
 30
0.0
 11
60.668
 21
58.906
 31
0.0
  0
LINE
  8
0
  6
CONTINUOUS
 62
     7
 10
65.33
 20
59.41
 30
0.0
 11
65.33
 21
61.552
 31
0.0
  0
LINE
  8
0
  6
CONTINUOUS
 62
     7
 10
65.33
 20
59.41
 30
0.0
 11
60.668
 21
59.41
 31
0.0
  0
LINE
  8
0
  6
CONTINUOUS
 62
     7
 10
66.59
 20
61.552
 30
0.0
 11
66.59
 21
59.41
 31
0.0
  0
LINE
  8
0
  6
CONTINUOUS
 62
     7
 10
66.59
 20
59.41
 30
0.0
 11
65.33
 21
59.41
 31
0.0
  0
LINE
  8
0
  6
CONTINUOUS
 62
     7
 10
60.668
 20
62.686
 30
0.0
 11
60.668
 21
52.543
 31
0.0
  0
LINE
  8
0
  6
CONTINUOUS
 62
     7
 10
65.582
 20
52.543
 30
0.0
 11
60.668
 21
52.543
 31
0.0
  0
LINE
  8
0
  6
CONTINUOUS
 62
     7
 10
37.358
 20
62.686
 30
0.0
 11
37.358
 21
61.552
 31
0.0
  0
LINE
  8
0
  6
CONTINUOUS
 62
     7
 10
37.61
 20
61.552
 30
0.0
 11
36.35
 21
61.552
 31
0.0
  0
LINE
  8
0
  6
CONTINUOUS
 62
     7
 10
35.72
 20
64.576
 30
0.0
 11
37.358
 21
64.576
 31
0.0
  0
LINE
  8
0
  6
CONTINUOUS
 62
     7
 10
35.72
 20
62.812
 30
0.0
 11
37.358
 21
62.812
 31
0.0
  0
LINE
  8
0
  6
CONTINUOUS
 62
     7
 10
35.72
 20
63.442
 30
0.0
 11
37.358
 21
63.442
 31
0.0
  0
LINE
  8
0
  6
CONTINUOUS
 62
     7
 10
37.61
 20
59.41
 30
0.0
 11
37.61
 21
61.552
 31
0.0
  0
LINE
  8
0
  6
CONTINUOUS
 62
     7
 10
36.35
 20
61.552
 30
0.0
 11
36.35
 21
59.41
 31
0.0
  0
LINE
  8
0
  6
CONTINUOUS
 62
     7
 10
36.35
 20
59.41
 30
0.0
 11
37.61
 21
59.41
 31
0.0
  0
LINE
  8
0
  6
CONTINUOUS
 62
     7
 10
37.358
 20
58.402
 30
0.0
 11
35.72
 21
58.402
 31
0.0
  0
LINE
  8
0
  6
CONTINUOUS
 62
     7
 10
37.358
 20
59.41
 30
0.0
 11
37.358
 21
58.402
 31
0.0
  0
LINE
  8
0
  6
CONTINUOUS
 62
     7
 10
35.72
 20
38.998
 30
0.0
 11
37.358
 21
38.998
 31
0.0
  0
LINE
  8
0
  6
CONTINUOUS
 62
     7
 10
67.22
 20
38.998
 30
0.0
 11
65.582
 21
38.998
 31
0.0
  0
LINE
  8
0
  6
CONTINUOUS
 62
     7
 10
65.582
 20
58.402
 30
0.0
 11
67.22
 21
58.402
 31
0.0
  0
LINE
  8
0
  6
CONTINUOUS
 62
     7
 10
60.668
 20
64.576
 30
0.0
 11
59.093
 21
64.576
 31
0.0
  0
LINE
  8
0
  6
CONTINUOUS
 62
     7
 10
42.272
 20
64.576
 30
0.0
 11
43.847
 21
64.576
 31
0.0
  0
TEXT
  8
0
  6
CONTINUOUS
 62
     7
 10
59.345
 20
26.02
 30
0.0
 40
1.89
  1
１
 50
0.0
 41
0.666
 51
0.0
  7
KANJI2
  0
TEXT
  8
0
  6
CONTINUOUS
 62
     7
 10
65.96
 20
26.02
 30
0.0
 40
1.89
  1
２
 50
0.0
 41
0.666
 51
0.0
  7
KANJI2
  0
TEXT
  8
0
  6
CONTINUOUS
 62
     7
 10
65.96
 20
40.825
 30
0.0
 40
1.89
  1
３
 50
0.0
 41
0.666
 51
0.0
  7
KANJI2
  0
TEXT
  8
0
  6
CONTINUOUS
 62
     7
 10
65.96
 20
55.0
 30
0.0
 40
1.89
  1
４
 50
0.0
 41
0.666
 51
0.0
  7
KANJI2
  0
TEXT
  8
0
  6
CONTINUOUS
 62
     7
 10
65.96
 20
69.49
 30
0.0
 40
1.89
  1
５
 50
0.0
 41
0.666
 51
0.0
  7
KANJI2
  0
TEXT
  8
0
  6
CONTINUOUS
 62
     7
 10
59.345
 20
69.49
 30
0.0
 40
1.89
  1
６
 50
0.0
 41
0.666
 51
0.0
  7
KANJI2
  0
TEXT
  8
0
  6
CONTINUOUS
 62
     7
 10
36.035
 20
69.49
 30
0.0
 40
1.89
  1
８
 50
0.0
 41
0.666
 51
0.0
  7
KANJI2
  0
TEXT
  8
0
  6
CONTINUOUS
 62
     7
 10
42.65
 20
69.49
 30
0.0
 40
1.89
  1
７
 50
0.0
 41
0.666
 51
0.0
  7
KANJI2
  0
TEXT
  8
0
  6
CONTINUOUS
 62
     7
 10
36.035
 20
40.825
 30
0.0
 40
1.89
  1
９
 50
0.0
 41
0.666
 51
0.0
  7
KANJI2
  0
TEXT
  8
0
  6
CONTINUOUS
 62
     7
 10
42.65
 20
26.02
 30
0.0
 40
1.89
  1
１
 50
0.0
 41
0.333
 51
0.0
  7
KANJI5
  0
TEXT
  8
0
  6
CONTINUOUS
 62
     7
 10
43.28
 20
26.02
 30
0.0
 40
1.89
  1
１
 50
0.0
 41
0.333
 51
0.0
  7
KANJI5
  0
TEXT
  8
0
  6
CONTINUOUS
 62
     7
 10
36.035
 20
26.02
 30
0.0
 40
1.89
  1
１
 50
0.0
 41
0.333
 51
0.0
  7
KANJI5
  0
TEXT
  8
0
  6
CONTINUOUS
 62
     7
 10
36.665
 20
26.02
 30
0.0
 40
1.89
  1
０
 50
0.0
 41
0.333
 51
0.0
  7
KANJI5
  0
LINE
  8
0
  6
CONTINUOUS
 62
     7
 10
66.968
 20
29.296
 30
0.0
 11
66.968
 21
28.414
 31
0.0
  0
LINE
  8
0
  6
CONTINUOUS
 62
     7
 10
66.968
 20
29.296
 30
0.0
 11
65.834
 21
28.918
 31
0.0
  0
LINE
  8
0
  6
CONTINUOUS
 62
     7
 10
66.968
 20
28.414
 30
0.0
 11
65.834
 21
28.918
 31
0.0
  0
LINE
  8
0
  6
CONTINUOUS
 62
     7
 10
60.416
 20
29.296
 30
0.0
 11
60.416
 21
28.414
 31
0.0
  0
LINE
  8
0
  6
CONTINUOUS
 62
     7
 10
60.416
 20
29.296
 30
0.0
 11
59.282
 21
28.918
 31
0.0
  0
LINE
  8
0
  6
CONTINUOUS
 62
     7
 10
60.416
 20
28.414
 30
0.0
 11
59.282
 21
28.918
 31
0.0
  0
LINE
  8
0
  6
CONTINUOUS
 62
     7
 10
42.524
 20
29.296
 30
0.0
 11
42.524
 21
28.414
 31
0.0
  0
LINE
  8
0
  6
CONTINUOUS
 62
     7
 10
42.524
 20
29.296
 30
0.0
 11
43.658
 21
28.918
 31
0.0
  0
LINE
  8
0
  6
CONTINUOUS
 62
     7
 10
42.524
 20
28.414
 30
0.0
 11
43.658
 21
28.918
 31
0.0
  0
LINE
  8
0
  6
CONTINUOUS
 62
     7
 10
35.972
 20
29.296
 30
0.0
 11
35.972
 21
28.414
 31
0.0
  0
LINE
  8
0
  6
CONTINUOUS
 62
     7
 10
35.972
 20
29.296
 30
0.0
 11
37.106
 21
28.918
 31
0.0
  0
LINE
  8
0
  6
CONTINUOUS
 62
     7
 10
35.972
 20
28.414
 30
0.0
 11
37.106
 21
28.918
 31
0.0
  0
LINE
  8
0
  6
CONTINUOUS
 62
     7
 10
66.968
 20
68.86
 30
0.0
 11
66.968
 21
67.978
 31
0.0
  0
LINE
  8
0
  6
CONTINUOUS
 62
     7
 10
66.968
 20
68.86
 30
0.0
 11
65.834
 21
68.482
 31
0.0
  0
LINE
  8
0
  6
CONTINUOUS
 62
     7
 10
66.968
 20
67.978
 30
0.0
 11
65.834
 21
68.482
 31
0.0
  0
LINE
  8
0
  6
CONTINUOUS
 62
     7
 10
60.416
 20
68.86
 30
0.0
 11
60.416
 21
67.978
 31
0.0
  0
LINE
  8
0
  6
CONTINUOUS
 62
     7
 10
60.416
 20
68.86
 30
0.0
 11
59.282
 21
68.482
 31
0.0
  0
LINE
  8
0
  6
CONTINUOUS
 62
     7
 10
60.416
 20
67.978
 30
0.0
 11
59.282
 21
68.482
 31
0.0
  0
LINE
  8
0
  6
CONTINUOUS
 62
     7
 10
42.524
 20
68.86
 30
0.0
 11
42.524
 21
67.978
 31
0.0
  0
LINE
  8
0
  6
CONTINUOUS
 62
     7
 10
42.524
 20
68.86
 30
0.0
 11
43.658
 21
68.482
 31
0.0
  0
LINE
  8
0
  6
CONTINUOUS
 62
     7
 10
42.524
 20
67.978
 30
0.0
 11
43.658
 21
68.482
 31
0.0
  0
LINE
  8
0
  6
CONTINUOUS
 62
     7
 10
35.972
 20
68.86
 30
0.0
 11
35.972
 21
67.978
 31
0.0
  0
LINE
  8
0
  6
CONTINUOUS
 62
     7
 10
35.972
 20
68.86
 30
0.0
 11
37.106
 21
68.482
 31
0.0
  0
LINE
  8
0
  6
CONTINUOUS
 62
     7
 10
35.972
 20
67.978
 30
0.0
 11
37.106
 21
68.482
 31
0.0
  0
TEXT
  8
0
  6
CONTINUOUS
 62
     7
 10
135.89
 20
47.44
 30
0.0
 40
1.89
  1
５
 50
90.0
 41
0.666
 51
0.0
  7
KANJI2
  0
TEXT
  8
0
  6
CONTINUOUS
 62
     7
 10
135.89
 20
48.7
 30
0.0
 40
1.89
  1
．
 50
90.0
 41
0.666
 51
0.0
  7
KANJI2
  0
TEXT
  8
0
  6
CONTINUOUS
 62
     7
 10
135.89
 20
49.96
 30
0.0
 40
1.89
  1
４
 50
90.0
 41
0.666
 51
0.0
  7
KANJI2
  0
LINE
  8
0
  6
CONTINUOUS
 62
     7
 10
136.52
 20
37.549
 30
0.0
 11
136.52
 21
59.851
 31
0.0
  0
LINE
  8
0
  6
CONTINUOUS
 62
     7
 10
136.193912
 20
38.766097
 30
0.0
 11
136.52
 21
37.549
 31
0.0
  0
LINE
  8
0
  6
CONTINUOUS
 62
     7
 10
136.52
 20
37.549
 30
0.0
 11
136.846088
 21
38.766097
 31
0.0
  0
LINE
  8
0
  6
CONTINUOUS
 62
     7
 10
136.846088
 20
58.633903
 30
0.0
 11
136.52
 21
59.851
 31
0.0
  0
LINE
  8
0
  6
CONTINUOUS
 62
     7
 10
136.52
 20
59.851
 30
0.0
 11
136.193912
 21
58.633903
 31
0.0
  0
TEXT
  8
0
  6
CONTINUOUS
 62
     7
 10
135.89
 20
46.18
 30
0.0
 40
1.89
  1
３
 50
90.0
 41
0.666
 51
0.0
  7
KANJI2
  0
LINE
  8
0
  6
CONTINUOUS
 62
     7
 10
107.54
 20
80.83
 30
0.0
 11
101.87
 21
80.83
 31
0.0
  0
CIRCLE
  8
0
  6
CONTINUOUS
 62
     7
 10
105.02
 20
80.83
 30
0.0
 40
0.315
  0
CIRCLE
  8
0
  6
CONTINUOUS
 62
     7
 10
105.02
 20
80.83
 30
0.0
 40
0.252
  0
CIRCLE
  8
0
  6
CONTINUOUS
 62
     7
 10
105.02
 20
80.83
 30
0.0
 40
0.126
  0
TEXT
  8
0
  6
CONTINUOUS
 62
     7
 10
105.65
 20
81.46
 30
0.0
 40
1.89
  1
４
 50
0.0
 41
0.666
 51
0.0
  7
KANJI2
  0
TEXT
  8
0
  6
CONTINUOUS
 62
     7
 10
103.067
 20
81.46
 30
0.0
 40
1.89
  1
５
 50
0.0
 41
0.666
 51
0.0
  7
KANJI2
  0
LINE
  8
0
  6
CONTINUOUS
 62
     7
 10
101.87
 20
80.83
 30
0.0
 11
99.35
 21
80.83
 31
0.0
  0
LINE
  8
0
  6
CONTINUOUS
 62
     7
 10
100.652903
 20
80.503912
 30
0.0
 11
101.87
 21
80.83
 31
0.0
  0
LINE
  8
0
  6
CONTINUOUS
 62
     7
 10
101.87
 20
80.83
 30
0.0
 11
100.652903
 21
81.156088
 31
0.0
  0
LINE
  8
0
  6
CONTINUOUS
 62
     7
 10
107.54
 20
80.83
 30
0.0
 11
110.06
 21
80.83
 31
0.0
  0
LINE
  8
0
  6
CONTINUOUS
 62
     7
 10
108.757097
 20
81.156088
 30
0.0
 11
107.54
 21
80.83
 31
0.0
  0
LINE
  8
0
  6
CONTINUOUS
 62
     7
 10
107.54
 20
80.83
 30
0.0
 11
108.757097
 21
80.503912
 31
0.0
  0
LINE
  8
0
  6
CONTINUOUS
 62
     7
 10
105.02
 20
74.53
 30
0.0
 11
105.02
 21
82.09
 31
0.0
  0
LINE
  8
0
  6
LTYPE1
 62
     7
 10
92.42
 20
48.7
 30
0.0
 11
123.92
 21
48.7
 31
0.0
  0
LINE
  8
0
  6
CONTINUOUS
 62
     7
 10
105.02
 20
51.409
 30
0.0
 11
107.54
 21
51.409
 31
0.0
  0
LINE
  8
0
  6
CONTINUOUS
 62
     7
 10
107.54
 20
45.991
 30
0.0
 11
107.54
 21
51.409
 31
0.0
  0
LINE
  8
0
  6
CONTINUOUS
 62
     7
 10
105.02
 20
45.991
 30
0.0
 11
107.54
 21
45.991
 31
0.0
  0
LINE
  8
0
  6
CONTINUOUS
 62
     7
 10
103.886
 20
61.489
 30
0.0
 11
104.264
 21
61.3
 31
0.0
  0
ARC
  8
0
  6
CONTINUOUS
 62
     7
 10
102.5
 20
60.04
 30
0.0
 40
0.63
 50
150.0
 51
330.0
  0
LINE
  8
0
  6
CONTINUOUS
 62
     7
 10
103.067
 20
59.725
 30
0.0
 11
103.886
 21
61.489
 31
0.0
  0
LINE
  8
0
  6
CONTINUOUS
 62
     7
 10
105.02
 20
66.97
 30
0.0
 11
101.87
 21
60.355
 31
0.0
  0
LINE
  8
0
  6
CONTINUOUS
 62
     7
 10
103.886
 20
35.911
 30
0.0
 11
104.264
 21
36.1
 31
0.0
  0
POLYLINE
  8
0
  6
CONTINUOUS
 62
     7
 66
     1
  0
VERTEX
  8
0
  6
CONTINUOUS
 62
     7
 10
101.95442
 20
37.045
 30
0.0
  0
VERTEX
  8
0
  6
CONTINUOUS
 62
     7
 10
101.907989
 20
37.14454
 30
0.0
  0
VERTEX
  8
0
  6
CONTINUOUS
 62
     7
 10
101.879576
 20
37.250632
 30
0.0
  0
VERTEX
  8
0
  6
CONTINUOUS
 62
     7
 10
101.87
 20
37.36
 30
0.0
  0
VERTEX
  8
0
  6
CONTINUOUS
 62
     7
 10
101.879576
 20
37.469368
 30
0.0
  0
VERTEX
  8
0
  6
CONTINUOUS
 62
     7
 10
101.907989
 20
37.57546
 30
0.0
  0
VERTEX
  8
0
  6
CONTINUOUS
 62
     7
 10
101.95442
 20
37.675
 30
0.0
  0
VERTEX
  8
0
  6
CONTINUOUS
 62
     7
 10
102.01742
 20
37.764964
 30
0.0
  0
VERTEX
  8
0
  6
CONTINUOUS
 62
     7
 10
102.095036
 20
37.84258
 30
0.0
  0
VERTEX
  8
0
  6
CONTINUOUS
 62
     7
 10
102.185
 20
37.90558
 30
0.0
  0
VERTEX
  8
0
  6
CONTINUOUS
 62
     7
 10
102.28454
 20
37.952011
 30
0.0
  0
VERTEX
  8
0
  6
CONTINUOUS
 62
     7
 10
102.390632
 20
37.980424
 30
0.0
  0
VERTEX
  8
0
  6
CONTINUOUS
 62
     7
 10
102.5
 20
37.99
 30
0.0
  0
VERTEX
  8
0
  6
CONTINUOUS
 62
     7
 10
102.609368
 20
37.980424
 30
0.0
  0
VERTEX
  8
0
  6
CONTINUOUS
 62
     7
 10
102.71546
 20
37.952011
 30
0.0
  0
VERTEX
  8
0
  6
CONTINUOUS
 62
     7
 10
102.815
 20
37.90558
 30
0.0
  0
VERTEX
  8
0
  6
CONTINUOUS
 62
     7
 10
102.904964
 20
37.84258
 30
0.0
  0
VERTEX
  8
0
  6
CONTINUOUS
 62
     7
 10
102.98258
 20
37.764964
 30
0.0
  0
VERTEX
  8
0
  6
CONTINUOUS
 62
     7
 10
103.04558
 20
37.675
 30
0.0
  0
SEQEND
  0
LINE
  8
0
  6
CONTINUOUS
 62
     7
 10
103.067
 20
37.675
 30
0.0
 11
103.886
 21
35.911
 31
0.0
  0
LINE
  8
0
  6
CONTINUOUS
 62
     7
 10
105.02
 20
30.43
 30
0.0
 11
101.87
 21
37.045
 31
0.0
  0
LINE
  8
0
  6
CONTINUOUS
 62
     7
 10
101.87
 20
58.78
 30
0.0
 11
101.87
 21
86.5
 31
0.0
  0
LINE
  8
0
  6
CONTINUOUS
 62
     7
 10
107.54
 20
52.795
 30
0.0
 11
107.54
 21
82.09
 31
0.0
  0
LINE
  8
0
  6
CONTINUOUS
 62
     7
 10
105.02
 20
72.955
 30
0.0
 11
105.965
 21
73.9
 31
0.0
  0
LINE
  8
0
  6
CONTINUOUS
 62
     7
 10
120.455
 20
80.83
 30
0.0
 11
122.975
 21
80.83
 31
0.0
  0
LINE
  8
0
  6
CONTINUOUS
 62
     7
 10
120.455
 20
80.83
 30
0.0
 11
117.935
 21
80.83
 31
0.0
  0
LINE
  8
0
  6
CONTINUOUS
 62
     7
 10
119.237903
 20
80.503912
 30
0.0
 11
120.455
 21
80.83
 31
0.0
  0
LINE
  8
0
  6
CONTINUOUS
 62
     7
 10
120.455
 20
80.83
 30
0.0
 11
119.237903
 21
81.156088
 31
0.0
  0
LINE
  8
0
  6
CONTINUOUS
 62
     7
 10
120.455
 20
74.53
 30
0.0
 11
120.455
 21
82.09
 31
0.0
  0
TEXT
  8
0
  6
CONTINUOUS
 62
     7
 10
121.148
 20
81.46
 30
0.0
 40
1.89
  1
４
 50
0.0
 41
0.666
 51
0.0
  7
KANJI2
  0
LINE
  8
0
  6
CONTINUOUS
 62
     7
 10
122.975
 20
80.83
 30
0.0
 11
125.495
 21
80.83
 31
0.0
  0
LINE
  8
0
  6
CONTINUOUS
 62
     7
 10
124.192097
 20
81.156088
 30
0.0
 11
122.975
 21
80.83
 31
0.0
  0
LINE
  8
0
  6
CONTINUOUS
 62
     7
 10
122.975
 20
80.83
 30
0.0
 11
124.192097
 21
80.503912
 31
0.0
  0
LINE
  8
0
  6
CONTINUOUS
 62
     7
 10
122.975
 20
74.53
 30
0.0
 11
122.975
 21
86.5
 31
0.0
  0
LINE
  8
0
  6
CONTINUOUS
 62
     7
 10
122.975
 20
73.9
 30
0.0
 11
105.965
 21
73.9
 31
0.0
  0
LINE
  8
0
  6
CONTINUOUS
 62
     7
 10
122.975
 20
72.64
 30
0.0
 11
122.975
 21
73.9
 31
0.0
  0
LINE
  8
0
  6
CONTINUOUS
 62
     7
 10
122.975
 20
59.851
 30
0.0
 11
122.975
 21
72.64
 31
0.0
  0
LINE
  8
0
  6
CONTINUOUS
 62
     7
 10
121.4
 20
59.851
 30
0.0
 11
121.4
 21
58.591
 31
0.0
  0
LINE
  8
0
  6
CONTINUOUS
 62
     7
 10
121.4
 20
58.591
 30
0.0
 11
121.715
 21
58.591
 31
0.0
  0
LINE
  8
0
  6
CONTINUOUS
 62
     7
 10
121.715
 20
58.591
 30
0.0
 11
122.975
 21
59.851
 31
0.0
  0
LINE
  8
0
  6
CONTINUOUS
 62
     7
 10
122.975
 20
54.37
 30
0.0
 11
120.455
 21
54.37
 31
0.0
  0
LINE
  8
0
  6
CONTINUOUS
 62
     7
 10
120.455
 20
51.85
 30
0.0
 11
122.975
 21
51.85
 31
0.0
  0
LINE
  8
0
  6
CONTINUOUS
 62
     7
 10
122.975
 20
59.851
 30
0.0
 11
120.455
 21
59.851
 31
0.0
  0
LINE
  8
0
  6
CONTINUOUS
 62
     7
 10
122.975
 20
51.85
 30
0.0
 11
122.975
 21
54.37
 31
0.0
  0
LINE
  8
0
  6
CONTINUOUS
 62
     7
 10
121.4
 20
38.809
 30
0.0
 11
121.715
 21
38.809
 31
0.0
  0
LINE
  8
0
  6
CONTINUOUS
 62
     7
 10
121.715
 20
38.809
 30
0.0
 11
122.975
 21
37.549
 31
0.0
  0
LINE
  8
0
  6
CONTINUOUS
 62
     7
 10
122.975
 20
37.549
 30
0.0
 11
120.455
 21
37.549
 31
0.0
  0
LINE
  8
0
  6
CONTINUOUS
 62
     7
 10
122.975
 20
24.76
 30
0.0
 11
122.975
 21
37.549
 31
0.0
  0
LINE
  8
0
  6
CONTINUOUS
 62
     7
 10
120.455
 20
72.64
 30
0.0
 11
120.455
 21
24.76
 31
0.0
  0
LINE
  8
0
  6
CONTINUOUS
 62
     7
 10
121.4
 20
37.549
 30
0.0
 11
121.4
 21
38.809
 31
0.0
  0
LINE
  8
0
  6
CONTINUOUS
 62
     7
 10
124.235
 20
59.851
 30
0.0
 11
137.78
 21
59.851
 31
0.0
  0
LINE
  8
0
  6
CONTINUOUS
 62
     7
 10
124.235
 20
37.549
 30
0.0
 11
137.78
 21
37.549
 31
0.0
  0
LINE
  8
0
  6
CONTINUOUS
 62
     7
 10
120.77
 20
22.24
 30
0.0
 11
122.975
 21
22.24
 31
0.0
  0
LINE
  8
0
  6
CONTINUOUS
 62
     7
 10
122.975
 20
22.24
 30
0.0
 11
122.975
 21
23.5
 31
0.0
  0
LINE
  8
0
  6
CONTINUOUS
 62
     7
 10
120.77
 20
22.24
 30
0.0
 11
120.77
 21
20.98
 31
0.0
  0
LINE
  8
0
  6
CONTINUOUS
 62
     7
 10
120.77
 20
20.98
 30
0.0
 11
122.975
 21
20.98
 31
0.0
  0
LINE
  8
0
  6
CONTINUOUS
 62
     7
 10
122.975
 20
20.98
 30
0.0
 11
122.975
 21
22.24
 31
0.0
  0
LINE
  8
0
  6
CONTINUOUS
 62
     7
 10
120.77
 20
23.5
 30
0.0
 11
120.77
 21
22.24
 31
0.0
  0
LINE
  8
0
  6
CONTINUOUS
 62
     7
 10
120.77
 20
24.445
 30
0.0
 11
122.975
 21
24.445
 31
0.0
  0
LINE
  8
0
  6
CONTINUOUS
 62
     7
 10
120.455
 20
45.55
 30
0.0
 11
122.975
 21
45.55
 31
0.0
  0
LINE
  8
0
  6
CONTINUOUS
 62
     7
 10
122.975
 20
43.03
 30
0.0
 11
120.455
 21
43.03
 31
0.0
  0
LINE
  8
0
  6
CONTINUOUS
 62
     7
 10
122.975
 20
45.55
 30
0.0
 11
122.975
 21
43.03
 31
0.0
  0
LINE
  8
0
  6
CONTINUOUS
 62
     7
 10
105.02
 20
63.505
 30
0.0
 11
105.965
 21
64.45
 31
0.0
  0
LINE
  8
0
  6
CONTINUOUS
 62
     7
 10
105.965
 20
64.45
 30
0.0
 11
111.32
 21
64.45
 31
0.0
  0
LINE
  8
0
  6
CONTINUOUS
 62
     7
 10
111.32
 20
71.695
 30
0.0
 11
111.32
 21
64.45
 31
0.0
  0
LINE
  8
0
  6
CONTINUOUS
 62
     7
 10
111.32
 20
71.695
 30
0.0
 11
112.265
 21
72.64
 31
0.0
  0
LINE
  8
0
  6
CONTINUOUS
 62
     7
 10
112.265
 20
72.64
 30
0.0
 11
122.975
 21
72.64
 31
0.0
  0
LINE
  8
0
  6
CONTINUOUS
 62
     7
 10
105.02
 20
24.445
 30
0.0
 11
105.965
 21
23.5
 31
0.0
  0
LINE
  8
0
  6
CONTINUOUS
 62
     7
 10
120.77
 20
24.445
 30
0.0
 11
120.77
 21
23.5
 31
0.0
  0
LINE
  8
0
  6
CONTINUOUS
 62
     7
 10
122.975
 20
24.76
 30
0.0
 11
122.975
 21
23.5
 31
0.0
  0
LINE
  8
0
  6
CONTINUOUS
 62
     7
 10
105.02
 20
33.895
 30
0.0
 11
105.965
 21
32.95
 31
0.0
  0
LINE
  8
0
  6
CONTINUOUS
 62
     7
 10
105.965
 20
32.95
 30
0.0
 11
111.32
 21
32.95
 31
0.0
  0
LINE
  8
0
  6
CONTINUOUS
 62
     7
 10
111.32
 20
25.705
 30
0.0
 11
111.32
 21
32.95
 31
0.0
  0
LINE
  8
0
  6
CONTINUOUS
 62
     7
 10
111.32
 20
25.705
 30
0.0
 11
112.265
 21
24.76
 31
0.0
  0
LINE
  8
0
  6
CONTINUOUS
 62
     7
 10
112.265
 20
24.76
 30
0.0
 11
122.975
 21
24.76
 31
0.0
  0
LINE
  8
0
  6
CONTINUOUS
 62
     7
 10
120.77
 20
24.76
 30
0.0
 11
120.77
 21
24.445
 31
0.0
  0
LINE
  8
0
  6
CONTINUOUS
 62
     7
 10
122.975
 20
23.5
 30
0.0
 11
105.902
 21
23.5
 31
0.0
  0
LINE
  8
0
  6
CONTINUOUS
 62
     7
 10
101.87
 20
57.835
 30
0.0
 11
105.02
 21
57.835
 31
0.0
  0
LINE
  8
0
  6
CONTINUOUS
 62
     7
 10
105.02
 20
57.835
 30
0.0
 11
105.02
 21
39.565
 31
0.0
  0
LINE
  8
0
  6
CONTINUOUS
 62
     7
 10
105.02
 20
39.565
 30
0.0
 11
101.87
 21
39.565
 31
0.0
  0
LINE
  8
0
  6
CONTINUOUS
 62
     7
 10
101.87
 20
39.565
 30
0.0
 11
101.87
 21
57.835
 31
0.0
  0
LINE
  8
0
  6
CONTINUOUS
 62
     7
 10
104.264
 20
37.549
 30
0.0
 11
105.02
 21
37.549
 31
0.0
  0
LINE
  8
0
  6
CONTINUOUS
 62
     7
 10
105.02
 20
34.714
 30
0.0
 11
104.264
 21
34.714
 31
0.0
  0
LINE
  8
0
  6
CONTINUOUS
 62
     7
 10
104.264
 20
34.714
 30
0.0
 11
104.264
 21
37.549
 31
0.0
  0
LINE
  8
0
  6
CONTINUOUS
 62
     7
 10
105.02
 20
34.714
 30
0.0
 11
105.02
 21
24.445
 31
0.0
  0
LINE
  8
0
  6
CONTINUOUS
 62
     7
 10
105.02
 20
37.549
 30
0.0
 11
105.02
 21
59.851
 31
0.0
  0
LINE
  8
0
  6
CONTINUOUS
 62
     7
 10
104.264
 20
62.686
 30
0.0
 11
105.02
 21
62.686
 31
0.0
  0
LINE
  8
0
  6
CONTINUOUS
 62
     7
 10
105.02
 20
59.851
 30
0.0
 11
104.264
 21
59.851
 31
0.0
  0
LINE
  8
0
  6
CONTINUOUS
 62
     7
 10
104.264
 20
59.851
 30
0.0
 11
104.264
 21
62.686
 31
0.0
  0
LINE
  8
0
  6
CONTINUOUS
 62
     7
 10
105.02
 20
72.955
 30
0.0
 11
105.02
 21
62.686
 31
0.0
  0
ARC
  8
0
  6
CONTINUOUS
 62
     7
 10
197.441
 20
68.986
 30
0.0
 40
0.063
 50
0.0
 51
90.0
  0
ARC
  8
0
  6
CONTINUOUS
 62
     7
 10
197.441
 20
45.172
 30
0.0
 40
0.063
 50
270.0
 51
0.0
  0
LINE
  8
0
  6
CONTINUOUS
 62
     7
 10
168.524
 20
44.794
 30
0.0
 11
168.524
 21
48.574
 31
0.0
  0
LINE
  8
0
  6
CONTINUOUS
 62
     7
 10
166.004
 20
48.889
 30
0.0
 11
168.209
 21
48.889
 31
0.0
  0
ARC
  8
0
  6
CONTINUOUS
 62
     7
 10
168.209
 20
65.584
 30
0.0
 40
0.315
 50
270.0
 51
0.0
  0
ARC
  8
0
  6
CONTINUOUS
 62
     7
 10
168.209
 20
48.574
 30
0.0
 40
0.315
 50
0.0
 51
90.0
  0
LINE
  8
0
  6
LTYPE1
 62
     7
 10
171.926
 20
57.079
 30
0.0
 11
156.176
 21
57.079
 31
0.0
  0
LINE
  8
0
  6
CONTINUOUS
 62
     7
 10
164.366
 20
55.693
 30
0.0
 11
164.366
 21
58.402
 31
0.0
  0
LINE
  8
0
  6
CONTINUOUS
 62
     7
 10
165.626
 20
55.693
 30
0.0
 11
164.366
 21
55.693
 31
0.0
  0
LINE
  8
0
  6
CONTINUOUS
 62
     7
 10
156.68
 20
69.049
 30
0.0
 11
156.68
 21
69.679
 31
0.0
  0
LINE
  8
0
  6
CONTINUOUS
 62
     7
 10
157.94
 20
58.654
 30
0.0
 11
156.68
 21
58.654
 31
0.0
  0
LINE
  8
0
  6
CONTINUOUS
 62
     7
 10
156.68
 20
62.623
 30
0.0
 11
157.94
 21
62.623
 31
0.0
  0
LINE
  8
0
  6
CONTINUOUS
 62
     7
 10
156.68
 20
58.654
 30
0.0
 11
156.68
 21
59.914
 31
0.0
  0
LINE
  8
0
  6
CONTINUOUS
 62
     7
 10
157.94
 20
55.504
 30
0.0
 11
156.68
 21
55.504
 31
0.0
  0
LINE
  8
0
  6
CONTINUOUS
 62
     7
 10
156.68
 20
54.244
 30
0.0
 11
157.94
 21
54.244
 31
0.0
  0
LINE
  8
0
  6
CONTINUOUS
 62
     7
 10
156.68
 20
55.504
 30
0.0
 11
156.68
 21
54.244
 31
0.0
  0
LINE
  8
0
  6
CONTINUOUS
 62
     7
 10
165.626
 20
64.45
 30
0.0
 11
165.185
 21
64.891
 31
0.0
  0
LINE
  8
0
  6
CONTINUOUS
 62
     7
 10
165.626
 20
44.92
 30
0.0
 11
165.185
 21
44.479
 31
0.0
  0
LINE
  8
0
  6
CONTINUOUS
 62
     7
 10
166.004
 20
51.472
 30
0.0
 11
165.626
 21
51.472
 31
0.0
  0
LINE
  8
0
  6
CONTINUOUS
 62
     7
 10
165.626
 20
50.086
 30
0.0
 11
166.004
 21
50.086
 31
0.0
  0
LINE
  8
0
  6
CONTINUOUS
 62
     7
 10
166.004
 20
50.086
 30
0.0
 11
166.004
 21
51.472
 31
0.0
  0
LINE
  8
0
  6
CONTINUOUS
 62
     7
 10
166.004
 20
64.072
 30
0.0
 11
165.626
 21
64.072
 31
0.0
  0
LINE
  8
0
  6
CONTINUOUS
 62
     7
 10
165.626
 20
62.623
 30
0.0
 11
166.004
 21
62.623
 31
0.0
  0
LINE
  8
0
  6
CONTINUOUS
 62
     7
 10
166.004
 20
62.623
 30
0.0
 11
166.004
 21
64.009
 31
0.0
  0
LINE
  8
0
  6
LTYPE1
 62
     7
 10
203.93
 20
57.079
 30
0.0
 11
152.9
 21
57.079
 31
0.0
  0
LINE
  8
0
  6
CONTINUOUS
 62
     7
 10
165.626
 20
61.615
 30
0.0
 11
165.626
 21
52.48
 31
0.0
  0
LINE
  8
0
  6
CONTINUOUS
 62
     7
 10
165.941
 20
61.615
 30
0.0
 11
165.626
 21
61.615
 31
0.0
  0
LINE
  8
0
  6
CONTINUOUS
 62
     7
 10
165.626
 20
52.48
 30
0.0
 11
165.941
 21
52.48
 31
0.0
  0
LINE
  8
0
  6
CONTINUOUS
 62
     7
 10
157.436
 20
51.472
 30
0.0
 11
157.436
 21
52.102
 31
0.0
  0
LINE
  8
0
  6
CONTINUOUS
 62
     7
 10
157.751
 20
43.219
 30
0.0
 11
156.68
 21
43.219
 31
0.0
  0
LINE
  8
0
  6
CONTINUOUS
 62
     7
 10
165.626
 20
50.086
 30
0.0
 11
165.626
 21
44.983
 31
0.0
  0
LINE
  8
0
  6
CONTINUOUS
 62
     7
 10
165.626
 20
45.928
 30
0.0
 11
166.004
 21
45.928
 31
0.0
  0
LINE
  8
0
  6
CONTINUOUS
 62
     7
 10
165.437
 20
43.975
 30
0.0
 11
164.996
 21
44.416
 31
0.0
  0
LINE
  8
0
  6
CONTINUOUS
 62
     7
 10
165.437
 20
43.975
 30
0.0
 11
169.532
 21
43.975
 31
0.0
  0
LINE
  8
0
  6
CONTINUOUS
 62
     7
 10
168.713
 20
44.605
 30
0.0
 11
169.469
 21
44.605
 31
0.0
  0
ARC
  8
0
  6
CONTINUOUS
 62
     7
 10
169.532
 20
44.29
 30
0.0
 40
0.315
 50
270.0
 51
0.0
  0
ARC
  8
0
  6
CONTINUOUS
 62
     7
 10
169.532
 20
44.29
 30
0.0
 40
0.315
 50
0.0
 51
90.0
  0
LINE
  8
0
  6
CONTINUOUS
 62
     7
 10
168.713
 20
44.605
 30
0.0
 11
168.713
 21
44.794
 31
0.0
  0
LINE
  8
0
  6
CONTINUOUS
 62
     7
 10
165.626
 20
49.645
 30
0.0
 11
165.185
 21
49.204
 31
0.0
  0
LINE
  8
0
  6
CONTINUOUS
 62
     7
 10
165.185
 20
49.204
 30
0.0
 11
162.539
 21
49.204
 31
0.0
  0
LINE
  8
0
  6
CONTINUOUS
 62
     7
 10
162.476
 20
45.55
 30
0.0
 11
162.476
 21
49.141
 31
0.0
  0
LINE
  8
0
  6
CONTINUOUS
 62
     7
 10
162.476
 20
45.55
 30
0.0
 11
162.035
 21
45.109
 31
0.0
  0
LINE
  8
0
  6
CONTINUOUS
 62
     7
 10
157.751
 20
43.849
 30
0.0
 11
156.68
 21
43.849
 31
0.0
  0
LINE
  8
0
  6
CONTINUOUS
 62
     7
 10
156.68
 20
43.849
 30
0.0
 11
156.68
 21
44.479
 31
0.0
  0
LINE
  8
0
  6
CONTINUOUS
 62
     7
 10
157.751
 20
43.849
 30
0.0
 11
157.751
 21
43.219
 31
0.0
  0
LINE
  8
0
  6
CONTINUOUS
 62
     7
 10
156.68
 20
43.219
 30
0.0
 11
156.68
 21
43.849
 31
0.0
  0
LINE
  8
0
  6
CONTINUOUS
 62
     7
 10
157.751
 20
44.479
 30
0.0
 11
157.751
 21
43.849
 31
0.0
  0
LINE
  8
0
  6
CONTINUOUS
 62
     7
 10
157.751
 20
44.92
 30
0.0
 11
156.68
 21
44.92
 31
0.0
  0
LINE
  8
0
  6
CONTINUOUS
 62
     7
 10
157.751
 20
44.92
 30
0.0
 11
157.751
 21
44.479
 31
0.0
  0
LINE
  8
0
  6
CONTINUOUS
 62
     7
 10
156.68
 20
45.109
 30
0.0
 11
156.68
 21
44.479
 31
0.0
  0
LINE
  8
0
  6
CONTINUOUS
 62
     7
 10
157.751
 20
45.109
 30
0.0
 11
157.751
 21
44.983
 31
0.0
  0
LINE
  8
0
  6
CONTINUOUS
 62
     7
 10
156.68
 20
44.479
 30
0.0
 11
165.185
 21
44.479
 31
0.0
  0
LINE
  8
0
  6
CONTINUOUS
 62
     7
 10
162.035
 20
45.109
 30
0.0
 11
156.68
 21
45.109
 31
0.0
  0
LINE
  8
0
  6
CONTINUOUS
 62
     7
 10
165.626
 20
68.167
 30
0.0
 11
166.004
 21
68.167
 31
0.0
  0
LINE
  8
0
  6
CONTINUOUS
 62
     7
 10
165.437
 20
70.12
 30
0.0
 11
164.996
 21
69.679
 31
0.0
  0
LINE
  8
0
  6
CONTINUOUS
 62
     7
 10
165.437
 20
70.12
 30
0.0
 11
169.532
 21
70.12
 31
0.0
  0
LINE
  8
0
  6
CONTINUOUS
 62
     7
 10
168.713
 20
69.49
 30
0.0
 11
169.469
 21
69.49
 31
0.0
  0
ARC
  8
0
  6
CONTINUOUS
 62
     7
 10
169.532
 20
69.805
 30
0.0
 40
0.315
 50
270.0
 51
0.0
  0
ARC
  8
0
  6
CONTINUOUS
 62
     7
 10
169.532
 20
69.805
 30
0.0
 40
0.315
 50
0.0
 51
90.0
  0
LINE
  8
0
  6
CONTINUOUS
 62
     7
 10
168.713
 20
69.49
 30
0.0
 11
168.713
 21
69.301
 31
0.0
  0
LINE
  8
0
  6
CONTINUOUS
 62
     7
 10
156.68
 20
69.679
 30
0.0
 11
165.185
 21
69.679
 31
0.0
  0
LINE
  8
0
  6
CONTINUOUS
 62
     7
 10
165.626
 20
69.175
 30
0.0
 11
165.626
 21
64.072
 31
0.0
  0
LINE
  8
0
  6
CONTINUOUS
 62
     7
 10
166.004
 20
44.794
 30
0.0
 11
166.004
 21
69.364
 31
0.0
  0
LINE
  8
0
  6
CONTINUOUS
 62
     7
 10
165.626
 20
58.402
 30
0.0
 11
164.366
 21
58.402
 31
0.0
  0
LINE
  8
0
  6
CONTINUOUS
 62
     7
 10
166.193
 20
57.079
 30
0.0
 11
166.193
 21
65.269
 31
0.0
  0
LINE
  8
0
  6
CONTINUOUS
 62
     7
 10
165.626
 20
51.472
 30
0.0
 11
165.626
 21
62.623
 31
0.0
  0
LINE
  8
0
  6
CONTINUOUS
 62
     7
 10
156.68
 20
62.623
 30
0.0
 11
156.68
 21
68.986
 31
0.0
  0
LINE
  8
0
  6
CONTINUOUS
 62
     7
 10
156.68
 20
59.914
 30
0.0
 11
157.94
 21
59.914
 31
0.0
  0
LINE
  8
0
  6
CONTINUOUS
 62
     7
 10
157.436
 20
62.623
 30
0.0
 11
157.436
 21
61.993
 31
0.0
  0
LINE
  8
0
  6
CONTINUOUS
 62
     7
 10
157.436
 20
61.993
 30
0.0
 11
157.31
 21
61.993
 31
0.0
  0
LINE
  8
0
  6
CONTINUOUS
 62
     7
 10
157.31
 20
61.993
 30
0.0
 11
156.68
 21
62.623
 31
0.0
  0
LINE
  8
0
  6
CONTINUOUS
 62
     7
 10
157.436
 20
52.102
 30
0.0
 11
157.31
 21
52.102
 31
0.0
  0
LINE
  8
0
  6
CONTINUOUS
 62
     7
 10
157.31
 20
52.102
 30
0.0
 11
156.68
 21
51.472
 31
0.0
  0
LINE
  8
0
  6
CONTINUOUS
 62
     7
 10
156.68
 20
51.472
 30
0.0
 11
157.94
 21
51.472
 31
0.0
  0
LINE
  8
0
  6
CONTINUOUS
 62
     7
 10
157.94
 20
69.049
 30
0.0
 11
157.94
 21
45.109
 31
0.0
  0
LINE
  8
0
  6
CONTINUOUS
 62
     7
 10
156.68
 20
45.109
 30
0.0
 11
156.68
 21
51.472
 31
0.0
  0
LINE
  8
0
  6
CONTINUOUS
 62
     7
 10
165.185
 20
64.954
 30
0.0
 11
162.539
 21
64.954
 31
0.0
  0
LINE
  8
0
  6
CONTINUOUS
 62
     7
 10
162.035
 20
69.049
 30
0.0
 11
156.68
 21
69.049
 31
0.0
  0
LINE
  8
0
  6
CONTINUOUS
 62
     7
 10
162.476
 20
68.545
 30
0.0
 11
162.476
 21
64.954
 31
0.0
  0
LINE
  8
0
  6
CONTINUOUS
 62
     7
 10
162.476
 20
68.545
 30
0.0
 11
162.035
 21
68.986
 31
0.0
  0
LINE
  8
0
  6
CONTINUOUS
 62
     7
 10
165.626
 20
69.175
 30
0.0
 11
165.185
 21
69.616
 31
0.0
  0
LINE
  8
0
  6
CONTINUOUS
 62
     7
 10
168.524
 20
65.584
 30
0.0
 11
168.524
 21
69.364
 31
0.0
  0
LINE
  8
0
  6
CONTINUOUS
 62
     7
 10
166.004
 20
65.269
 30
0.0
 11
168.209
 21
65.269
 31
0.0
  0
LINE
  8
0
  6
CONTINUOUS
 62
     7
 10
166.949
 20
61.615
 30
0.0
 11
167.705
 21
61.615
 31
0.0
  0
LINE
  8
0
  6
CONTINUOUS
 62
     7
 10
166.949
 20
63.505
 30
0.0
 11
167.705
 21
63.505
 31
0.0
  0
LINE
  8
0
  6
CONTINUOUS
 62
     7
 10
166.949
 20
61.615
 30
0.0
 11
166.949
 21
63.505
 31
0.0
  0
LINE
  8
0
  6
CONTINUOUS
 62
     7
 10
167.705
 20
63.505
 30
0.0
 11
167.705
 21
61.615
 31
0.0
  0
LINE
  8
0
  6
CONTINUOUS
 62
     7
 10
166.949
 20
50.59
 30
0.0
 11
167.705
 21
50.59
 31
0.0
  0
LINE
  8
0
  6
CONTINUOUS
 62
     7
 10
166.949
 20
52.48
 30
0.0
 11
167.705
 21
52.48
 31
0.0
  0
LINE
  8
0
  6
CONTINUOUS
 62
     7
 10
166.949
 20
50.59
 30
0.0
 11
166.949
 21
52.48
 31
0.0
  0
LINE
  8
0
  6
CONTINUOUS
 62
     7
 10
167.705
 20
52.48
 30
0.0
 11
167.705
 21
50.59
 31
0.0
  0
LINE
  8
0
  6
CONTINUOUS
 62
     7
 10
197.441
 20
45.109
 30
0.0
 11
166.004
 21
44.794
 31
0.0
  0
LINE
  8
0
  6
CONTINUOUS
 62
     7
 10
166.193
 20
57.079
 30
0.0
 11
166.193
 21
48.889
 31
0.0
  0
LINE
  8
0
  6
CONTINUOUS
 62
     7
 10
197.504
 20
68.986
 30
0.0
 11
197.504
 21
45.172
 31
0.0
  0
LINE
  8
0
  6
CONTINUOUS
 62
     7
 10
166.004
 20
69.364
 30
0.0
 11
197.441
 21
69.049
 31
0.0
  0
LINE
  8
0
  6
CONTINUOUS
 62
     7
 10
156.68
 20
70.12
 30
0.0
 11
156.68
 21
76.42
 31
0.0
  0
LINE
  8
0
  6
CONTINUOUS
 62
     7
 10
197.504
 20
76.42
 30
0.0
 11
197.504
 21
69.616
 31
0.0
  0
LINE
  8
0
  6
CONTINUOUS
 62
     7
 10
156.68
 20
75.16
 30
0.0
 11
197.504
 21
75.16
 31
0.0
  0
LINE
  8
0
  6
CONTINUOUS
 62
     7
 10
157.897097
 20
75.486088
 30
0.0
 11
156.68
 21
75.16
 31
0.0
  0
LINE
  8
0
  6
CONTINUOUS
 62
     7
 10
156.68
 20
75.16
 30
0.0
 11
157.897097
 21
74.833912
 31
0.0
  0
LINE
  8
0
  6
CONTINUOUS
 62
     7
 10
196.286903
 20
74.833912
 30
0.0
 11
197.504
 21
75.16
 31
0.0
  0
LINE
  8
0
  6
CONTINUOUS
 62
     7
 10
197.504
 20
75.16
 30
0.0
 11
196.286903
 21
75.486088
 31
0.0
  0
TEXT
  8
0
  6
CONTINUOUS
 62
     7
 10
173.06
 20
75.79
 30
0.0
 40
1.89
  1
ｍ
 50
0.0
 41
0.666
 51
0.0
  7
KANJI2
  0
TEXT
  8
0
  6
CONTINUOUS
 62
     7
 10
174.32
 20
75.79
 30
0.0
 40
1.89
  1
ａ
 50
0.0
 41
0.666
 51
0.0
  7
KANJI2
  0
TEXT
  8
0
  6
CONTINUOUS
 62
     7
 10
175.58
 20
75.79
 30
0.0
 40
1.89
  1
ｘ
 50
0.0
 41
0.666
 51
0.0
  7
KANJI2
  0
TEXT
  8
0
  6
CONTINUOUS
 62
     7
 10
176.84
 20
75.79
 30
0.0
 40
1.89
  1
．
 50
0.0
 41
0.666
 51
0.0
  7
KANJI2
  0
TEXT
  8
0
  6
CONTINUOUS
 62
     7
 10
111.32
 20
85.87
 30
0.0
 40
1.89
  1
３
 50
0.0
 41
0.666
 51
0.0
  7
KANJI2
  0
TEXT
  8
0
  6
CONTINUOUS
 62
     7
 10
112.58
 20
85.87
 30
0.0
 40
1.89
  1
３
 50
0.0
 41
0.666
 51
0.0
  7
KANJI2
  0
LINE
  8
0
  6
CONTINUOUS
 62
     7
 10
122.975
 20
85.24
 30
0.0
 11
101.87
 21
85.24
 31
0.0
  0
LINE
  8
0
  6
CONTINUOUS
 62
     7
 10
121.757903
 20
84.913912
 30
0.0
 11
122.975
 21
85.24
 31
0.0
  0
LINE
  8
0
  6
CONTINUOUS
 62
     7
 10
122.975
 20
85.24
 30
0.0
 11
121.757903
 21
85.566088
 31
0.0
  0
LINE
  8
0
  6
CONTINUOUS
 62
     7
 10
103.087097
 20
85.566088
 30
0.0
 11
101.87
 21
85.24
 31
0.0
  0
LINE
  8
0
  6
CONTINUOUS
 62
     7
 10
101.87
 20
85.24
 30
0.0
 11
103.087097
 21
84.913912
 31
0.0
  0
TEXT
  8
0
  6
CONTINUOUS
 62
     7
 10
178.1
 20
75.79
 30
0.0
 40
1.89
  1
１
 50
0.0
 41
0.666
 51
0.0
  7
KANJI2
  0
TEXT
  8
0
  6
CONTINUOUS
 62
     7
 10
179.36
 20
75.79
 30
0.0
 40
1.89
  1
３
 50
0.0
 41
0.666
 51
0.0
  7
KANJI2
  0
TEXT
  8
0
  6
CONTINUOUS
 62
     7
 10
180.62
 20
75.79
 30
0.0
 40
1.89
  1
４
 50
0.0
 41
0.666
 51
0.0
  7
KANJI2
  0
LINE
  8
0
  6
CONTINUOUS
 62
     7
 10
166.382
 20
109.495
 30
0.0
 11
171.422
 21
109.495
 31
0.0
  0
LINE
  8
0
  6
CONTINUOUS
 62
     7
 10
171.422
 20
109.495
 30
0.0
 11
171.422
 21
112.015
 31
0.0
  0
LINE
  8
0
  6
CONTINUOUS
 62
     7
 10
171.422
 20
112.015
 30
0.0
 11
166.382
 21
112.015
 31
0.0
  0
LINE
  8
0
  6
CONTINUOUS
 62
     7
 10
166.382
 20
112.015
 30
0.0
 11
166.382
 21
109.495
 31
0.0
  0
LINE
  8
0
  6
CONTINUOUS
 62
     7
 10
166.382
 20
112.015
 30
0.0
 11
167.705
 21
111.385
 31
0.0
  0
LINE
  8
0
  6
CONTINUOUS
 62
     7
 10
171.422
 20
112.015
 30
0.0
 11
170.099
 21
111.385
 31
0.0
  0
LINE
  8
0
  6
CONTINUOUS
 62
     7
 10
166.382
 20
109.495
 30
0.0
 11
167.705
 21
110.125
 31
0.0
  0
LINE
  8
0
  6
CONTINUOUS
 62
     7
 10
170.099
 20
110.125
 30
0.0
 11
171.422
 21
109.495
 31
0.0
  0
LINE
  8
0
  6
CONTINUOUS
 62
     7
 10
146.6
 20
155.8
 30
0.0
 11
146.6
 21
167.14
 31
0.0
  0
LINE
  8
0
  6
CONTINUOUS
 62
     7
 10
178.1
 20
167.14
 30
0.0
 11
178.1
 21
155.8
 31
0.0
  0
LINE
  8
0
  6
CONTINUOUS
 62
     7
 10
146.6
 20
165.88
 30
0.0
 11
178.1
 21
165.88
 31
0.0
  0
LINE
  8
0
  6
CONTINUOUS
 62
     7
 10
147.817097
 20
166.206088
 30
0.0
 11
146.6
 21
165.88
 31
0.0
  0
LINE
  8
0
  6
CONTINUOUS
 62
     7
 10
146.6
 20
165.88
 30
0.0
 11
147.817097
 21
165.553912
 31
0.0
  0
LINE
  8
0
  6
CONTINUOUS
 62
     7
 10
176.882903
 20
165.553912
 30
0.0
 11
178.1
 21
165.88
 31
0.0
  0
LINE
  8
0
  6
CONTINUOUS
 62
     7
 10
178.1
 20
165.88
 30
0.0
 11
176.882903
 21
166.206088
 31
0.0
  0
TEXT
  8
0
  6
CONTINUOUS
 62
     7
 10
161.09
 20
166.51
 30
0.0
 40
1.89
  1
５
 50
0.0
 41
0.666
 51
0.0
  7
KANJI2
  0
TEXT
  8
0
  6
CONTINUOUS
 62
     7
 10
162.35
 20
166.51
 30
0.0
 40
1.89
  1
０
 50
0.0
 41
0.666
 51
0.0
  7
KANJI2
  0
ARC
  8
0
  6
CONTINUOUS
 62
     7
 10
146.726
 20
154.414
 30
0.0
 40
0.126
 50
90.0
 51
180.0
  0
ARC
  8
0
  6
CONTINUOUS
 62
     7
 10
146.726
 20
105.526
 30
0.0
 40
0.126
 50
180.0
 51
270.0
  0
ARC
  8
0
  6
CONTINUOUS
 62
     7
 10
177.974
 20
105.526
 30
0.0
 40
0.126
 50
270.0
 51
0.0
  0
ARC
  8
0
  6
CONTINUOUS
 62
     7
 10
177.974
 20
154.414
 30
0.0
 40
0.126
 50
0.0
 51
90.0
  0
ARC
  8
0
  6
CONTINUOUS
 62
     7
 10
147.356
 20
106.156
 30
0.0
 40
0.126
 50
166.0
 51
270.0
  0
ARC
  8
0
  6
CONTINUOUS
 62
     7
 10
177.344
 20
106.156
 30
0.0
 40
0.126
 50
270.0
 51
0.0
  0
ARC
  8
0
  6
CONTINUOUS
 62
     7
 10
177.344
 20
106.156
 30
0.0
 40
0.126
 50
0.0
 51
14.0
  0
ARC
  8
0
  6
CONTINUOUS
 62
     7
 10
177.344
 20
153.784
 30
0.0
 40
0.126
 50
346.0
 51
0.0
  0
ARC
  8
0
  6
CONTINUOUS
 62
     7
 10
177.344
 20
153.784
 30
0.0
 40
0.126
 50
0.0
 51
90.0
  0
ARC
  8
0
  6
CONTINUOUS
 62
     7
 10
147.356
 20
153.784
 30
0.0
 40
0.126
 50
90.0
 51
194.0
  0
LINE
  8
0
  6
CONTINUOUS
 62
     7
 10
147.356
 20
153.91
 30
0.0
 11
177.344
 21
153.91
 31
0.0
  0
LINE
  8
0
  6
CONTINUOUS
 62
     7
 10
177.47
 20
153.784
 30
0.0
 11
177.47
 21
106.156
 31
0.0
  0
LINE
  8
0
  6
CONTINUOUS
 62
     7
 10
147.23
 20
106.156
 30
0.0
 11
147.23
 21
153.784
 31
0.0
  0
LINE
  8
0
  6
CONTINUOUS
 62
     7
 10
175.265
 20
108.235
 30
0.0
 11
149.435
 21
108.235
 31
0.0
  0
LINE
  8
0
  6
CONTINUOUS
 62
     7
 10
178.1
 20
105.526
 30
0.0
 11
178.1
 21
154.414
 31
0.0
  0
LINE
  8
0
  6
CONTINUOUS
 62
     7
 10
177.974
 20
154.54
 30
0.0
 11
146.726
 21
154.54
 31
0.0
  0
LINE
  8
0
  6
CONTINUOUS
 62
     7
 10
146.6
 20
154.414
 30
0.0
 11
146.6
 21
105.526
 31
0.0
  0
LINE
  8
0
  6
CONTINUOUS
 62
     7
 10
146.726
 20
105.4
 30
0.0
 11
177.974
 21
105.4
 31
0.0
  0
LINE
  8
0
  6
CONTINUOUS
 62
     7
 10
177.344
 20
106.03
 30
0.0
 11
147.356
 21
106.03
 31
0.0
  0
LINE
  8
0
  6
CONTINUOUS
 62
     7
 10
149.435
 20
151.705
 30
0.0
 11
175.265
 21
151.705
 31
0.0
  0
LINE
  8
0
  6
CONTINUOUS
 62
     7
 10
163.925
 20
108.235
 30
0.0
 11
163.925
 21
112.645
 31
0.0
  0
LINE
  8
0
  6
CONTINUOUS
 62
     7
 10
163.925
 20
112.645
 30
0.0
 11
175.265
 21
112.645
 31
0.0
  0
LINE
  8
0
  6
CONTINUOUS
 62
     7
 10
167.705
 20
110.125
 30
0.0
 11
170.099
 21
110.125
 31
0.0
  0
LINE
  8
0
  6
CONTINUOUS
 62
     7
 10
170.099
 20
111.385
 30
0.0
 11
170.099
 21
110.125
 31
0.0
  0
LINE
  8
0
  6
CONTINUOUS
 62
     7
 10
167.705
 20
111.385
 30
0.0
 11
170.099
 21
111.385
 31
0.0
  0
LINE
  8
0
  6
CONTINUOUS
 62
     7
 10
167.705
 20
111.385
 30
0.0
 11
167.705
 21
110.125
 31
0.0
  0
LINE
  8
0
  6
CONTINUOUS
 62
     7
 10
167.894
 20
111.196
 30
0.0
 11
168.839
 21
111.196
 31
0.0
  0
LINE
  8
0
  6
CONTINUOUS
 62
     7
 10
168.839
 20
111.196
 30
0.0
 11
168.839
 21
110.251
 31
0.0
  0
LINE
  8
0
  6
CONTINUOUS
 62
     7
 10
168.839
 20
110.251
 30
0.0
 11
167.894
 21
110.251
 31
0.0
  0
LINE
  8
0
  6
CONTINUOUS
 62
     7
 10
167.894
 20
110.251
 30
0.0
 11
167.894
 21
111.196
 31
0.0
  0
LINE
  8
0
  6
CONTINUOUS
 62
     7
 10
151.723979
 20
150.76
 30
0.0
 11
150.695
 21
150.301801
 31
0.0
  0
LINE
  8
0
  6
CONTINUOUS
 62
     7
 10
151.871021
 20
150.76
 30
0.0
 11
152.9
 21
150.301801
 31
0.0
  0
LINE
  8
0
  6
CONTINUOUS
 62
     7
 10
152.9
 20
150.210199
 30
0.0
 11
151.871021
 21
149.752
 31
0.0
  0
LINE
  8
0
  6
CONTINUOUS
 62
     7
 10
151.871021
 20
150.301801
 30
0.0
 11
152.385479
 21
150.530932
 31
0.0
  0
LINE
  8
0
  6
CONTINUOUS
 62
     7
 10
151.871021
 20
150.210199
 30
0.0
 11
152.385479
 21
149.981068
 31
0.0
  0
LINE
  8
0
  6
CONTINUOUS
 62
     7
 10
151.723979
 20
150.210199
 30
0.0
 11
151.209521
 21
149.981068
 31
0.0
  0
LINE
  8
0
  6
CONTINUOUS
 62
     7
 10
151.723979
 20
150.301801
 30
0.0
 11
151.209521
 21
150.530932
 31
0.0
  0
LINE
  8
0
  6
CONTINUOUS
 62
     7
 10
151.723979
 20
149.752
 30
0.0
 11
150.695
 21
150.210199
 31
0.0
  0
TEXT
  8
0
  6
CONTINUOUS
 62
     7
 10
153.53
 20
149.626
 30
0.0
 40
1.26
  1
Ｔ
 50
0.0
 41
0.75
 51
0.0
  7
KANJI4
  0
TEXT
  8
0
  6
CONTINUOUS
 62
     7
 10
154.475
 20
149.626
 30
0.0
 40
1.26
  1
Ｏ
 50
0.0
 41
0.75
 51
0.0
  7
KANJI4
  0
TEXT
  8
0
  6
CONTINUOUS
 62
     7
 10
155.42
 20
149.626
 30
0.0
 40
1.26
  1
Ｙ
 50
0.0
 41
0.75
 51
0.0
  7
KANJI4
  0
TEXT
  8
0
  6
CONTINUOUS
 62
     7
 10
156.365
 20
149.626
 30
0.0
 40
1.26
  1
Ｏ
 50
0.0
 41
0.75
 51
0.0
  7
KANJI4
  0
TEXT
  8
0
  6
CONTINUOUS
 62
     7
 10
157.625
 20
149.626
 30
0.0
 40
1.26
  1
Ｋ
 50
0.0
 41
0.75
 51
0.0
  7
KANJI4
  0
TEXT
  8
0
  6
CONTINUOUS
 62
     7
 10
158.57
 20
149.626
 30
0.0
 40
1.26
  1
Ｅ
 50
0.0
 41
0.75
 51
0.0
  7
KANJI4
  0
TEXT
  8
0
  6
CONTINUOUS
 62
     7
 10
159.515
 20
149.626
 30
0.0
 40
1.26
  1
Ｉ
 50
0.0
 41
0.75
 51
0.0
  7
KANJI4
  0
TEXT
  8
0
  6
CONTINUOUS
 62
     7
 10
160.46
 20
149.626
 30
0.0
 40
1.26
  1
Ｋ
 50
0.0
 41
0.75
 51
0.0
  7
KANJI4
  0
TEXT
  8
0
  6
CONTINUOUS
 62
     7
 10
161.405
 20
149.626
 30
0.0
 40
1.26
  1
Ｉ
 50
0.0
 41
0.75
 51
0.0
  7
KANJI4
  0
TEXT
  8
0
  6
CONTINUOUS
 62
     7
 10
161.72
 20
146.98
 30
0.0
 40
2.205
  1
Ｓ
 50
0.0
 41
0.857
 51
0.0
  7
KANJI6
  0
TEXT
  8
0
  6
CONTINUOUS
 62
     7
 10
163.61
 20
146.98
 30
0.0
 40
2.205
  1
Ｅ
 50
0.0
 41
0.857
 51
0.0
  7
KANJI6
  0
TEXT
  8
0
  6
CONTINUOUS
 62
     7
 10
165.5
 20
146.98
 30
0.0
 40
2.205
  1
Ｔ
 50
0.0
 41
0.857
 51
0.0
  7
KANJI6
  0
TEXT
  8
0
  6
CONTINUOUS
 62
     7
 10
167.39
 20
146.98
 30
0.0
 40
2.205
  1
Ｔ
 50
0.0
 41
0.857
 51
0.0
  7
KANJI6
  0
TEXT
  8
0
  6
CONTINUOUS
 62
     7
 10
169.28
 20
146.98
 30
0.0
 40
2.205
  1
Ｅ
 50
0.0
 41
0.857
 51
0.0
  7
KANJI6
  0
TEXT
  8
0
  6
CONTINUOUS
 62
     7
 10
171.17
 20
146.98
 30
0.0
 40
2.205
  1
Ｒ
 50
0.0
 41
0.857
 51
0.0
  7
KANJI6
  0
TEXT
  8
0
  6
CONTINUOUS
 62
     7
 10
151.325
 20
146.98
 30
0.0
 40
2.205
  1
Ａ
 50
0.0
 41
0.857
 51
0.0
  7
KANJI6
  0
TEXT
  8
0
  6
CONTINUOUS
 62
     7
 10
153.215
 20
146.98
 30
0.0
 40
2.205
  1
Ｌ
 50
0.0
 41
0.857
 51
0.0
  7
KANJI6
  0
TEXT
  8
0
  6
CONTINUOUS
 62
     7
 10
155.105
 20
146.98
 30
0.0
 40
2.205
  1
Ａ
 50
0.0
 41
0.857
 51
0.0
  7
KANJI6
  0
TEXT
  8
0
  6
CONTINUOUS
 62
     7
 10
156.995
 20
146.98
 30
0.0
 40
2.205
  1
Ｒ
 50
0.0
 41
0.857
 51
0.0
  7
KANJI6
  0
TEXT
  8
0
  6
CONTINUOUS
 62
     7
 10
158.885
 20
146.98
 30
0.0
 40
2.205
  1
Ｍ
 50
0.0
 41
0.857
 51
0.0
  7
KANJI6
  0
TEXT
  8
0
  6
CONTINUOUS
 62
     7
 10
156.365
 20
123.67
 30
0.0
 40
1.26
  1
Ｍ
 50
0.0
 41
1.0
 51
0.0
  7
KANJI7
  0
TEXT
  8
0
  6
CONTINUOUS
 62
     7
 10
157.625
 20
123.67
 30
0.0
 40
1.26
  1
Ｏ
 50
0.0
 41
1.0
 51
0.0
  7
KANJI7
  0
TEXT
  8
0
  6
CONTINUOUS
 62
     7
 10
158.885
 20
123.67
 30
0.0
 40
1.26
  1
Ｄ
 50
0.0
 41
1.0
 51
0.0
  7
KANJI7
  0
TEXT
  8
0
  6
CONTINUOUS
 62
     7
 10
156.365
 20
117.055
 30
0.0
 40
1.26
  1
Ｅ
 50
0.0
 41
1.0
 51
0.0
  7
KANJI7
  0
TEXT
  8
0
  6
CONTINUOUS
 62
     7
 10
157.625
 20
117.055
 30
0.0
 40
1.26
  1
Ｎ
 50
0.0
 41
1.0
 51
0.0
  7
KANJI7
  0
TEXT
  8
0
  6
CONTINUOUS
 62
     7
 10
158.885
 20
117.055
 30
0.0
 40
1.26
  1
Ｔ
 50
0.0
 41
1.0
 51
0.0
  7
KANJI7
  0
TEXT
  8
0
  6
CONTINUOUS
 62
     7
 10
163.295
 20
113.275
 30
0.0
 40
1.26
  1
Ｆ
 50
0.0
 41
0.75
 51
0.0
  7
KANJI4
  0
TEXT
  8
0
  6
CONTINUOUS
 62
     7
 10
164.24
 20
113.275
 30
0.0
 40
1.26
  1
Ｒ
 50
0.0
 41
0.75
 51
0.0
  7
KANJI4
  0
TEXT
  8
0
  6
CONTINUOUS
 62
     7
 10
165.185
 20
113.275
 30
0.0
 40
1.26
  1
Ｅ
 50
0.0
 41
0.75
 51
0.0
  7
KANJI4
  0
TEXT
  8
0
  6
CONTINUOUS
 62
     7
 10
166.13
 20
113.275
 30
0.0
 40
1.26
  1
Ｅ
 50
0.0
 41
0.75
 51
0.0
  7
KANJI4
  0
TEXT
  8
0
  6
CONTINUOUS
 62
     7
 10
170.54
 20
113.275
 30
0.0
 40
1.26
  1
Ｌ
 50
0.0
 41
0.75
 51
0.0
  7
KANJI4
  0
TEXT
  8
0
  6
CONTINUOUS
 62
     7
 10
171.485
 20
113.275
 30
0.0
 40
1.26
  1
Ｏ
 50
0.0
 41
0.75
 51
0.0
  7
KANJI4
  0
TEXT
  8
0
  6
CONTINUOUS
 62
     7
 10
172.43
 20
113.275
 30
0.0
 40
1.26
  1
Ｃ
 50
0.0
 41
0.75
 51
0.0
  7
KANJI4
  0
TEXT
  8
0
  6
CONTINUOUS
 62
     7
 10
173.375
 20
113.275
 30
0.0
 40
1.26
  1
Ｋ
 50
0.0
 41
0.75
 51
0.0
  7
KANJI4
  0
LINE
  8
0
  6
CONTINUOUS
 62
     7
 10
168.335
 20
112.645
 30
0.0
 11
168.335
 21
113.905
 31
0.0
  0
LINE
  8
0
  6
CONTINUOUS
 62
     7
 10
168.335
 20
113.905
 30
0.0
 11
167.39
 21
113.905
 31
0.0
  0
LINE
  8
0
  6
CONTINUOUS
 62
     7
 10
169.28
 20
112.645
 30
0.0
 11
169.28
 21
113.905
 31
0.0
  0
LINE
  8
0
  6
CONTINUOUS
 62
     7
 10
169.28
 20
113.905
 30
0.0
 11
170.225
 21
113.905
 31
0.0
  0
LINE
  8
0
  6
CONTINUOUS
 62
     7
 10
165.5
 20
118.945
 30
0.0
 11
167.768
 21
118.945
 31
0.0
  0
LINE
  8
0
  6
CONTINUOUS
 62
     7
 10
165.5
 20
118.945
 30
0.0
 11
166.634
 21
116.425
 31
0.0
  0
LINE
  8
0
  6
CONTINUOUS
 62
     7
 10
166.634
 20
116.425
 30
0.0
 11
167.768
 21
118.945
 31
0.0
  0
LINE
  8
0
  6
CONTINUOUS
 62
     7
 10
165.5
 20
123.355
 30
0.0
 11
167.768
 21
123.355
 31
0.0
  0
LINE
  8
0
  6
CONTINUOUS
 62
     7
 10
165.5
 20
123.355
 30
0.0
 11
166.634
 21
125.875
 31
0.0
  0
LINE
  8
0
  6
CONTINUOUS
 62
     7
 10
166.634
 20
125.875
 30
0.0
 11
167.768
 21
123.355
 31
0.0
  0
LINE
  8
0
  6
CONTINUOUS
 62
     7
 10
162.35
 20
129.34
 30
0.0
 11
151.64
 21
129.34
 31
0.0
  0
LINE
  8
0
  6
CONTINUOUS
 62
     7
 10
173.06
 20
129.34
 30
0.0
 11
173.06
 21
128.395
 31
0.0
  0
LINE
  8
0
  6
CONTINUOUS
 62
     7
 10
173.06
 20
129.34
 30
0.0
 11
162.35
 21
129.34
 31
0.0
  0
LINE
  8
0
  6
CONTINUOUS
 62
     7
 10
151.64
 20
129.34
 30
0.0
 11
151.64
 21
128.395
 31
0.0
  0
LINE
  8
0
  6
CONTINUOUS
 62
     7
 10
149.435
 20
108.235
 30
0.0
 11
149.435
 21
151.705
 31
0.0
  0
LINE
  8
0
  6
CONTINUOUS
 62
     7
 10
175.265
 20
151.705
 30
0.0
 11
175.265
 21
108.235
 31
0.0
  0
ARC
  8
0
  6
CONTINUOUS
 62
     7
 10
155.105
 20
146.35
 30
0.0
 40
0.315
 50
90.0
 51
180.0
  0
LINE
  8
0
  6
CONTINUOUS
 62
     7
 10
155.105
 20
146.665
 30
0.0
 11
169.595
 21
146.665
 31
0.0
  0
ARC
  8
0
  6
CONTINUOUS
 62
     7
 10
169.595
 20
146.35
 30
0.0
 40
0.315
 50
0.0
 51
90.0
  0
LINE
  8
0
  6
CONTINUOUS
 62
     7
 10
169.91
 20
146.35
 30
0.0
 11
169.91
 21
131.86
 31
0.0
  0
ARC
  8
0
  6
CONTINUOUS
 62
     7
 10
169.595
 20
131.86
 30
0.0
 40
0.315
 50
270.0
 51
0.0
  0
ARC
  8
0
  6
CONTINUOUS
 62
     7
 10
155.105
 20
131.86
 30
0.0
 40
0.315
 50
180.0
 51
270.0
  0
LINE
  8
0
  6
CONTINUOUS
 62
     7
 10
154.79
 20
131.86
 30
0.0
 11
154.79
 21
146.35
 31
0.0
  0
LINE
  8
0
  6
CONTINUOUS
 62
     7
 10
169.595
 20
131.545
 30
0.0
 11
155.105
 21
131.545
 31
0.0
  0
LINE
  8
0
  6
CONTINUOUS
 62
     7
 10
160.46
 20
127.135
 30
0.0
 11
155.735
 21
127.135
 31
0.0
  0
ARC
  8
0
  6
CONTINUOUS
 62
     7
 10
155.735
 20
126.505
 30
0.0
 40
0.63
 50
90.0
 51
180.0
  0
LINE
  8
0
  6
CONTINUOUS
 62
     7
 10
155.105
 20
126.505
 30
0.0
 11
155.105
 21
122.41
 31
0.0
  0
ARC
  8
0
  6
CONTINUOUS
 62
     7
 10
155.735
 20
122.41
 30
0.0
 40
0.63
 50
180.0
 51
270.0
  0
LINE
  8
0
  6
CONTINUOUS
 62
     7
 10
155.735
 20
121.78
 30
0.0
 11
160.46
 21
121.78
 31
0.0
  0
ARC
  8
0
  6
CONTINUOUS
 62
     7
 10
160.46
 20
122.41
 30
0.0
 40
0.63
 50
270.0
 51
0.0
  0
LINE
  8
0
  6
CONTINUOUS
 62
     7
 10
161.09
 20
122.41
 30
0.0
 11
161.09
 21
126.505
 31
0.0
  0
ARC
  8
0
  6
CONTINUOUS
 62
     7
 10
160.46
 20
126.505
 30
0.0
 40
0.63
 50
0.0
 51
90.0
  0
LINE
  8
0
  6
CONTINUOUS
 62
     7
 10
168.965
 20
127.135
 30
0.0
 11
164.24
 21
127.135
 31
0.0
  0
ARC
  8
0
  6
CONTINUOUS
 62
     7
 10
164.24
 20
126.505
 30
0.0
 40
0.63
 50
90.0
 51
180.0
  0
LINE
  8
0
  6
CONTINUOUS
 62
     7
 10
163.61
 20
126.505
 30
0.0
 11
163.61
 21
122.41
 31
0.0
  0
ARC
  8
0
  6
CONTINUOUS
 62
     7
 10
164.24
 20
122.41
 30
0.0
 40
0.63
 50
180.0
 51
270.0
  0
LINE
  8
0
  6
CONTINUOUS
 62
     7
 10
164.24
 20
121.78
 30
0.0
 11
168.965
 21
121.78
 31
0.0
  0
ARC
  8
0
  6
CONTINUOUS
 62
     7
 10
168.965
 20
122.41
 30
0.0
 40
0.63
 50
270.0
 51
0.0
  0
LINE
  8
0
  6
CONTINUOUS
 62
     7
 10
169.595
 20
122.41
 30
0.0
 11
169.595
 21
126.505
 31
0.0
  0
ARC
  8
0
  6
CONTINUOUS
 62
     7
 10
168.965
 20
126.505
 30
0.0
 40
0.63
 50
0.0
 51
90.0
  0
LINE
  8
0
  6
CONTINUOUS
 62
     7
 10
168.965
 20
120.52
 30
0.0
 11
164.24
 21
120.52
 31
0.0
  0
ARC
  8
0
  6
CONTINUOUS
 62
     7
 10
164.24
 20
119.89
 30
0.0
 40
0.63
 50
90.0
 51
180.0
  0
LINE
  8
0
  6
CONTINUOUS
 62
     7
 10
163.61
 20
119.89
 30
0.0
 11
163.61
 21
115.795
 31
0.0
  0
ARC
  8
0
  6
CONTINUOUS
 62
     7
 10
164.24
 20
115.795
 30
0.0
 40
0.63
 50
180.0
 51
270.0
  0
LINE
  8
0
  6
CONTINUOUS
 62
     7
 10
164.24
 20
115.165
 30
0.0
 11
168.965
 21
115.165
 31
0.0
  0
ARC
  8
0
  6
CONTINUOUS
 62
     7
 10
168.965
 20
115.795
 30
0.0
 40
0.63
 50
270.0
 51
0.0
  0
LINE
  8
0
  6
CONTINUOUS
 62
     7
 10
169.595
 20
115.795
 30
0.0
 11
169.595
 21
119.89
 31
0.0
  0
ARC
  8
0
  6
CONTINUOUS
 62
     7
 10
168.965
 20
119.89
 30
0.0
 40
0.63
 50
0.0
 51
90.0
  0
LINE
  8
0
  6
CONTINUOUS
 62
     7
 10
160.46
 20
120.52
 30
0.0
 11
155.735
 21
120.52
 31
0.0
  0
ARC
  8
0
  6
CONTINUOUS
 62
     7
 10
155.735
 20
119.89
 30
0.0
 40
0.63
 50
90.0
 51
180.0
  0
LINE
  8
0
  6
CONTINUOUS
 62
     7
 10
155.105
 20
119.89
 30
0.0
 11
155.105
 21
115.795
 31
0.0
  0
ARC
  8
0
  6
CONTINUOUS
 62
     7
 10
155.735
 20
115.795
 30
0.0
 40
0.63
 50
180.0
 51
270.0
  0
LINE
  8
0
  6
CONTINUOUS
 62
     7
 10
155.735
 20
115.165
 30
0.0
 11
160.46
 21
115.165
 31
0.0
  0
ARC
  8
0
  6
CONTINUOUS
 62
     7
 10
160.46
 20
115.795
 30
0.0
 40
0.63
 50
270.0
 51
0.0
  0
LINE
  8
0
  6
CONTINUOUS
 62
     7
 10
161.09
 20
115.795
 30
0.0
 11
161.09
 21
119.89
 31
0.0
  0
ARC
  8
0
  6
CONTINUOUS
 62
     7
 10
160.46
 20
119.89
 30
0.0
 40
0.63
 50
0.0
 51
90.0
  0
LINE
  8
0
  6
CONTINUOUS
 62
     7
 10
170.54
 20
141.94
 30
0.0
 11
174.95
 21
141.94
 31
0.0
  0
LINE
  8
0
  6
CONTINUOUS
 62
     7
 10
174.95
 20
141.94
 30
0.0
 11
174.95
 21
139.42
 31
0.0
  0
LINE
  8
0
  6
CONTINUOUS
 62
     7
 10
174.95
 20
139.42
 30
0.0
 11
170.54
 21
139.42
 31
0.0
  0
LINE
  8
0
  6
CONTINUOUS
 62
     7
 10
170.54
 20
139.42
 30
0.0
 11
170.54
 21
141.94
 31
0.0
  0
POINT
  8
0
  6
CONTINUOUS
 62
     7
 10
174.95
 20
141.94
 30
0.0
  0
LINE
  8
0
  6
CONTINUOUS
 62
     7
 10
174.32
 20
141.94
 30
0.0
 11
174.95
 21
141.31
 31
0.0
  0
LINE
  8
0
  6
CONTINUOUS
 62
     7
 10
173.69
 20
141.94
 30
0.0
 11
174.95
 21
140.68
 31
0.0
  0
LINE
  8
0
  6
CONTINUOUS
 62
     7
 10
173.06
 20
141.94
 30
0.0
 11
174.95
 21
140.05
 31
0.0
  0
LINE
  8
0
  6
CONTINUOUS
 62
     7
 10
172.43
 20
141.94
 30
0.0
 11
174.95
 21
139.42
 31
0.0
  0
LINE
  8
0
  6
CONTINUOUS
 62
     7
 10
171.8
 20
141.94
 30
0.0
 11
174.32
 21
139.42
 31
0.0
  0
LINE
  8
0
  6
CONTINUOUS
 62
     7
 10
171.17
 20
141.94
 30
0.0
 11
173.69
 21
139.42
 31
0.0
  0
LINE
  8
0
  6
CONTINUOUS
 62
     7
 10
170.54
 20
141.94
 30
0.0
 11
173.06
 21
139.42
 31
0.0
  0
LINE
  8
0
  6
CONTINUOUS
 62
     7
 10
170.54
 20
141.31
 30
0.0
 11
172.43
 21
139.42
 31
0.0
  0
LINE
  8
0
  6
CONTINUOUS
 62
     7
 10
170.54
 20
140.68
 30
0.0
 11
171.8
 21
139.42
 31
0.0
  0
LINE
  8
0
  6
CONTINUOUS
 62
     7
 10
170.54
 20
140.05
 30
0.0
 11
171.17
 21
139.42
 31
0.0
  0
LINE
  8
0
  6
CONTINUOUS
 62
     7
 10
223.46
 20
154.54
 30
0.0
 11
234.8
 21
154.54
 31
0.0
  0
LINE
  8
0
  6
CONTINUOUS
 62
     7
 10
223.46
 20
105.4
 30
0.0
 11
234.8
 21
105.4
 31
0.0
  0
TEXT
  8
0
  6
CONTINUOUS
 62
     7
 10
232.91
 20
128.71
 30
0.0
 40
1.89
  1
７
 50
90.0
 41
0.666
 51
0.0
  7
KANJI2
  0
TEXT
  8
0
  6
CONTINUOUS
 62
     7
 10
232.91
 20
129.97
 30
0.0
 40
1.89
  1
８
 50
90.0
 41
0.666
 51
0.0
  7
KANJI2
  0
LINE
  8
0
  6
CONTINUOUS
 62
     7
 10
233.54
 20
154.54
 30
0.0
 11
233.54
 21
105.4
 31
0.0
  0
LINE
  8
0
  6
CONTINUOUS
 62
     7
 10
233.866088
 20
153.322903
 30
0.0
 11
233.54
 21
154.54
 31
0.0
  0
LINE
  8
0
  6
CONTINUOUS
 62
     7
 10
233.54
 20
154.54
 30
0.0
 11
233.213912
 21
153.322903
 31
0.0
  0
LINE
  8
0
  6
CONTINUOUS
 62
     7
 10
233.213912
 20
106.617097
 30
0.0
 11
233.54
 21
105.4
 31
0.0
  0
LINE
  8
0
  6
CONTINUOUS
 62
     7
 10
233.54
 20
105.4
 30
0.0
 11
233.866088
 21
106.617097
 31
0.0
  0
TEXT
  8
0
  6
CONTINUOUS
 62
     7
 10
237.95
 20
150.76
 30
0.0
 40
2.52
  1
単
 50
0.0
 41
0.75
 51
0.0
  7
KANJI8
  0
TEXT
  8
0
  6
CONTINUOUS
 62
     7
 10
239.84
 20
150.76
 30
0.0
 40
2.52
  1
位
 50
0.0
 41
0.75
 51
0.0
  7
KANJI8
  0
TEXT
  8
0
  6
CONTINUOUS
 62
     7
 10
241.73
 20
150.76
 30
0.0
 40
2.52
  1
表
 50
0.0
 41
0.75
 51
0.0
  7
KANJI8
  0
TEXT
  8
0
  6
CONTINUOUS
 62
     7
 10
243.62
 20
150.76
 30
0.0
 40
2.52
  1
示
 50
0.0
 41
0.75
 51
0.0
  7
KANJI8
  0
TEXT
  8
0
  6
CONTINUOUS
 62
     7
 10
237.95
 20
146.98
 30
0.0
 40
2.52
  1
（
 50
0.0
 41
0.75
 51
0.0
  7
KANJI8
  0
TEXT
  8
0
  6
CONTINUOUS
 62
     7
 10
239.84
 20
146.98
 30
0.0
 40
2.52
  1
貼
 50
0.0
 41
0.75
 51
0.0
  7
KANJI8
  0
TEXT
  8
0
  6
CONTINUOUS
 62
     7
 10
241.73
 20
146.98
 30
0.0
 40
2.52
  1
り
 50
0.0
 41
0.75
 51
0.0
  7
KANJI8
  0
TEXT
  8
0
  6
CONTINUOUS
 62
     7
 10
243.62
 20
146.98
 30
0.0
 40
2.52
  1
ラ
 50
0.0
 41
0.75
 51
0.0
  7
KANJI8
  0
TEXT
  8
0
  6
CONTINUOUS
 62
     7
 10
245.51
 20
146.98
 30
0.0
 40
2.52
  1
ベ
 50
0.0
 41
0.75
 51
0.0
  7
KANJI8
  0
TEXT
  8
0
  6
CONTINUOUS
 62
     7
 10
247.4
 20
146.98
 30
0.0
 40
2.52
  1
ル
 50
0.0
 41
0.75
 51
0.0
  7
KANJI8
  0
TEXT
  8
0
  6
CONTINUOUS
 62
     7
 10
249.29
 20
146.98
 30
0.0
 40
2.52
  1
）
 50
0.0
 41
0.75
 51
0.0
  7
KANJI8
  0
LINE
  8
0
  6
CONTINUOUS
 62
     7
 10
210.482
 20
109.495
 30
0.0
 11
215.522
 21
109.495
 31
0.0
  0
LINE
  8
0
  6
CONTINUOUS
 62
     7
 10
215.522
 20
109.495
 30
0.0
 11
215.522
 21
112.015
 31
0.0
  0
LINE
  8
0
  6
CONTINUOUS
 62
     7
 10
215.522
 20
112.015
 30
0.0
 11
210.482
 21
112.015
 31
0.0
  0
LINE
  8
0
  6
CONTINUOUS
 62
     7
 10
210.482
 20
112.015
 30
0.0
 11
210.482
 21
109.495
 31
0.0
  0
LINE
  8
0
  6
CONTINUOUS
 62
     7
 10
210.482
 20
112.015
 30
0.0
 11
211.805
 21
111.385
 31
0.0
  0
LINE
  8
0
  6
CONTINUOUS
 62
     7
 10
215.522
 20
112.015
 30
0.0
 11
214.199
 21
111.385
 31
0.0
  0
LINE
  8
0
  6
CONTINUOUS
 62
     7
 10
210.482
 20
109.495
 30
0.0
 11
211.805
 21
110.125
 31
0.0
  0
LINE
  8
0
  6
CONTINUOUS
 62
     7
 10
214.199
 20
110.125
 30
0.0
 11
215.522
 21
109.495
 31
0.0
  0
LINE
  8
0
  6
CONTINUOUS
 62
     7
 10
190.7
 20
155.8
 30
0.0
 11
190.7
 21
167.14
 31
0.0
  0
LINE
  8
0
  6
CONTINUOUS
 62
     7
 10
222.2
 20
167.14
 30
0.0
 11
222.2
 21
155.8
 31
0.0
  0
LINE
  8
0
  6
CONTINUOUS
 62
     7
 10
190.7
 20
165.88
 30
0.0
 11
222.2
 21
165.88
 31
0.0
  0
LINE
  8
0
  6
CONTINUOUS
 62
     7
 10
191.917097
 20
166.206088
 30
0.0
 11
190.7
 21
165.88
 31
0.0
  0
LINE
  8
0
  6
CONTINUOUS
 62
     7
 10
190.7
 20
165.88
 30
0.0
 11
191.917097
 21
165.553912
 31
0.0
  0
LINE
  8
0
  6
CONTINUOUS
 62
     7
 10
220.982903
 20
165.553912
 30
0.0
 11
222.2
 21
165.88
 31
0.0
  0
LINE
  8
0
  6
CONTINUOUS
 62
     7
 10
222.2
 20
165.88
 30
0.0
 11
220.982903
 21
166.206088
 31
0.0
  0
TEXT
  8
0
  6
CONTINUOUS
 62
     7
 10
205.19
 20
166.51
 30
0.0
 40
1.89
  1
５
 50
0.0
 41
0.666
 51
0.0
  7
KANJI2
  0
TEXT
  8
0
  6
CONTINUOUS
 62
     7
 10
206.45
 20
166.51
 30
0.0
 40
1.89
  1
０
 50
0.0
 41
0.666
 51
0.0
  7
KANJI2
  0
ARC
  8
0
  6
CONTINUOUS
 62
     7
 10
190.826
 20
154.414
 30
0.0
 40
0.126
 50
90.0
 51
180.0
  0
ARC
  8
0
  6
CONTINUOUS
 62
     7
 10
190.826
 20
105.526
 30
0.0
 40
0.126
 50
180.0
 51
270.0
  0
ARC
  8
0
  6
CONTINUOUS
 62
     7
 10
222.074
 20
105.526
 30
0.0
 40
0.126
 50
270.0
 51
0.0
  0
ARC
  8
0
  6
CONTINUOUS
 62
     7
 10
222.074
 20
154.414
 30
0.0
 40
0.126
 50
0.0
 51
90.0
  0
ARC
  8
0
  6
CONTINUOUS
 62
     7
 10
191.456
 20
106.156
 30
0.0
 40
0.126
 50
166.0
 51
270.0
  0
ARC
  8
0
  6
CONTINUOUS
 62
     7
 10
221.444
 20
106.156
 30
0.0
 40
0.126
 50
270.0
 51
0.0
  0
ARC
  8
0
  6
CONTINUOUS
 62
     7
 10
221.444
 20
106.156
 30
0.0
 40
0.126
 50
0.0
 51
14.0
  0
ARC
  8
0
  6
CONTINUOUS
 62
     7
 10
221.444
 20
153.784
 30
0.0
 40
0.126
 50
346.0
 51
0.0
  0
ARC
  8
0
  6
CONTINUOUS
 62
     7
 10
221.444
 20
153.784
 30
0.0
 40
0.126
 50
0.0
 51
90.0
  0
ARC
  8
0
  6
CONTINUOUS
 62
     7
 10
191.456
 20
153.784
 30
0.0
 40
0.126
 50
90.0
 51
194.0
  0
LINE
  8
0
  6
CONTINUOUS
 62
     7
 10
191.456
 20
153.91
 30
0.0
 11
221.444
 21
153.91
 31
0.0
  0
LINE
  8
0
  6
CONTINUOUS
 62
     7
 10
221.57
 20
153.784
 30
0.0
 11
221.57
 21
106.156
 31
0.0
  0
LINE
  8
0
  6
CONTINUOUS
 62
     7
 10
191.33
 20
106.156
 30
0.0
 11
191.33
 21
153.784
 31
0.0
  0
LINE
  8
0
  6
CONTINUOUS
 62
     7
 10
219.365
 20
108.235
 30
0.0
 11
193.535
 21
108.235
 31
0.0
  0
LINE
  8
0
  6
CONTINUOUS
 62
     7
 10
222.2
 20
105.526
 30
0.0
 11
222.2
 21
154.414
 31
0.0
  0
LINE
  8
0
  6
CONTINUOUS
 62
     7
 10
222.074
 20
154.54
 30
0.0
 11
190.826
 21
154.54
 31
0.0
  0
LINE
  8
0
  6
CONTINUOUS
 62
     7
 10
190.7
 20
154.414
 30
0.0
 11
190.7
 21
105.526
 31
0.0
  0
LINE
  8
0
  6
CONTINUOUS
 62
     7
 10
190.826
 20
105.4
 30
0.0
 11
222.074
 21
105.4
 31
0.0
  0
LINE
  8
0
  6
CONTINUOUS
 62
     7
 10
221.444
 20
106.03
 30
0.0
 11
191.456
 21
106.03
 31
0.0
  0
LINE
  8
0
  6
CONTINUOUS
 62
     7
 10
193.535
 20
151.705
 30
0.0
 11
219.365
 21
151.705
 31
0.0
  0
LINE
  8
0
  6
CONTINUOUS
 62
     7
 10
208.025
 20
108.235
 30
0.0
 11
208.025
 21
112.645
 31
0.0
  0
LINE
  8
0
  6
CONTINUOUS
 62
     7
 10
208.025
 20
112.645
 30
0.0
 11
219.365
 21
112.645
 31
0.0
  0
LINE
  8
0
  6
CONTINUOUS
 62
     7
 10
211.805
 20
110.125
 30
0.0
 11
214.199
 21
110.125
 31
0.0
  0
LINE
  8
0
  6
CONTINUOUS
 62
     7
 10
214.199
 20
111.385
 30
0.0
 11
214.199
 21
110.125
 31
0.0
  0
LINE
  8
0
  6
CONTINUOUS
 62
     7
 10
211.805
 20
111.385
 30
0.0
 11
214.199
 21
111.385
 31
0.0
  0
LINE
  8
0
  6
CONTINUOUS
 62
     7
 10
211.805
 20
111.385
 30
0.0
 11
211.805
 21
110.125
 31
0.0
  0
LINE
  8
0
  6
CONTINUOUS
 62
     7
 10
211.994
 20
111.196
 30
0.0
 11
212.939
 21
111.196
 31
0.0
  0
LINE
  8
0
  6
CONTINUOUS
 62
     7
 10
212.939
 20
111.196
 30
0.0
 11
212.939
 21
110.251
 31
0.0
  0
LINE
  8
0
  6
CONTINUOUS
 62
     7
 10
212.939
 20
110.251
 30
0.0
 11
211.994
 21
110.251
 31
0.0
  0
LINE
  8
0
  6
CONTINUOUS
 62
     7
 10
211.994
 20
110.251
 30
0.0
 11
211.994
 21
111.196
 31
0.0
  0
LINE
  8
0
  6
CONTINUOUS
 62
     7
 10
195.823979
 20
150.76
 30
0.0
 11
194.795
 21
150.301801
 31
0.0
  0
LINE
  8
0
  6
CONTINUOUS
 62
     7
 10
195.971021
 20
150.76
 30
0.0
 11
197.0
 21
150.301801
 31
0.0
  0
LINE
  8
0
  6
CONTINUOUS
 62
     7
 10
197.0
 20
150.210199
 30
0.0
 11
195.971021
 21
149.752
 31
0.0
  0
LINE
  8
0
  6
CONTINUOUS
 62
     7
 10
195.971021
 20
150.301801
 30
0.0
 11
196.485479
 21
150.530932
 31
0.0
  0
LINE
  8
0
  6
CONTINUOUS
 62
     7
 10
195.971021
 20
150.210199
 30
0.0
 11
196.485479
 21
149.981068
 31
0.0
  0
LINE
  8
0
  6
CONTINUOUS
 62
     7
 10
195.823979
 20
150.210199
 30
0.0
 11
195.309521
 21
149.981068
 31
0.0
  0
LINE
  8
0
  6
CONTINUOUS
 62
     7
 10
195.823979
 20
150.301801
 30
0.0
 11
195.309521
 21
150.530932
 31
0.0
  0
LINE
  8
0
  6
CONTINUOUS
 62
     7
 10
195.823979
 20
149.752
 30
0.0
 11
194.795
 21
150.210199
 31
0.0
  0
TEXT
  8
0
  6
CONTINUOUS
 62
     7
 10
197.63
 20
149.626
 30
0.0
 40
1.26
  1
Ｔ
 50
0.0
 41
0.75
 51
0.0
  7
KANJI4
  0
TEXT
  8
0
  6
CONTINUOUS
 62
     7
 10
198.575
 20
149.626
 30
0.0
 40
1.26
  1
Ｏ
 50
0.0
 41
0.75
 51
0.0
  7
KANJI4
  0
TEXT
  8
0
  6
CONTINUOUS
 62
     7
 10
199.52
 20
149.626
 30
0.0
 40
1.26
  1
Ｙ
 50
0.0
 41
0.75
 51
0.0
  7
KANJI4
  0
TEXT
  8
0
  6
CONTINUOUS
 62
     7
 10
200.465
 20
149.626
 30
0.0
 40
1.26
  1
Ｏ
 50
0.0
 41
0.75
 51
0.0
  7
KANJI4
  0
TEXT
  8
0
  6
CONTINUOUS
 62
     7
 10
201.725
 20
149.626
 30
0.0
 40
1.26
  1
Ｋ
 50
0.0
 41
0.75
 51
0.0
  7
KANJI4
  0
TEXT
  8
0
  6
CONTINUOUS
 62
     7
 10
202.67
 20
149.626
 30
0.0
 40
1.26
  1
Ｅ
 50
0.0
 41
0.75
 51
0.0
  7
KANJI4
  0
TEXT
  8
0
  6
CONTINUOUS
 62
     7
 10
203.615
 20
149.626
 30
0.0
 40
1.26
  1
Ｉ
 50
0.0
 41
0.75
 51
0.0
  7
KANJI4
  0
TEXT
  8
0
  6
CONTINUOUS
 62
     7
 10
204.56
 20
149.626
 30
0.0
 40
1.26
  1
Ｋ
 50
0.0
 41
0.75
 51
0.0
  7
KANJI4
  0
TEXT
  8
0
  6
CONTINUOUS
 62
     7
 10
205.505
 20
149.626
 30
0.0
 40
1.26
  1
Ｉ
 50
0.0
 41
0.75
 51
0.0
  7
KANJI4
  0
TEXT
  8
0
  6
CONTINUOUS
 62
     7
 10
205.82
 20
146.98
 30
0.0
 40
2.205
  1
Ｓ
 50
0.0
 41
0.857
 51
0.0
  7
KANJI6
  0
TEXT
  8
0
  6
CONTINUOUS
 62
     7
 10
207.71
 20
146.98
 30
0.0
 40
2.205
  1
Ｅ
 50
0.0
 41
0.857
 51
0.0
  7
KANJI6
  0
TEXT
  8
0
  6
CONTINUOUS
 62
     7
 10
209.6
 20
146.98
 30
0.0
 40
2.205
  1
Ｔ
 50
0.0
 41
0.857
 51
0.0
  7
KANJI6
  0
TEXT
  8
0
  6
CONTINUOUS
 62
     7
 10
211.49
 20
146.98
 30
0.0
 40
2.205
  1
Ｔ
 50
0.0
 41
0.857
 51
0.0
  7
KANJI6
  0
TEXT
  8
0
  6
CONTINUOUS
 62
     7
 10
213.38
 20
146.98
 30
0.0
 40
2.205
  1
Ｅ
 50
0.0
 41
0.857
 51
0.0
  7
KANJI6
  0
TEXT
  8
0
  6
CONTINUOUS
 62
     7
 10
215.27
 20
146.98
 30
0.0
 40
2.205
  1
Ｒ
 50
0.0
 41
0.857
 51
0.0
  7
KANJI6
  0
TEXT
  8
0
  6
CONTINUOUS
 62
     7
 10
195.425
 20
146.98
 30
0.0
 40
2.205
  1
Ａ
 50
0.0
 41
0.857
 51
0.0
  7
KANJI6
  0
TEXT
  8
0
  6
CONTINUOUS
 62
     7
 10
197.315
 20
146.98
 30
0.0
 40
2.205
  1
Ｌ
 50
0.0
 41
0.857
 51
0.0
  7
KANJI6
  0
TEXT
  8
0
  6
CONTINUOUS
 62
     7
 10
199.205
 20
146.98
 30
0.0
 40
2.205
  1
Ａ
 50
0.0
 41
0.857
 51
0.0
  7
KANJI6
  0
TEXT
  8
0
  6
CONTINUOUS
 62
     7
 10
201.095
 20
146.98
 30
0.0
 40
2.205
  1
Ｒ
 50
0.0
 41
0.857
 51
0.0
  7
KANJI6
  0
TEXT
  8
0
  6
CONTINUOUS
 62
     7
 10
202.985
 20
146.98
 30
0.0
 40
2.205
  1
Ｍ
 50
0.0
 41
0.857
 51
0.0
  7
KANJI6
  0
TEXT
  8
0
  6
CONTINUOUS
 62
     7
 10
200.465
 20
123.67
 30
0.0
 40
1.26
  1
Ｍ
 50
0.0
 41
1.0
 51
0.0
  7
KANJI7
  0
TEXT
  8
0
  6
CONTINUOUS
 62
     7
 10
201.725
 20
123.67
 30
0.0
 40
1.26
  1
Ｏ
 50
0.0
 41
1.0
 51
0.0
  7
KANJI7
  0
TEXT
  8
0
  6
CONTINUOUS
 62
     7
 10
202.985
 20
123.67
 30
0.0
 40
1.26
  1
Ｄ
 50
0.0
 41
1.0
 51
0.0
  7
KANJI7
  0
TEXT
  8
0
  6
CONTINUOUS
 62
     7
 10
200.465
 20
117.055
 30
0.0
 40
1.26
  1
Ｅ
 50
0.0
 41
1.0
 51
0.0
  7
KANJI7
  0
TEXT
  8
0
  6
CONTINUOUS
 62
     7
 10
201.725
 20
117.055
 30
0.0
 40
1.26
  1
Ｎ
 50
0.0
 41
1.0
 51
0.0
  7
KANJI7
  0
TEXT
  8
0
  6
CONTINUOUS
 62
     7
 10
202.985
 20
117.055
 30
0.0
 40
1.26
  1
Ｔ
 50
0.0
 41
1.0
 51
0.0
  7
KANJI7
  0
TEXT
  8
0
  6
CONTINUOUS
 62
     7
 10
207.395
 20
113.275
 30
0.0
 40
1.26
  1
Ｆ
 50
0.0
 41
0.75
 51
0.0
  7
KANJI4
  0
TEXT
  8
0
  6
CONTINUOUS
 62
     7
 10
208.34
 20
113.275
 30
0.0
 40
1.26
  1
Ｒ
 50
0.0
 41
0.75
 51
0.0
  7
KANJI4
  0
TEXT
  8
0
  6
CONTINUOUS
 62
     7
 10
209.285
 20
113.275
 30
0.0
 40
1.26
  1
Ｅ
 50
0.0
 41
0.75
 51
0.0
  7
KANJI4
  0
TEXT
  8
0
  6
CONTINUOUS
 62
     7
 10
210.23
 20
113.275
 30
0.0
 40
1.26
  1
Ｅ
 50
0.0
 41
0.75
 51
0.0
  7
KANJI4
  0
TEXT
  8
0
  6
CONTINUOUS
 62
     7
 10
214.64
 20
113.275
 30
0.0
 40
1.26
  1
Ｌ
 50
0.0
 41
0.75
 51
0.0
  7
KANJI4
  0
TEXT
  8
0
  6
CONTINUOUS
 62
     7
 10
215.585
 20
113.275
 30
0.0
 40
1.26
  1
Ｏ
 50
0.0
 41
0.75
 51
0.0
  7
KANJI4
  0
TEXT
  8
0
  6
CONTINUOUS
 62
     7
 10
216.53
 20
113.275
 30
0.0
 40
1.26
  1
Ｃ
 50
0.0
 41
0.75
 51
0.0
  7
KANJI4
  0
TEXT
  8
0
  6
CONTINUOUS
 62
     7
 10
217.475
 20
113.275
 30
0.0
 40
1.26
  1
Ｋ
 50
0.0
 41
0.75
 51
0.0
  7
KANJI4
  0
LINE
  8
0
  6
CONTINUOUS
 62
     7
 10
212.435
 20
112.645
 30
0.0
 11
212.435
 21
113.905
 31
0.0
  0
LINE
  8
0
  6
CONTINUOUS
 62
     7
 10
212.435
 20
113.905
 30
0.0
 11
211.49
 21
113.905
 31
0.0
  0
LINE
  8
0
  6
CONTINUOUS
 62
     7
 10
213.38
 20
112.645
 30
0.0
 11
213.38
 21
113.905
 31
0.0
  0
LINE
  8
0
  6
CONTINUOUS
 62
     7
 10
213.38
 20
113.905
 30
0.0
 11
214.325
 21
113.905
 31
0.0
  0
LINE
  8
0
  6
CONTINUOUS
 62
     7
 10
209.6
 20
118.945
 30
0.0
 11
211.868
 21
118.945
 31
0.0
  0
LINE
  8
0
  6
CONTINUOUS
 62
     7
 10
209.6
 20
118.945
 30
0.0
 11
210.734
 21
116.425
 31
0.0
  0
LINE
  8
0
  6
CONTINUOUS
 62
     7
 10
210.734
 20
116.425
 30
0.0
 11
211.868
 21
118.945
 31
0.0
  0
LINE
  8
0
  6
CONTINUOUS
 62
     7
 10
209.6
 20
123.355
 30
0.0
 11
211.868
 21
123.355
 31
0.0
  0
LINE
  8
0
  6
CONTINUOUS
 62
     7
 10
209.6
 20
123.355
 30
0.0
 11
210.734
 21
125.875
 31
0.0
  0
LINE
  8
0
  6
CONTINUOUS
 62
     7
 10
210.734
 20
125.875
 30
0.0
 11
211.868
 21
123.355
 31
0.0
  0
LINE
  8
0
  6
CONTINUOUS
 62
     7
 10
206.45
 20
129.34
 30
0.0
 11
195.74
 21
129.34
 31
0.0
  0
LINE
  8
0
  6
CONTINUOUS
 62
     7
 10
217.16
 20
129.34
 30
0.0
 11
217.16
 21
128.395
 31
0.0
  0
LINE
  8
0
  6
CONTINUOUS
 62
     7
 10
217.16
 20
129.34
 30
0.0
 11
206.45
 21
129.34
 31
0.0
  0
LINE
  8
0
  6
CONTINUOUS
 62
     7
 10
195.74
 20
129.34
 30
0.0
 11
195.74
 21
128.395
 31
0.0
  0
LINE
  8
0
  6
CONTINUOUS
 62
     7
 10
193.535
 20
108.235
 30
0.0
 11
193.535
 21
151.705
 31
0.0
  0
LINE
  8
0
  6
CONTINUOUS
 62
     7
 10
219.365
 20
151.705
 30
0.0
 11
219.365
 21
108.235
 31
0.0
  0
ARC
  8
0
  6
CONTINUOUS
 62
     7
 10
199.205
 20
146.35
 30
0.0
 40
0.315
 50
90.0
 51
180.0
  0
LINE
  8
0
  6
CONTINUOUS
 62
     7
 10
199.205
 20
146.665
 30
0.0
 11
213.695
 21
146.665
 31
0.0
  0
ARC
  8
0
  6
CONTINUOUS
 62
     7
 10
213.695
 20
146.35
 30
0.0
 40
0.315
 50
0.0
 51
90.0
  0
LINE
  8
0
  6
CONTINUOUS
 62
     7
 10
214.01
 20
146.35
 30
0.0
 11
214.01
 21
131.86
 31
0.0
  0
ARC
  8
0
  6
CONTINUOUS
 62
     7
 10
213.695
 20
131.86
 30
0.0
 40
0.315
 50
270.0
 51
0.0
  0
ARC
  8
0
  6
CONTINUOUS
 62
     7
 10
199.205
 20
131.86
 30
0.0
 40
0.315
 50
180.0
 51
270.0
  0
LINE
  8
0
  6
CONTINUOUS
 62
     7
 10
198.89
 20
131.86
 30
0.0
 11
198.89
 21
146.35
 31
0.0
  0
LINE
  8
0
  6
CONTINUOUS
 62
     7
 10
213.695
 20
131.545
 30
0.0
 11
199.205
 21
131.545
 31
0.0
  0
LINE
  8
0
  6
CONTINUOUS
 62
     7
 10
204.56
 20
127.135
 30
0.0
 11
199.835
 21
127.135
 31
0.0
  0
ARC
  8
0
  6
CONTINUOUS
 62
     7
 10
199.835
 20
126.505
 30
0.0
 40
0.63
 50
90.0
 51
180.0
  0
LINE
  8
0
  6
CONTINUOUS
 62
     7
 10
199.205
 20
126.505
 30
0.0
 11
199.205
 21
122.41
 31
0.0
  0
ARC
  8
0
  6
CONTINUOUS
 62
     7
 10
199.835
 20
122.41
 30
0.0
 40
0.63
 50
180.0
 51
270.0
  0
LINE
  8
0
  6
CONTINUOUS
 62
     7
 10
199.835
 20
121.78
 30
0.0
 11
204.56
 21
121.78
 31
0.0
  0
ARC
  8
0
  6
CONTINUOUS
 62
     7
 10
204.56
 20
122.41
 30
0.0
 40
0.63
 50
270.0
 51
0.0
  0
LINE
  8
0
  6
CONTINUOUS
 62
     7
 10
205.19
 20
122.41
 30
0.0
 11
205.19
 21
126.505
 31
0.0
  0
ARC
  8
0
  6
CONTINUOUS
 62
     7
 10
204.56
 20
126.505
 30
0.0
 40
0.63
 50
0.0
 51
90.0
  0
LINE
  8
0
  6
CONTINUOUS
 62
     7
 10
213.065
 20
127.135
 30
0.0
 11
208.34
 21
127.135
 31
0.0
  0
ARC
  8
0
  6
CONTINUOUS
 62
     7
 10
208.34
 20
126.505
 30
0.0
 40
0.63
 50
90.0
 51
180.0
  0
LINE
  8
0
  6
CONTINUOUS
 62
     7
 10
207.71
 20
126.505
 30
0.0
 11
207.71
 21
122.41
 31
0.0
  0
ARC
  8
0
  6
CONTINUOUS
 62
     7
 10
208.34
 20
122.41
 30
0.0
 40
0.63
 50
180.0
 51
270.0
  0
LINE
  8
0
  6
CONTINUOUS
 62
     7
 10
208.34
 20
121.78
 30
0.0
 11
213.065
 21
121.78
 31
0.0
  0
ARC
  8
0
  6
CONTINUOUS
 62
     7
 10
213.065
 20
122.41
 30
0.0
 40
0.63
 50
270.0
 51
0.0
  0
LINE
  8
0
  6
CONTINUOUS
 62
     7
 10
213.695
 20
122.41
 30
0.0
 11
213.695
 21
126.505
 31
0.0
  0
ARC
  8
0
  6
CONTINUOUS
 62
     7
 10
213.065
 20
126.505
 30
0.0
 40
0.63
 50
0.0
 51
90.0
  0
LINE
  8
0
  6
CONTINUOUS
 62
     7
 10
213.065
 20
120.52
 30
0.0
 11
208.34
 21
120.52
 31
0.0
  0
ARC
  8
0
  6
CONTINUOUS
 62
     7
 10
208.34
 20
119.89
 30
0.0
 40
0.63
 50
90.0
 51
180.0
  0
LINE
  8
0
  6
CONTINUOUS
 62
     7
 10
207.71
 20
119.89
 30
0.0
 11
207.71
 21
115.795
 31
0.0
  0
ARC
  8
0
  6
CONTINUOUS
 62
     7
 10
208.34
 20
115.795
 30
0.0
 40
0.63
 50
180.0
 51
270.0
  0
LINE
  8
0
  6
CONTINUOUS
 62
     7
 10
208.34
 20
115.165
 30
0.0
 11
213.065
 21
115.165
 31
0.0
  0
ARC
  8
0
  6
CONTINUOUS
 62
     7
 10
213.065
 20
115.795
 30
0.0
 40
0.63
 50
270.0
 51
0.0
  0
LINE
  8
0
  6
CONTINUOUS
 62
     7
 10
213.695
 20
115.795
 30
0.0
 11
213.695
 21
119.89
 31
0.0
  0
ARC
  8
0
  6
CONTINUOUS
 62
     7
 10
213.065
 20
119.89
 30
0.0
 40
0.63
 50
0.0
 51
90.0
  0
LINE
  8
0
  6
CONTINUOUS
 62
     7
 10
204.56
 20
120.52
 30
0.0
 11
199.835
 21
120.52
 31
0.0
  0
ARC
  8
0
  6
CONTINUOUS
 62
     7
 10
199.835
 20
119.89
 30
0.0
 40
0.63
 50
90.0
 51
180.0
  0
LINE
  8
0
  6
CONTINUOUS
 62
     7
 10
199.205
 20
119.89
 30
0.0
 11
199.205
 21
115.795
 31
0.0
  0
ARC
  8
0
  6
CONTINUOUS
 62
     7
 10
199.835
 20
115.795
 30
0.0
 40
0.63
 50
180.0
 51
270.0
  0
LINE
  8
0
  6
CONTINUOUS
 62
     7
 10
199.835
 20
115.165
 30
0.0
 11
204.56
 21
115.165
 31
0.0
  0
ARC
  8
0
  6
CONTINUOUS
 62
     7
 10
204.56
 20
115.795
 30
0.0
 40
0.63
 50
270.0
 51
0.0
  0
LINE
  8
0
  6
CONTINUOUS
 62
     7
 10
205.19
 20
115.795
 30
0.0
 11
205.19
 21
119.89
 31
0.0
  0
ARC
  8
0
  6
CONTINUOUS
 62
     7
 10
204.56
 20
119.89
 30
0.0
 40
0.63
 50
0.0
 51
90.0
  0
LINE
  8
0
  6
CONTINUOUS
 62
     7
 10
214.64
 20
141.94
 30
0.0
 11
219.05
 21
141.94
 31
0.0
  0
LINE
  8
0
  6
CONTINUOUS
 62
     7
 10
219.05
 20
141.94
 30
0.0
 11
219.05
 21
139.42
 31
0.0
  0
LINE
  8
0
  6
CONTINUOUS
 62
     7
 10
219.05
 20
139.42
 30
0.0
 11
214.64
 21
139.42
 31
0.0
  0
LINE
  8
0
  6
CONTINUOUS
 62
     7
 10
214.64
 20
139.42
 30
0.0
 11
214.64
 21
141.94
 31
0.0
  0
POINT
  8
0
  6
CONTINUOUS
 62
     7
 10
219.05
 20
141.94
 30
0.0
  0
LINE
  8
0
  6
CONTINUOUS
 62
     7
 10
218.42
 20
141.94
 30
0.0
 11
219.05
 21
141.31
 31
0.0
  0
LINE
  8
0
  6
CONTINUOUS
 62
     7
 10
217.79
 20
141.94
 30
0.0
 11
219.05
 21
140.68
 31
0.0
  0
LINE
  8
0
  6
CONTINUOUS
 62
     7
 10
217.16
 20
141.94
 30
0.0
 11
219.05
 21
140.05
 31
0.0
  0
LINE
  8
0
  6
CONTINUOUS
 62
     7
 10
216.53
 20
141.94
 30
0.0
 11
219.05
 21
139.42
 31
0.0
  0
LINE
  8
0
  6
CONTINUOUS
 62
     7
 10
215.9
 20
141.94
 30
0.0
 11
218.42
 21
139.42
 31
0.0
  0
LINE
  8
0
  6
CONTINUOUS
 62
     7
 10
215.27
 20
141.94
 30
0.0
 11
217.79
 21
139.42
 31
0.0
  0
LINE
  8
0
  6
CONTINUOUS
 62
     7
 10
214.64
 20
141.94
 30
0.0
 11
217.16
 21
139.42
 31
0.0
  0
LINE
  8
0
  6
CONTINUOUS
 62
     7
 10
214.64
 20
141.31
 30
0.0
 11
216.53
 21
139.42
 31
0.0
  0
LINE
  8
0
  6
CONTINUOUS
 62
     7
 10
214.64
 20
140.68
 30
0.0
 11
215.9
 21
139.42
 31
0.0
  0
LINE
  8
0
  6
CONTINUOUS
 62
     7
 10
214.64
 20
140.05
 30
0.0
 11
215.27
 21
139.42
 31
0.0
  0
LINE
  8
0
  6
CONTINUOUS
 62
     7
 10
217.16
 20
140.68
 30
0.0
 11
237.32
 21
150.13
 31
0.0
  0
LINE
  8
0
  6
CONTINUOUS
 62
     7
 10
218.122388
 20
141.493267
 30
0.0
 11
217.16
 21
140.68
 31
0.0
  0
LINE
  8
0
  6
CONTINUOUS
 62
     7
 10
217.16
 20
140.68
 30
0.0
 11
218.400092
 21
140.903146
 31
0.0
  0
LINE
  8
0
  6
CONTINUOUS
 62
     7
 10
237.32
 20
150.13
 30
0.0
 11
249.92
 21
150.13
 31
0.0
  0
CIRCLE
  8
0
  6
CONTINUOUS
 62
     7
 10
204.56
 20
109.81
 30
0.0
 40
1.26
  0
CIRCLE
  8
0
  6
CONTINUOUS
 62
     7
 10
199.205
 20
109.81
 30
0.0
 40
1.26
  0
TEXT
  8
0
  6
CONTINUOUS
 62
     7
 10
197.0
 20
109.18
 30
0.0
 40
1.26
  1
３
 50
0.0
 41
0.5
 51
0.0
  7
KANJI9
  0
TEXT
  8
0
  6
CONTINUOUS
 62
     7
 10
206.135
 20
109.18
 30
0.0
 40
1.26
  1
４
 50
0.0
 41
0.5
 51
0.0
  7
KANJI9
  0
CIRCLE
  8
0
  6
CONTINUOUS
 62
     7
 10
204.56
 20
112.645
 30
0.0
 40
1.26
  0
CIRCLE
  8
0
  6
CONTINUOUS
 62
     7
 10
199.205
 20
112.645
 30
0.0
 40
1.26
  0
TEXT
  8
0
  6
CONTINUOUS
 62
     7
 10
200.465
 20
113.59
 30
0.0
 40
0.63
  1
Ｒ
 50
0.0
 41
1.0
 51
0.0
  7
KANJI10
  0
TEXT
  8
0
  6
CONTINUOUS
 62
     7
 10
201.095
 20
113.59
 30
0.0
 40
0.63
  1
Ｅ
 50
0.0
 41
1.0
 51
0.0
  7
KANJI10
  0
TEXT
  8
0
  6
CONTINUOUS
 62
     7
 10
201.725
 20
113.59
 30
0.0
 40
0.63
  1
Ｌ
 50
0.0
 41
1.0
 51
0.0
  7
KANJI10
  0
TEXT
  8
0
  6
CONTINUOUS
 62
     7
 10
202.355
 20
113.59
 30
0.0
 40
0.63
  1
Ａ
 50
0.0
 41
1.0
 51
0.0
  7
KANJI10
  0
TEXT
  8
0
  6
CONTINUOUS
 62
     7
 10
202.985
 20
113.59
 30
0.0
 40
0.63
  1
Ｙ
 50
0.0
 41
1.0
 51
0.0
  7
KANJI10
  0
TEXT
  8
0
  6
CONTINUOUS
 62
     7
 10
197.0
 20
112.015
 30
0.0
 40
1.26
  1
１
 50
0.0
 41
0.5
 51
0.0
  7
KANJI9
  0
TEXT
  8
0
  6
CONTINUOUS
 62
     7
 10
206.135
 20
112.015
 30
0.0
 40
1.26
  1
２
 50
0.0
 41
0.5
 51
0.0
  7
KANJI9
  0
CIRCLE
  8
0
  6
CONTINUOUS
 62
     7
 10
155.105
 20
112.645
 30
0.0
 40
1.26
  0
TEXT
  8
0
  6
CONTINUOUS
 62
     7
 10
152.9
 20
112.015
 30
0.0
 40
1.26
  1
１
 50
0.0
 41
0.5
 51
0.0
  7
KANJI9
  0
TEXT
  8
0
  6
CONTINUOUS
 62
     7
 10
162.035
 20
112.015
 30
0.0
 40
1.26
  1
２
 50
0.0
 41
0.5
 51
0.0
  7
KANJI9
  0
CIRCLE
  8
0
  6
CONTINUOUS
 62
     7
 10
160.46
 20
112.645
 30
0.0
 40
1.26
  0
TEXT
  8
0
  6
CONTINUOUS
 62
     7
 10
156.365
 20
109.495
 30
0.0
 40
0.63
  1
Ｒ
 50
0.0
 41
1.0
 51
0.0
  7
KANJI10
  0
TEXT
  8
0
  6
CONTINUOUS
 62
     7
 10
156.995
 20
109.495
 30
0.0
 40
0.63
  1
Ｅ
 50
0.0
 41
1.0
 51
0.0
  7
KANJI10
  0
TEXT
  8
0
  6
CONTINUOUS
 62
     7
 10
157.625
 20
109.495
 30
0.0
 40
0.63
  1
Ｌ
 50
0.0
 41
1.0
 51
0.0
  7
KANJI10
  0
TEXT
  8
0
  6
CONTINUOUS
 62
     7
 10
158.255
 20
109.495
 30
0.0
 40
0.63
  1
Ａ
 50
0.0
 41
1.0
 51
0.0
  7
KANJI10
  0
TEXT
  8
0
  6
CONTINUOUS
 62
     7
 10
158.885
 20
109.495
 30
0.0
 40
0.63
  1
Ｙ
 50
0.0
 41
1.0
 51
0.0
  7
KANJI10
  0
LINE
  8
0
  6
CONTINUOUS
 62
     7
 10
155.105
 20
110.44
 30
0.0
 11
160.46
 21
110.44
 31
0.0
  0
LINE
  8
0
  6
CONTINUOUS
 62
     7
 10
160.46
 20
110.44
 30
0.0
 11
160.46
 21
111.07
 31
0.0
  0
LINE
  8
0
  6
CONTINUOUS
 62
     7
 10
155.105
 20
110.44
 30
0.0
 11
155.105
 21
111.07
 31
0.0
  0
TEXT
  8
0
  6
CONTINUOUS
 62
     7
 10
156.68
 20
97.84
 30
0.0
 40
5.04
  1
２
 50
0.0
 41
0.5
 51
0.0
  7
KANJI11
  0
TEXT
  8
0
  6
CONTINUOUS
 62
     7
 10
159.2
 20
97.84
 30
0.0
 40
5.04
  1
接
 50
0.0
 41
0.5
 51
0.0
  7
KANJI11
  0
TEXT
  8
0
  6
CONTINUOUS
 62
     7
 10
161.72
 20
97.84
 30
0.0
 40
5.04
  1
点
 50
0.0
 41
0.5
 51
0.0
  7
KANJI11
  0
TEXT
  8
0
  6
CONTINUOUS
 62
     7
 10
164.24
 20
97.84
 30
0.0
 40
5.04
  1
形
 50
0.0
 41
0.5
 51
0.0
  7
KANJI11
  0
TEXT
  8
0
  6
CONTINUOUS
 62
     7
 10
202.04
 20
97.84
 30
0.0
 40
5.04
  1
４
 50
0.0
 41
0.5
 51
0.0
  7
KANJI11
  0
TEXT
  8
0
  6
CONTINUOUS
 62
     7
 10
204.56
 20
97.84
 30
0.0
 40
5.04
  1
接
 50
0.0
 41
0.5
 51
0.0
  7
KANJI11
  0
TEXT
  8
0
  6
CONTINUOUS
 62
     7
 10
207.08
 20
97.84
 30
0.0
 40
5.04
  1
点
 50
0.0
 41
0.5
 51
0.0
  7
KANJI11
  0
TEXT
  8
0
  6
CONTINUOUS
 62
     7
 10
209.6
 20
97.84
 30
0.0
 40
5.04
  1
形
 50
0.0
 41
0.5
 51
0.0
  7
KANJI11
  0
TEXT
  8
0
  6
CONTINUOUS
 62
     7
 10
156.365
 20
143.83
 30
0.0
 40
1.26
  1
Ｈ
 50
0.0
 41
0.75
 51
0.0
  7
KANJI4
  0
TEXT
  8
0
  6
CONTINUOUS
 62
     7
 10
157.31
 20
143.83
 30
0.0
 40
1.26
  1
Ｌ
 50
0.0
 41
0.75
 51
0.0
  7
KANJI4
  0
CIRCLE
  8
0
  6
CONTINUOUS
 62
     5
 10
160.761581
 20
139.852306
 30
0.0
 40
0.120456
  0
LINE
  8
0
  6
CONTINUOUS
 62
     5
 10
159.824456
 20
141.324931
 30
0.0
 11
159.32915
 21
141.324931
 31
0.0
  0
LINE
  8
0
  6
CONTINUOUS
 62
     5
 10
160.319825
 20
141.083956
 30
0.0
 11
159.824519
 21
141.083956
 31
0.0
  0
LINE
  8
0
  6
CONTINUOUS
 62
     5
 10
160.3466
 20
141.324931
 30
0.0
 11
159.824519
 21
141.324931
 31
0.0
  0
LINE
  8
0
  6
CONTINUOUS
 62
     5
 10
159.824456
 20
141.083956
 30
0.0
 11
159.302375
 21
141.083956
 31
0.0
  0
LINE
  8
0
  6
CONTINUOUS
 62
     5
 10
160.587575
 20
141.324931
 30
0.0
 11
160.74035
 21
142.411996
 31
0.0
  0
LINE
  8
0
  6
CONTINUOUS
 62
     5
 10
160.40015
 20
140.012956
 30
0.0
 11
160.564265
 21
141.084901
 31
0.0
  0
LINE
  8
0
  6
CONTINUOUS
 62
     5
 10
160.3466
 20
141.324931
 30
0.0
 11
160.5608
 21
141.084019
 31
0.0
  0
LINE
  8
0
  6
CONTINUOUS
 62
     5
 10
160.319825
 20
141.083956
 30
0.0
 11
160.587575
 21
141.324868
 31
0.0
  0
LINE
  8
0
  6
CONTINUOUS
 62
     5
 10
160.172531
 20
140.093281
 30
0.0
 11
160.306406
 21
139.94605
 31
0.0
  0
LINE
  8
0
  6
CONTINUOUS
 62
     5
 10
160.6679
 20
142.476256
 30
0.0
 11
160.493894
 21
142.329025
 31
0.0
  0
LINE
  8
0
  6
CONTINUOUS
 62
     5
 10
160.172531
 20
140.093281
 30
0.0
 11
160.325495
 21
141.085657
 31
0.0
  0
LINE
  8
0
  6
CONTINUOUS
 62
     5
 10
160.3466
 20
141.324931
 30
0.0
 11
160.488161
 21
142.332427
 31
0.0
  0
LINE
  8
0
  6
CONTINUOUS
 62
     5
 10
159.32915
 20
141.324931
 30
0.0
 11
159.2
 21
141.1966
 31
0.0
  0
LINE
  8
0
  6
CONTINUOUS
 62
     5
 10
159.2
 20
141.1966
 30
0.0
 11
159.302375
 21
141.084019
 31
0.0
  0
LINE
  8
0
  6
CONTINUOUS
 62
     5
 10
160.3088
 20
139.9366
 30
0.0
 11
160.400087
 21
140.012893
 31
0.0
  0
LINE
  8
0
  6
CONTINUOUS
 62
     5
 10
160.6742
 20
142.4692
 30
0.0
 11
160.734806
 21
142.409413
 31
0.0
  0
CIRCLE
  8
0
  6
CONTINUOUS
 62
     5
 10
162.912275
 20
139.852306
 30
0.0
 40
0.120456
  0
LINE
  8
0
  6
CONTINUOUS
 62
     5
 10
161.97515
 20
141.324931
 30
0.0
 11
161.479844
 21
141.324931
 31
0.0
  0
LINE
  8
0
  6
CONTINUOUS
 62
     5
 10
162.470519
 20
141.083956
 30
0.0
 11
161.975213
 21
141.083956
 31
0.0
  0
LINE
  8
0
  6
CONTINUOUS
 62
     5
 10
162.497294
 20
141.324931
 30
0.0
 11
161.975213
 21
141.324931
 31
0.0
  0
LINE
  8
0
  6
CONTINUOUS
 62
     5
 10
161.97515
 20
141.083956
 30
0.0
 11
161.453069
 21
141.083956
 31
0.0
  0
LINE
  8
0
  6
CONTINUOUS
 62
     5
 10
162.738269
 20
142.57
 30
0.0
 11
162.8855
 21
142.409413
 31
0.0
  0
LINE
  8
0
  6
CONTINUOUS
 62
     5
 10
162.738269
 20
141.324931
 30
0.0
 11
162.891044
 21
142.411996
 31
0.0
  0
LINE
  8
0
  6
CONTINUOUS
 62
     5
 10
161.586944
 20
142.57
 30
0.0
 11
161.372744
 21
142.395994
 31
0.0
  0
LINE
  8
0
  6
CONTINUOUS
 62
     5
 10
161.586944
 20
142.57
 30
0.0
 11
162.738269
 21
142.57
 31
0.0
  0
LINE
  8
0
  6
CONTINUOUS
 62
     5
 10
161.238869
 20
141.324931
 30
0.0
 11
161.376461
 21
142.400593
 31
0.0
  0
LINE
  8
0
  6
CONTINUOUS
 62
     5
 10
161.479844
 20
141.324931
 30
0.0
 11
161.608175
 21
142.334317
 31
0.0
  0
LINE
  8
0
  6
CONTINUOUS
 62
     5
 10
161.305775
 20
140.093281
 30
0.0
 11
161.458739
 21
141.085657
 31
0.0
  0
LINE
  8
0
  6
CONTINUOUS
 62
     5
 10
161.479844
 20
141.324931
 30
0.0
 11
161.212094
 21
141.084019
 31
0.0
  0
LINE
  8
0
  6
CONTINUOUS
 62
     5
 10
161.238869
 20
141.324931
 30
0.0
 11
161.453069
 21
141.084019
 31
0.0
  0
LINE
  8
0
  6
CONTINUOUS
 62
     5
 10
161.0648
 20
140.012956
 30
0.0
 11
161.22545
 21
139.852369
 31
0.0
  0
LINE
  8
0
  6
CONTINUOUS
 62
     5
 10
162.323225
 20
140.093281
 30
0.0
 11
161.305775
 21
140.093281
 31
0.0
  0
LINE
  8
0
  6
CONTINUOUS
 62
     5
 10
162.35
 20
139.852306
 30
0.0
 11
162.550781
 21
140.012893
 31
0.0
  0
LINE
  8
0
  6
CONTINUOUS
 62
     5
 10
162.35
 20
139.852306
 30
0.0
 11
161.22545
 21
139.852306
 31
0.0
  0
LINE
  8
0
  6
CONTINUOUS
 62
     5
 10
162.550844
 20
140.012956
 30
0.0
 11
162.714959
 21
141.084901
 31
0.0
  0
LINE
  8
0
  6
CONTINUOUS
 62
     5
 10
162.497294
 20
141.324931
 30
0.0
 11
162.711494
 21
141.084019
 31
0.0
  0
LINE
  8
0
  6
CONTINUOUS
 62
     5
 10
162.470519
 20
141.083956
 30
0.0
 11
162.738269
 21
141.324868
 31
0.0
  0
LINE
  8
0
  6
CONTINUOUS
 62
     5
 10
161.0648
 20
140.012956
 30
0.0
 11
161.215685
 21
141.086728
 31
0.0
  0
LINE
  8
0
  6
CONTINUOUS
 62
     5
 10
162.323225
 20
140.093281
 30
0.0
 11
162.4571
 21
139.94605
 31
0.0
  0
LINE
  8
0
  6
CONTINUOUS
 62
     5
 10
161.479844
 20
142.476256
 30
0.0
 11
161.613719
 21
142.329025
 31
0.0
  0
LINE
  8
0
  6
CONTINUOUS
 62
     5
 10
161.613719
 20
142.329025
 30
0.0
 11
162.644525
 21
142.329025
 31
0.0
  0
LINE
  8
0
  6
CONTINUOUS
 62
     5
 10
162.818594
 20
142.476256
 30
0.0
 11
162.644588
 21
142.329025
 31
0.0
  0
LINE
  8
0
  6
CONTINUOUS
 62
     5
 10
161.305775
 20
140.093281
 30
0.0
 11
161.145125
 21
139.94605
 31
0.0
  0
LINE
  8
0
  6
CONTINUOUS
 62
     5
 10
162.323225
 20
140.093281
 30
0.0
 11
162.476189
 21
141.085657
 31
0.0
  0
LINE
  8
0
  6
CONTINUOUS
 62
     5
 10
162.497294
 20
141.324931
 30
0.0
 11
162.638855
 21
142.332427
 31
0.0
  0
CIRCLE
  8
0
  6
CONTINUOUS
 62
     5
 10
165.054275
 20
139.852306
 30
0.0
 40
0.120456
  0
LINE
  8
0
  6
CONTINUOUS
 62
     5
 10
164.11715
 20
141.324931
 30
0.0
 11
163.621844
 21
141.324931
 31
0.0
  0
LINE
  8
0
  6
CONTINUOUS
 62
     5
 10
164.612519
 20
141.083956
 30
0.0
 11
164.117213
 21
141.083956
 31
0.0
  0
LINE
  8
0
  6
CONTINUOUS
 62
     5
 10
164.639294
 20
141.324931
 30
0.0
 11
164.117213
 21
141.324931
 31
0.0
  0
LINE
  8
0
  6
CONTINUOUS
 62
     5
 10
164.11715
 20
141.083956
 30
0.0
 11
163.595069
 21
141.083956
 31
0.0
  0
LINE
  8
0
  6
CONTINUOUS
 62
     5
 10
164.880269
 20
142.57
 30
0.0
 11
165.0275
 21
142.409413
 31
0.0
  0
LINE
  8
0
  6
CONTINUOUS
 62
     5
 10
164.880269
 20
141.324931
 30
0.0
 11
165.033044
 21
142.411996
 31
0.0
  0
LINE
  8
0
  6
CONTINUOUS
 62
     5
 10
163.728944
 20
142.57
 30
0.0
 11
163.514744
 21
142.395994
 31
0.0
  0
LINE
  8
0
  6
CONTINUOUS
 62
     5
 10
163.728944
 20
142.57
 30
0.0
 11
164.880269
 21
142.57
 31
0.0
  0
LINE
  8
0
  6
CONTINUOUS
 62
     5
 10
163.380869
 20
141.324931
 30
0.0
 11
163.518461
 21
142.400593
 31
0.0
  0
LINE
  8
0
  6
CONTINUOUS
 62
     5
 10
163.621844
 20
141.324931
 30
0.0
 11
163.750175
 21
142.334317
 31
0.0
  0
LINE
  8
0
  6
CONTINUOUS
 62
     5
 10
163.447775
 20
140.093281
 30
0.0
 11
163.600739
 21
141.085657
 31
0.0
  0
LINE
  8
0
  6
CONTINUOUS
 62
     5
 10
163.621844
 20
141.324931
 30
0.0
 11
163.354094
 21
141.084019
 31
0.0
  0
LINE
  8
0
  6
CONTINUOUS
 62
     5
 10
163.380869
 20
141.324931
 30
0.0
 11
163.595069
 21
141.084019
 31
0.0
  0
LINE
  8
0
  6
CONTINUOUS
 62
     5
 10
163.2068
 20
140.012956
 30
0.0
 11
163.36745
 21
139.852369
 31
0.0
  0
LINE
  8
0
  6
CONTINUOUS
 62
     5
 10
164.465225
 20
140.093281
 30
0.0
 11
163.447775
 21
140.093281
 31
0.0
  0
LINE
  8
0
  6
CONTINUOUS
 62
     5
 10
164.492
 20
139.852306
 30
0.0
 11
164.692781
 21
140.012893
 31
0.0
  0
LINE
  8
0
  6
CONTINUOUS
 62
     5
 10
164.492
 20
139.852306
 30
0.0
 11
163.36745
 21
139.852306
 31
0.0
  0
LINE
  8
0
  6
CONTINUOUS
 62
     5
 10
164.692844
 20
140.012956
 30
0.0
 11
164.856959
 21
141.084901
 31
0.0
  0
LINE
  8
0
  6
CONTINUOUS
 62
     5
 10
164.639294
 20
141.324931
 30
0.0
 11
164.853494
 21
141.084019
 31
0.0
  0
LINE
  8
0
  6
CONTINUOUS
 62
     5
 10
164.612519
 20
141.083956
 30
0.0
 11
164.880269
 21
141.324868
 31
0.0
  0
LINE
  8
0
  6
CONTINUOUS
 62
     5
 10
163.2068
 20
140.012956
 30
0.0
 11
163.357685
 21
141.086728
 31
0.0
  0
LINE
  8
0
  6
CONTINUOUS
 62
     5
 10
164.465225
 20
140.093281
 30
0.0
 11
164.5991
 21
139.94605
 31
0.0
  0
LINE
  8
0
  6
CONTINUOUS
 62
     5
 10
163.621844
 20
142.476256
 30
0.0
 11
163.755719
 21
142.329025
 31
0.0
  0
LINE
  8
0
  6
CONTINUOUS
 62
     5
 10
163.755719
 20
142.329025
 30
0.0
 11
164.786525
 21
142.329025
 31
0.0
  0
LINE
  8
0
  6
CONTINUOUS
 62
     5
 10
164.960594
 20
142.476256
 30
0.0
 11
164.786588
 21
142.329025
 31
0.0
  0
LINE
  8
0
  6
CONTINUOUS
 62
     5
 10
163.447775
 20
140.093281
 30
0.0
 11
163.287125
 21
139.94605
 31
0.0
  0
LINE
  8
0
  6
CONTINUOUS
 62
     5
 10
164.465225
 20
140.093281
 30
0.0
 11
164.618189
 21
141.085657
 31
0.0
  0
LINE
  8
0
  6
CONTINUOUS
 62
     5
 10
164.639294
 20
141.324931
 30
0.0
 11
164.780855
 21
142.332427
 31
0.0
  0
LINE
  8
0
  6
CONTINUOUS
 62
     5
 10
166.25915
 20
141.324931
 30
0.0
 11
165.763844
 21
141.324931
 31
0.0
  0
LINE
  8
0
  6
CONTINUOUS
 62
     5
 10
166.754519
 20
141.083956
 30
0.0
 11
166.259213
 21
141.083956
 31
0.0
  0
LINE
  8
0
  6
CONTINUOUS
 62
     5
 10
166.781294
 20
141.324931
 30
0.0
 11
166.259213
 21
141.324931
 31
0.0
  0
LINE
  8
0
  6
CONTINUOUS
 62
     5
 10
166.25915
 20
141.083956
 30
0.0
 11
165.737069
 21
141.083956
 31
0.0
  0
LINE
  8
0
  6
CONTINUOUS
 62
     5
 10
167.022269
 20
142.57
 30
0.0
 11
167.1695
 21
142.409413
 31
0.0
  0
LINE
  8
0
  6
CONTINUOUS
 62
     5
 10
167.022269
 20
141.324931
 30
0.0
 11
167.175044
 21
142.411996
 31
0.0
  0
LINE
  8
0
  6
CONTINUOUS
 62
     5
 10
165.870944
 20
142.57
 30
0.0
 11
165.656744
 21
142.395994
 31
0.0
  0
LINE
  8
0
  6
CONTINUOUS
 62
     5
 10
165.870944
 20
142.57
 30
0.0
 11
167.022269
 21
142.57
 31
0.0
  0
LINE
  8
0
  6
CONTINUOUS
 62
     5
 10
165.522869
 20
141.324931
 30
0.0
 11
165.660461
 21
142.400593
 31
0.0
  0
LINE
  8
0
  6
CONTINUOUS
 62
     5
 10
165.763844
 20
141.324931
 30
0.0
 11
165.892175
 21
142.334317
 31
0.0
  0
LINE
  8
0
  6
CONTINUOUS
 62
     5
 10
165.589775
 20
140.093281
 30
0.0
 11
165.742739
 21
141.085657
 31
0.0
  0
LINE
  8
0
  6
CONTINUOUS
 62
     5
 10
165.763844
 20
141.324931
 30
0.0
 11
165.496094
 21
141.084019
 31
0.0
  0
LINE
  8
0
  6
CONTINUOUS
 62
     5
 10
165.522869
 20
141.324931
 30
0.0
 11
165.737069
 21
141.084019
 31
0.0
  0
LINE
  8
0
  6
CONTINUOUS
 62
     5
 10
165.3488
 20
140.012956
 30
0.0
 11
165.50945
 21
139.852369
 31
0.0
  0
LINE
  8
0
  6
CONTINUOUS
 62
     5
 10
166.607225
 20
140.093281
 30
0.0
 11
165.589775
 21
140.093281
 31
0.0
  0
LINE
  8
0
  6
CONTINUOUS
 62
     5
 10
166.634
 20
139.852306
 30
0.0
 11
166.834781
 21
140.012893
 31
0.0
  0
LINE
  8
0
  6
CONTINUOUS
 62
     5
 10
166.634
 20
139.852306
 30
0.0
 11
165.50945
 21
139.852306
 31
0.0
  0
LINE
  8
0
  6
CONTINUOUS
 62
     5
 10
166.834844
 20
140.012956
 30
0.0
 11
166.998959
 21
141.084901
 31
0.0
  0
LINE
  8
0
  6
CONTINUOUS
 62
     5
 10
166.781294
 20
141.324931
 30
0.0
 11
166.995494
 21
141.084019
 31
0.0
  0
LINE
  8
0
  6
CONTINUOUS
 62
     5
 10
166.754519
 20
141.083956
 30
0.0
 11
167.022269
 21
141.324868
 31
0.0
  0
LINE
  8
0
  6
CONTINUOUS
 62
     5
 10
165.3488
 20
140.012956
 30
0.0
 11
165.499685
 21
141.086728
 31
0.0
  0
LINE
  8
0
  6
CONTINUOUS
 62
     5
 10
166.607225
 20
140.093281
 30
0.0
 11
166.7411
 21
139.94605
 31
0.0
  0
LINE
  8
0
  6
CONTINUOUS
 62
     5
 10
165.763844
 20
142.476256
 30
0.0
 11
165.897719
 21
142.329025
 31
0.0
  0
LINE
  8
0
  6
CONTINUOUS
 62
     5
 10
165.897719
 20
142.329025
 30
0.0
 11
166.928525
 21
142.329025
 31
0.0
  0
LINE
  8
0
  6
CONTINUOUS
 62
     5
 10
167.102594
 20
142.476256
 30
0.0
 11
166.928588
 21
142.329025
 31
0.0
  0
LINE
  8
0
  6
CONTINUOUS
 62
     5
 10
165.589775
 20
140.093281
 30
0.0
 11
165.429125
 21
139.94605
 31
0.0
  0
LINE
  8
0
  6
CONTINUOUS
 62
     5
 10
166.607225
 20
140.093281
 30
0.0
 11
166.760189
 21
141.085657
 31
0.0
  0
LINE
  8
0
  6
CONTINUOUS
 62
     5
 10
166.781294
 20
141.324931
 30
0.0
 11
166.922855
 21
142.332427
 31
0.0
  0
LINE
  8
0
  6
CONTINUOUS
 62
     5
 10
168.975269
 20
142.57
 30
0.0
 11
169.1225
 21
142.409413
 31
0.0
  0
LINE
  8
0
  6
CONTINUOUS
 62
     5
 10
168.975269
 20
141.324931
 30
0.0
 11
169.128044
 21
142.411996
 31
0.0
  0
LINE
  8
0
  6
CONTINUOUS
 62
     5
 10
167.823944
 20
142.57
 30
0.0
 11
167.609744
 21
142.395994
 31
0.0
  0
LINE
  8
0
  6
CONTINUOUS
 62
     5
 10
167.823944
 20
142.57
 30
0.0
 11
168.975269
 21
142.57
 31
0.0
  0
LINE
  8
0
  6
CONTINUOUS
 62
     5
 10
167.475869
 20
141.324931
 30
0.0
 11
167.613461
 21
142.400593
 31
0.0
  0
LINE
  8
0
  6
CONTINUOUS
 62
     5
 10
167.716844
 20
141.324931
 30
0.0
 11
167.845175
 21
142.334317
 31
0.0
  0
LINE
  8
0
  6
CONTINUOUS
 62
     5
 10
167.542775
 20
140.093281
 30
0.0
 11
167.695739
 21
141.085657
 31
0.0
  0
LINE
  8
0
  6
CONTINUOUS
 62
     5
 10
167.716844
 20
141.324931
 30
0.0
 11
167.449094
 21
141.084019
 31
0.0
  0
LINE
  8
0
  6
CONTINUOUS
 62
     5
 10
167.475869
 20
141.324931
 30
0.0
 11
167.690069
 21
141.084019
 31
0.0
  0
LINE
  8
0
  6
CONTINUOUS
 62
     5
 10
167.3018
 20
140.012956
 30
0.0
 11
167.46245
 21
139.852369
 31
0.0
  0
LINE
  8
0
  6
CONTINUOUS
 62
     5
 10
168.560225
 20
140.093281
 30
0.0
 11
167.542775
 21
140.093281
 31
0.0
  0
LINE
  8
0
  6
CONTINUOUS
 62
     5
 10
168.587
 20
139.852306
 30
0.0
 11
168.787781
 21
140.012893
 31
0.0
  0
LINE
  8
0
  6
CONTINUOUS
 62
     5
 10
168.587
 20
139.852306
 30
0.0
 11
167.46245
 21
139.852306
 31
0.0
  0
LINE
  8
0
  6
CONTINUOUS
 62
     5
 10
168.787844
 20
140.012956
 30
0.0
 11
168.951959
 21
141.084901
 31
0.0
  0
LINE
  8
0
  6
CONTINUOUS
 62
     5
 10
168.734294
 20
141.324931
 30
0.0
 11
168.948494
 21
141.084019
 31
0.0
  0
LINE
  8
0
  6
CONTINUOUS
 62
     5
 10
168.707519
 20
141.083956
 30
0.0
 11
168.975269
 21
141.324868
 31
0.0
  0
LINE
  8
0
  6
CONTINUOUS
 62
     5
 10
167.3018
 20
140.012956
 30
0.0
 11
167.452685
 21
141.086728
 31
0.0
  0
LINE
  8
0
  6
CONTINUOUS
 62
     5
 10
168.560225
 20
140.093281
 30
0.0
 11
168.6941
 21
139.94605
 31
0.0
  0
LINE
  8
0
  6
CONTINUOUS
 62
     5
 10
167.716844
 20
142.476256
 30
0.0
 11
167.850719
 21
142.329025
 31
0.0
  0
LINE
  8
0
  6
CONTINUOUS
 62
     5
 10
167.850719
 20
142.329025
 30
0.0
 11
168.881525
 21
142.329025
 31
0.0
  0
LINE
  8
0
  6
CONTINUOUS
 62
     5
 10
169.055594
 20
142.476256
 30
0.0
 11
168.881588
 21
142.329025
 31
0.0
  0
LINE
  8
0
  6
CONTINUOUS
 62
     5
 10
167.542775
 20
140.093281
 30
0.0
 11
167.382125
 21
139.94605
 31
0.0
  0
LINE
  8
0
  6
CONTINUOUS
 62
     5
 10
168.560225
 20
140.093281
 30
0.0
 11
168.713189
 21
141.085657
 31
0.0
  0
LINE
  8
0
  6
CONTINUOUS
 62
     5
 10
168.734294
 20
141.324931
 30
0.0
 11
168.875855
 21
142.332427
 31
0.0
  0
CIRCLE
  8
0
  6
CONTINUOUS
 62
     5
 10
160.761581
 20
143.317306
 30
0.0
 40
0.120456
  0
LINE
  8
0
  6
CONTINUOUS
 62
     5
 10
159.824456
 20
144.789931
 30
0.0
 11
159.32915
 21
144.789931
 31
0.0
  0
LINE
  8
0
  6
CONTINUOUS
 62
     5
 10
160.319825
 20
144.548956
 30
0.0
 11
159.824519
 21
144.548956
 31
0.0
  0
LINE
  8
0
  6
CONTINUOUS
 62
     5
 10
160.3466
 20
144.789931
 30
0.0
 11
159.824519
 21
144.789931
 31
0.0
  0
LINE
  8
0
  6
CONTINUOUS
 62
     5
 10
159.824456
 20
144.548956
 30
0.0
 11
159.302375
 21
144.548956
 31
0.0
  0
LINE
  8
0
  6
CONTINUOUS
 62
     5
 10
160.587575
 20
144.789931
 30
0.0
 11
160.74035
 21
145.876996
 31
0.0
  0
LINE
  8
0
  6
CONTINUOUS
 62
     5
 10
160.40015
 20
143.477956
 30
0.0
 11
160.564265
 21
144.549901
 31
0.0
  0
LINE
  8
0
  6
CONTINUOUS
 62
     5
 10
160.3466
 20
144.789931
 30
0.0
 11
160.5608
 21
144.549019
 31
0.0
  0
LINE
  8
0
  6
CONTINUOUS
 62
     5
 10
160.319825
 20
144.548956
 30
0.0
 11
160.587575
 21
144.789868
 31
0.0
  0
LINE
  8
0
  6
CONTINUOUS
 62
     5
 10
160.172531
 20
143.558281
 30
0.0
 11
160.306406
 21
143.41105
 31
0.0
  0
LINE
  8
0
  6
CONTINUOUS
 62
     5
 10
160.6679
 20
145.941256
 30
0.0
 11
160.493894
 21
145.794025
 31
0.0
  0
LINE
  8
0
  6
CONTINUOUS
 62
     5
 10
160.172531
 20
143.558281
 30
0.0
 11
160.325495
 21
144.550657
 31
0.0
  0
LINE
  8
0
  6
CONTINUOUS
 62
     5
 10
160.3466
 20
144.789931
 30
0.0
 11
160.488161
 21
145.797427
 31
0.0
  0
LINE
  8
0
  6
CONTINUOUS
 62
     5
 10
159.32915
 20
144.789931
 30
0.0
 11
159.2
 21
144.6616
 31
0.0
  0
LINE
  8
0
  6
CONTINUOUS
 62
     5
 10
159.2
 20
144.6616
 30
0.0
 11
159.302375
 21
144.549019
 31
0.0
  0
LINE
  8
0
  6
CONTINUOUS
 62
     5
 10
160.3088
 20
143.4016
 30
0.0
 11
160.400087
 21
143.477893
 31
0.0
  0
LINE
  8
0
  6
CONTINUOUS
 62
     5
 10
160.6742
 20
145.9342
 30
0.0
 11
160.734806
 21
145.874413
 31
0.0
  0
CIRCLE
  8
0
  6
CONTINUOUS
 62
     5
 10
162.912275
 20
143.317306
 30
0.0
 40
0.120456
  0
LINE
  8
0
  6
CONTINUOUS
 62
     5
 10
161.97515
 20
144.789931
 30
0.0
 11
161.479844
 21
144.789931
 31
0.0
  0
LINE
  8
0
  6
CONTINUOUS
 62
     5
 10
162.470519
 20
144.548956
 30
0.0
 11
161.975213
 21
144.548956
 31
0.0
  0
LINE
  8
0
  6
CONTINUOUS
 62
     5
 10
162.497294
 20
144.789931
 30
0.0
 11
161.975213
 21
144.789931
 31
0.0
  0
LINE
  8
0
  6
CONTINUOUS
 62
     5
 10
161.97515
 20
144.548956
 30
0.0
 11
161.453069
 21
144.548956
 31
0.0
  0
LINE
  8
0
  6
CONTINUOUS
 62
     5
 10
162.738269
 20
146.035
 30
0.0
 11
162.8855
 21
145.874413
 31
0.0
  0
LINE
  8
0
  6
CONTINUOUS
 62
     5
 10
162.738269
 20
144.789931
 30
0.0
 11
162.891044
 21
145.876996
 31
0.0
  0
LINE
  8
0
  6
CONTINUOUS
 62
     5
 10
161.586944
 20
146.035
 30
0.0
 11
161.372744
 21
145.860994
 31
0.0
  0
LINE
  8
0
  6
CONTINUOUS
 62
     5
 10
161.586944
 20
146.035
 30
0.0
 11
162.738269
 21
146.035
 31
0.0
  0
LINE
  8
0
  6
CONTINUOUS
 62
     5
 10
161.238869
 20
144.789931
 30
0.0
 11
161.376461
 21
145.865593
 31
0.0
  0
LINE
  8
0
  6
CONTINUOUS
 62
     5
 10
161.479844
 20
144.789931
 30
0.0
 11
161.608175
 21
145.799317
 31
0.0
  0
LINE
  8
0
  6
CONTINUOUS
 62
     5
 10
161.305775
 20
143.558281
 30
0.0
 11
161.458739
 21
144.550657
 31
0.0
  0
LINE
  8
0
  6
CONTINUOUS
 62
     5
 10
161.479844
 20
144.789931
 30
0.0
 11
161.212094
 21
144.549019
 31
0.0
  0
LINE
  8
0
  6
CONTINUOUS
 62
     5
 10
161.238869
 20
144.789931
 30
0.0
 11
161.453069
 21
144.549019
 31
0.0
  0
LINE
  8
0
  6
CONTINUOUS
 62
     5
 10
161.0648
 20
143.477956
 30
0.0
 11
161.22545
 21
143.317369
 31
0.0
  0
LINE
  8
0
  6
CONTINUOUS
 62
     5
 10
162.323225
 20
143.558281
 30
0.0
 11
161.305775
 21
143.558281
 31
0.0
  0
LINE
  8
0
  6
CONTINUOUS
 62
     5
 10
162.35
 20
143.317306
 30
0.0
 11
162.550781
 21
143.477893
 31
0.0
  0
LINE
  8
0
  6
CONTINUOUS
 62
     5
 10
162.35
 20
143.317306
 30
0.0
 11
161.22545
 21
143.317306
 31
0.0
  0
LINE
  8
0
  6
CONTINUOUS
 62
     5
 10
162.550844
 20
143.477956
 30
0.0
 11
162.714959
 21
144.549901
 31
0.0
  0
LINE
  8
0
  6
CONTINUOUS
 62
     5
 10
162.497294
 20
144.789931
 30
0.0
 11
162.711494
 21
144.549019
 31
0.0
  0
LINE
  8
0
  6
CONTINUOUS
 62
     5
 10
162.470519
 20
144.548956
 30
0.0
 11
162.738269
 21
144.789868
 31
0.0
  0
LINE
  8
0
  6
CONTINUOUS
 62
     5
 10
161.0648
 20
143.477956
 30
0.0
 11
161.215685
 21
144.551728
 31
0.0
  0
LINE
  8
0
  6
CONTINUOUS
 62
     5
 10
162.323225
 20
143.558281
 30
0.0
 11
162.4571
 21
143.41105
 31
0.0
  0
LINE
  8
0
  6
CONTINUOUS
 62
     5
 10
161.479844
 20
145.941256
 30
0.0
 11
161.613719
 21
145.794025
 31
0.0
  0
LINE
  8
0
  6
CONTINUOUS
 62
     5
 10
161.613719
 20
145.794025
 30
0.0
 11
162.644525
 21
145.794025
 31
0.0
  0
LINE
  8
0
  6
CONTINUOUS
 62
     5
 10
162.818594
 20
145.941256
 30
0.0
 11
162.644588
 21
145.794025
 31
0.0
  0
LINE
  8
0
  6
CONTINUOUS
 62
     5
 10
161.305775
 20
143.558281
 30
0.0
 11
161.145125
 21
143.41105
 31
0.0
  0
LINE
  8
0
  6
CONTINUOUS
 62
     5
 10
162.323225
 20
143.558281
 30
0.0
 11
162.476189
 21
144.550657
 31
0.0
  0
LINE
  8
0
  6
CONTINUOUS
 62
     5
 10
162.497294
 20
144.789931
 30
0.0
 11
162.638855
 21
145.797427
 31
0.0
  0
CIRCLE
  8
0
  6
CONTINUOUS
 62
     5
 10
165.054275
 20
143.317306
 30
0.0
 40
0.120456
  0
LINE
  8
0
  6
CONTINUOUS
 62
     5
 10
164.11715
 20
144.789931
 30
0.0
 11
163.621844
 21
144.789931
 31
0.0
  0
LINE
  8
0
  6
CONTINUOUS
 62
     5
 10
164.612519
 20
144.548956
 30
0.0
 11
164.117213
 21
144.548956
 31
0.0
  0
LINE
  8
0
  6
CONTINUOUS
 62
     5
 10
164.639294
 20
144.789931
 30
0.0
 11
164.117213
 21
144.789931
 31
0.0
  0
LINE
  8
0
  6
CONTINUOUS
 62
     5
 10
164.11715
 20
144.548956
 30
0.0
 11
163.595069
 21
144.548956
 31
0.0
  0
LINE
  8
0
  6
CONTINUOUS
 62
     5
 10
164.880269
 20
146.035
 30
0.0
 11
165.0275
 21
145.874413
 31
0.0
  0
LINE
  8
0
  6
CONTINUOUS
 62
     5
 10
164.880269
 20
144.789931
 30
0.0
 11
165.033044
 21
145.876996
 31
0.0
  0
LINE
  8
0
  6
CONTINUOUS
 62
     5
 10
163.728944
 20
146.035
 30
0.0
 11
163.514744
 21
145.860994
 31
0.0
  0
LINE
  8
0
  6
CONTINUOUS
 62
     5
 10
163.728944
 20
146.035
 30
0.0
 11
164.880269
 21
146.035
 31
0.0
  0
LINE
  8
0
  6
CONTINUOUS
 62
     5
 10
163.380869
 20
144.789931
 30
0.0
 11
163.518461
 21
145.865593
 31
0.0
  0
LINE
  8
0
  6
CONTINUOUS
 62
     5
 10
163.621844
 20
144.789931
 30
0.0
 11
163.750175
 21
145.799317
 31
0.0
  0
LINE
  8
0
  6
CONTINUOUS
 62
     5
 10
163.447775
 20
143.558281
 30
0.0
 11
163.600739
 21
144.550657
 31
0.0
  0
LINE
  8
0
  6
CONTINUOUS
 62
     5
 10
163.621844
 20
144.789931
 30
0.0
 11
163.354094
 21
144.549019
 31
0.0
  0
LINE
  8
0
  6
CONTINUOUS
 62
     5
 10
163.380869
 20
144.789931
 30
0.0
 11
163.595069
 21
144.549019
 31
0.0
  0
LINE
  8
0
  6
CONTINUOUS
 62
     5
 10
163.2068
 20
143.477956
 30
0.0
 11
163.36745
 21
143.317369
 31
0.0
  0
LINE
  8
0
  6
CONTINUOUS
 62
     5
 10
164.465225
 20
143.558281
 30
0.0
 11
163.447775
 21
143.558281
 31
0.0
  0
LINE
  8
0
  6
CONTINUOUS
 62
     5
 10
164.492
 20
143.317306
 30
0.0
 11
164.692781
 21
143.477893
 31
0.0
  0
LINE
  8
0
  6
CONTINUOUS
 62
     5
 10
164.492
 20
143.317306
 30
0.0
 11
163.36745
 21
143.317306
 31
0.0
  0
LINE
  8
0
  6
CONTINUOUS
 62
     5
 10
164.692844
 20
143.477956
 30
0.0
 11
164.856959
 21
144.549901
 31
0.0
  0
LINE
  8
0
  6
CONTINUOUS
 62
     5
 10
164.639294
 20
144.789931
 30
0.0
 11
164.853494
 21
144.549019
 31
0.0
  0
LINE
  8
0
  6
CONTINUOUS
 62
     5
 10
164.612519
 20
144.548956
 30
0.0
 11
164.880269
 21
144.789868
 31
0.0
  0
LINE
  8
0
  6
CONTINUOUS
 62
     5
 10
163.2068
 20
143.477956
 30
0.0
 11
163.357685
 21
144.551728
 31
0.0
  0
LINE
  8
0
  6
CONTINUOUS
 62
     5
 10
164.465225
 20
143.558281
 30
0.0
 11
164.5991
 21
143.41105
 31
0.0
  0
LINE
  8
0
  6
CONTINUOUS
 62
     5
 10
163.621844
 20
145.941256
 30
0.0
 11
163.755719
 21
145.794025
 31
0.0
  0
LINE
  8
0
  6
CONTINUOUS
 62
     5
 10
163.755719
 20
145.794025
 30
0.0
 11
164.786525
 21
145.794025
 31
0.0
  0
LINE
  8
0
  6
CONTINUOUS
 62
     5
 10
164.960594
 20
145.941256
 30
0.0
 11
164.786588
 21
145.794025
 31
0.0
  0
LINE
  8
0
  6
CONTINUOUS
 62
     5
 10
163.447775
 20
143.558281
 30
0.0
 11
163.287125
 21
143.41105
 31
0.0
  0
LINE
  8
0
  6
CONTINUOUS
 62
     5
 10
164.465225
 20
143.558281
 30
0.0
 11
164.618189
 21
144.550657
 31
0.0
  0
LINE
  8
0
  6
CONTINUOUS
 62
     5
 10
164.639294
 20
144.789931
 30
0.0
 11
164.780855
 21
145.797427
 31
0.0
  0
LINE
  8
0
  6
CONTINUOUS
 62
     5
 10
166.25915
 20
144.789931
 30
0.0
 11
165.763844
 21
144.789931
 31
0.0
  0
LINE
  8
0
  6
CONTINUOUS
 62
     5
 10
166.754519
 20
144.548956
 30
0.0
 11
166.259213
 21
144.548956
 31
0.0
  0
LINE
  8
0
  6
CONTINUOUS
 62
     5
 10
166.781294
 20
144.789931
 30
0.0
 11
166.259213
 21
144.789931
 31
0.0
  0
LINE
  8
0
  6
CONTINUOUS
 62
     5
 10
166.25915
 20
144.548956
 30
0.0
 11
165.737069
 21
144.548956
 31
0.0
  0
LINE
  8
0
  6
CONTINUOUS
 62
     5
 10
167.022269
 20
146.035
 30
0.0
 11
167.1695
 21
145.874413
 31
0.0
  0
LINE
  8
0
  6
CONTINUOUS
 62
     5
 10
167.022269
 20
144.789931
 30
0.0
 11
167.175044
 21
145.876996
 31
0.0
  0
LINE
  8
0
  6
CONTINUOUS
 62
     5
 10
165.870944
 20
146.035
 30
0.0
 11
165.656744
 21
145.860994
 31
0.0
  0
LINE
  8
0
  6
CONTINUOUS
 62
     5
 10
165.870944
 20
146.035
 30
0.0
 11
167.022269
 21
146.035
 31
0.0
  0
LINE
  8
0
  6
CONTINUOUS
 62
     5
 10
165.522869
 20
144.789931
 30
0.0
 11
165.660461
 21
145.865593
 31
0.0
  0
LINE
  8
0
  6
CONTINUOUS
 62
     5
 10
165.763844
 20
144.789931
 30
0.0
 11
165.892175
 21
145.799317
 31
0.0
  0
LINE
  8
0
  6
CONTINUOUS
 62
     5
 10
165.589775
 20
143.558281
 30
0.0
 11
165.742739
 21
144.550657
 31
0.0
  0
LINE
  8
0
  6
CONTINUOUS
 62
     5
 10
165.763844
 20
144.789931
 30
0.0
 11
165.496094
 21
144.549019
 31
0.0
  0
LINE
  8
0
  6
CONTINUOUS
 62
     5
 10
165.522869
 20
144.789931
 30
0.0
 11
165.737069
 21
144.549019
 31
0.0
  0
LINE
  8
0
  6
CONTINUOUS
 62
     5
 10
165.3488
 20
143.477956
 30
0.0
 11
165.50945
 21
143.317369
 31
0.0
  0
LINE
  8
0
  6
CONTINUOUS
 62
     5
 10
166.607225
 20
143.558281
 30
0.0
 11
165.589775
 21
143.558281
 31
0.0
  0
LINE
  8
0
  6
CONTINUOUS
 62
     5
 10
166.634
 20
143.317306
 30
0.0
 11
166.834781
 21
143.477893
 31
0.0
  0
LINE
  8
0
  6
CONTINUOUS
 62
     5
 10
166.634
 20
143.317306
 30
0.0
 11
165.50945
 21
143.317306
 31
0.0
  0
LINE
  8
0
  6
CONTINUOUS
 62
     5
 10
166.834844
 20
143.477956
 30
0.0
 11
166.998959
 21
144.549901
 31
0.0
  0
LINE
  8
0
  6
CONTINUOUS
 62
     5
 10
166.781294
 20
144.789931
 30
0.0
 11
166.995494
 21
144.549019
 31
0.0
  0
LINE
  8
0
  6
CONTINUOUS
 62
     5
 10
166.754519
 20
144.548956
 30
0.0
 11
167.022269
 21
144.789868
 31
0.0
  0
LINE
  8
0
  6
CONTINUOUS
 62
     5
 10
165.3488
 20
143.477956
 30
0.0
 11
165.499685
 21
144.551728
 31
0.0
  0
LINE
  8
0
  6
CONTINUOUS
 62
     5
 10
166.607225
 20
143.558281
 30
0.0
 11
166.7411
 21
143.41105
 31
0.0
  0
LINE
  8
0
  6
CONTINUOUS
 62
     5
 10
165.763844
 20
145.941256
 30
0.0
 11
165.897719
 21
145.794025
 31
0.0
  0
LINE
  8
0
  6
CONTINUOUS
 62
     5
 10
165.897719
 20
145.794025
 30
0.0
 11
166.928525
 21
145.794025
 31
0.0
  0
LINE
  8
0
  6
CONTINUOUS
 62
     5
 10
167.102594
 20
145.941256
 30
0.0
 11
166.928588
 21
145.794025
 31
0.0
  0
LINE
  8
0
  6
CONTINUOUS
 62
     5
 10
165.589775
 20
143.558281
 30
0.0
 11
165.429125
 21
143.41105
 31
0.0
  0
LINE
  8
0
  6
CONTINUOUS
 62
     5
 10
166.607225
 20
143.558281
 30
0.0
 11
166.760189
 21
144.550657
 31
0.0
  0
LINE
  8
0
  6
CONTINUOUS
 62
     5
 10
166.781294
 20
144.789931
 30
0.0
 11
166.922855
 21
145.797427
 31
0.0
  0
LINE
  8
0
  6
CONTINUOUS
 62
     5
 10
168.975269
 20
146.035
 30
0.0
 11
169.1225
 21
145.874413
 31
0.0
  0
LINE
  8
0
  6
CONTINUOUS
 62
     5
 10
168.975269
 20
144.789931
 30
0.0
 11
169.128044
 21
145.876996
 31
0.0
  0
LINE
  8
0
  6
CONTINUOUS
 62
     5
 10
167.823944
 20
146.035
 30
0.0
 11
167.609744
 21
145.860994
 31
0.0
  0
LINE
  8
0
  6
CONTINUOUS
 62
     5
 10
167.823944
 20
146.035
 30
0.0
 11
168.975269
 21
146.035
 31
0.0
  0
LINE
  8
0
  6
CONTINUOUS
 62
     5
 10
167.475869
 20
144.789931
 30
0.0
 11
167.613461
 21
145.865593
 31
0.0
  0
LINE
  8
0
  6
CONTINUOUS
 62
     5
 10
167.716844
 20
144.789931
 30
0.0
 11
167.845175
 21
145.799317
 31
0.0
  0
LINE
  8
0
  6
CONTINUOUS
 62
     5
 10
167.542775
 20
143.558281
 30
0.0
 11
167.695739
 21
144.550657
 31
0.0
  0
LINE
  8
0
  6
CONTINUOUS
 62
     5
 10
167.716844
 20
144.789931
 30
0.0
 11
167.449094
 21
144.549019
 31
0.0
  0
LINE
  8
0
  6
CONTINUOUS
 62
     5
 10
167.475869
 20
144.789931
 30
0.0
 11
167.690069
 21
144.549019
 31
0.0
  0
LINE
  8
0
  6
CONTINUOUS
 62
     5
 10
167.3018
 20
143.477956
 30
0.0
 11
167.46245
 21
143.317369
 31
0.0
  0
LINE
  8
0
  6
CONTINUOUS
 62
     5
 10
168.560225
 20
143.558281
 30
0.0
 11
167.542775
 21
143.558281
 31
0.0
  0
LINE
  8
0
  6
CONTINUOUS
 62
     5
 10
168.587
 20
143.317306
 30
0.0
 11
168.787781
 21
143.477893
 31
0.0
  0
LINE
  8
0
  6
CONTINUOUS
 62
     5
 10
168.587
 20
143.317306
 30
0.0
 11
167.46245
 21
143.317306
 31
0.0
  0
LINE
  8
0
  6
CONTINUOUS
 62
     5
 10
168.787844
 20
143.477956
 30
0.0
 11
168.951959
 21
144.549901
 31
0.0
  0
LINE
  8
0
  6
CONTINUOUS
 62
     5
 10
168.734294
 20
144.789931
 30
0.0
 11
168.948494
 21
144.549019
 31
0.0
  0
LINE
  8
0
  6
CONTINUOUS
 62
     5
 10
168.707519
 20
144.548956
 30
0.0
 11
168.975269
 21
144.789868
 31
0.0
  0
LINE
  8
0
  6
CONTINUOUS
 62
     5
 10
167.3018
 20
143.477956
 30
0.0
 11
167.452685
 21
144.551728
 31
0.0
  0
LINE
  8
0
  6
CONTINUOUS
 62
     5
 10
168.560225
 20
143.558281
 30
0.0
 11
168.6941
 21
143.41105
 31
0.0
  0
LINE
  8
0
  6
CONTINUOUS
 62
     5
 10
167.716844
 20
145.941256
 30
0.0
 11
167.850719
 21
145.794025
 31
0.0
  0
LINE
  8
0
  6
CONTINUOUS
 62
     5
 10
167.850719
 20
145.794025
 30
0.0
 11
168.881525
 21
145.794025
 31
0.0
  0
LINE
  8
0
  6
CONTINUOUS
 62
     5
 10
169.055594
 20
145.941256
 30
0.0
 11
168.881588
 21
145.794025
 31
0.0
  0
LINE
  8
0
  6
CONTINUOUS
 62
     5
 10
167.542775
 20
143.558281
 30
0.0
 11
167.382125
 21
143.41105
 31
0.0
  0
LINE
  8
0
  6
CONTINUOUS
 62
     5
 10
168.560225
 20
143.558281
 30
0.0
 11
168.713189
 21
144.550657
 31
0.0
  0
LINE
  8
0
  6
CONTINUOUS
 62
     5
 10
168.734294
 20
144.789931
 30
0.0
 11
168.875855
 21
145.797427
 31
0.0
  0
TEXT
  8
0
  6
CONTINUOUS
 62
     7
 10
156.365
 20
140.68
 30
0.0
 40
1.26
  1
Ｈ
 50
0.0
 41
0.75
 51
0.0
  7
KANJI4
  0
TEXT
  8
0
  6
CONTINUOUS
 62
     7
 10
157.31
 20
140.68
 30
0.0
 40
1.26
  1
Ｌ
 50
0.0
 41
0.75
 51
0.0
  7
KANJI4
  0
LINE
  8
0
  6
CONTINUOUS
 62
     7
 10
168.65
 20
134.506
 30
0.0
 11
168.65
 21
133.561
 31
0.0
  0
LINE
  8
0
  6
CONTINUOUS
 62
     7
 10
161.09
 20
133.561
 30
0.0
 11
161.09
 21
134.506
 31
0.0
  0
LINE
  8
0
  6
CONTINUOUS
 62
     7
 10
161.09
 20
134.506
 30
0.0
 11
163.925
 21
134.506
 31
0.0
  0
LINE
  8
0
  6
CONTINUOUS
 62
     7
 10
161.09
 20
133.561
 30
0.0
 11
163.925
 21
133.561
 31
0.0
  0
LINE
  8
0
  6
CONTINUOUS
 62
     7
 10
165.815
 20
134.506
 30
0.0
 11
168.65
 21
134.506
 31
0.0
  0
LINE
  8
0
  6
CONTINUOUS
 62
     7
 10
165.815
 20
133.561
 30
0.0
 11
168.65
 21
133.561
 31
0.0
  0
LINE
  8
0
  6
CONTINUOUS
 62
     7
 10
163.925
 20
134.506
 30
0.0
 11
163.925
 21
133.561
 31
0.0
  0
LINE
  8
0
  6
CONTINUOUS
 62
     7
 10
165.815
 20
134.506
 30
0.0
 11
165.815
 21
133.561
 31
0.0
  0
LINE
  8
0
  6
CONTINUOUS
 62
     7
 10
164.177
 20
134.002
 30
0.0
 11
164.681
 21
134.002
 31
0.0
  0
LINE
  8
0
  6
CONTINUOUS
 62
     7
 10
164.996
 20
134.002
 30
0.0
 11
165.5
 21
134.002
 31
0.0
  0
CIRCLE
  8
0
  6
CONTINUOUS
 62
     7
 10
162.098
 20
134.002
 30
0.0
 40
0.189
  0
LINE
  8
0
  6
CONTINUOUS
 62
     7
 10
161.909
 20
134.002
 30
0.0
 11
161.342
 21
134.002
 31
0.0
  0
LINE
  8
0
  6
CONTINUOUS
 62
     7
 10
163.106
 20
134.002
 30
0.0
 11
163.673
 21
134.002
 31
0.0
  0
LINE
  8
0
  6
CONTINUOUS
 62
     7
 10
161.846
 20
134.317
 30
0.0
 11
163.232
 21
134.317
 31
0.0
  0
CIRCLE
  8
0
  6
CONTINUOUS
 62
     7
 10
162.917
 20
134.002
 30
0.0
 40
0.189
  0
CIRCLE
  8
0
  6
CONTINUOUS
 62
     7
 10
166.823
 20
134.002
 30
0.0
 40
0.189
  0
CIRCLE
  8
0
  6
CONTINUOUS
 62
     7
 10
167.642
 20
134.002
 30
0.0
 40
0.189
  0
LINE
  8
0
  6
CONTINUOUS
 62
     7
 10
166.634
 20
134.002
 30
0.0
 11
166.067
 21
134.002
 31
0.0
  0
LINE
  8
0
  6
CONTINUOUS
 62
     7
 10
167.831
 20
134.002
 30
0.0
 11
168.398
 21
134.002
 31
0.0
  0
LINE
  8
0
  6
CONTINUOUS
 62
     7
 10
166.571
 20
133.813
 30
0.0
 11
167.957
 21
133.813
 31
0.0
  0
LINE
  8
0
  6
CONTINUOUS
 62
     7
 10
161.09
 20
135.703
 30
0.0
 11
168.65
 21
135.703
 31
0.0
  0
LINE
  8
0
  6
CONTINUOUS
 62
     7
 10
168.65
 20
135.703
 30
0.0
 11
168.65
 21
134.758
 31
0.0
  0
LINE
  8
0
  6
CONTINUOUS
 62
     7
 10
168.65
 20
134.758
 30
0.0
 11
161.09
 21
134.758
 31
0.0
  0
LINE
  8
0
  6
CONTINUOUS
 62
     7
 10
161.09
 20
134.758
 30
0.0
 11
161.09
 21
135.703
 31
0.0
  0
TEXT
  8
0
  6
CONTINUOUS
 62
     7
 10
161.72
 20
134.947
 30
0.0
 40
0.63
  1
Ｄ
 50
0.0
 41
1.0
 51
0.0
  7
KANJI10
  0
TEXT
  8
0
  6
CONTINUOUS
 62
     7
 10
162.35
 20
134.947
 30
0.0
 40
0.63
  1
Ｅ
 50
0.0
 41
1.0
 51
0.0
  7
KANJI10
  0
TEXT
  8
0
  6
CONTINUOUS
 62
     7
 10
162.98
 20
134.947
 30
0.0
 40
0.63
  1
Ａ
 50
0.0
 41
1.0
 51
0.0
  7
KANJI10
  0
TEXT
  8
0
  6
CONTINUOUS
 62
     7
 10
163.61
 20
134.947
 30
0.0
 40
0.63
  1
Ｄ
 50
0.0
 41
1.0
 51
0.0
  7
KANJI10
  0
TEXT
  8
0
  6
CONTINUOUS
 62
     7
 10
165.626
 20
134.947
 30
0.0
 40
0.63
  1
Ｂ
 50
0.0
 41
1.0
 51
0.0
  7
KANJI10
  0
TEXT
  8
0
  6
CONTINUOUS
 62
     7
 10
166.256
 20
134.947
 30
0.0
 40
0.63
  1
Ａ
 50
0.0
 41
1.0
 51
0.0
  7
KANJI10
  0
TEXT
  8
0
  6
CONTINUOUS
 62
     7
 10
166.886
 20
134.947
 30
0.0
 40
0.63
  1
Ｎ
 50
0.0
 41
1.0
 51
0.0
  7
KANJI10
  0
TEXT
  8
0
  6
CONTINUOUS
 62
     7
 10
167.516
 20
134.947
 30
0.0
 40
0.63
  1
Ｄ
 50
0.0
 41
1.0
 51
0.0
  7
KANJI10
  0
LINE
  8
0
  6
CONTINUOUS
 62
     7
 10
161.09
 20
136.9
 30
0.0
 11
168.65
 21
136.9
 31
0.0
  0
LINE
  8
0
  6
CONTINUOUS
 62
     7
 10
168.65
 20
136.9
 30
0.0
 11
168.65
 21
135.955
 31
0.0
  0
LINE
  8
0
  6
CONTINUOUS
 62
     7
 10
168.65
 20
135.955
 30
0.0
 11
161.09
 21
135.955
 31
0.0
  0
LINE
  8
0
  6
CONTINUOUS
 62
     7
 10
161.09
 20
135.955
 30
0.0
 11
161.09
 21
136.9
 31
0.0
  0
TEXT
  8
0
  6
CONTINUOUS
 62
     7
 10
161.72
 20
136.081
 30
0.0
 40
0.63
  1
Ｓ
 50
0.0
 41
1.0
 51
0.0
  7
KANJI10
  0
TEXT
  8
0
  6
CONTINUOUS
 62
     7
 10
162.35
 20
136.081
 30
0.0
 40
0.63
  1
Ｔ
 50
0.0
 41
1.0
 51
0.0
  7
KANJI10
  0
TEXT
  8
0
  6
CONTINUOUS
 62
     7
 10
162.98
 20
136.081
 30
0.0
 40
0.63
  1
Ａ
 50
0.0
 41
1.0
 51
0.0
  7
KANJI10
  0
TEXT
  8
0
  6
CONTINUOUS
 62
     7
 10
163.61
 20
136.081
 30
0.0
 40
0.63
  1
Ｒ
 50
0.0
 41
1.0
 51
0.0
  7
KANJI10
  0
TEXT
  8
0
  6
CONTINUOUS
 62
     7
 10
164.24
 20
136.081
 30
0.0
 40
0.63
  1
Ｔ
 50
0.0
 41
1.0
 51
0.0
  7
KANJI10
  0
TEXT
  8
0
  6
CONTINUOUS
 62
     7
 10
166.256
 20
136.081
 30
0.0
 40
0.63
  1
Ｄ
 50
0.0
 41
1.0
 51
0.0
  7
KANJI10
  0
TEXT
  8
0
  6
CONTINUOUS
 62
     7
 10
166.886
 20
136.081
 30
0.0
 40
0.63
  1
Ｌ
 50
0.0
 41
1.0
 51
0.0
  7
KANJI10
  0
TEXT
  8
0
  6
CONTINUOUS
 62
     7
 10
167.516
 20
136.081
 30
0.0
 40
0.63
  1
Ｙ
 50
0.0
 41
1.0
 51
0.0
  7
KANJI10
  0
LINE
  8
0
  6
CONTINUOUS
 62
     7
 10
161.09
 20
138.097
 30
0.0
 11
168.65
 21
138.097
 31
0.0
  0
LINE
  8
0
  6
CONTINUOUS
 62
     7
 10
168.65
 20
138.097
 30
0.0
 11
168.65
 21
137.152
 31
0.0
  0
LINE
  8
0
  6
CONTINUOUS
 62
     7
 10
168.65
 20
137.152
 30
0.0
 11
161.09
 21
137.152
 31
0.0
  0
LINE
  8
0
  6
CONTINUOUS
 62
     7
 10
161.09
 20
137.152
 30
0.0
 11
161.09
 21
138.097
 31
0.0
  0
TEXT
  8
0
  6
CONTINUOUS
 62
     7
 10
161.72
 20
137.341
 30
0.0
 40
0.63
  1
Ｐ
 50
0.0
 41
1.0
 51
0.0
  7
KANJI10
  0
TEXT
  8
0
  6
CONTINUOUS
 62
     7
 10
162.35
 20
137.341
 30
0.0
 40
0.63
  1
Ｉ
 50
0.0
 41
1.0
 51
0.0
  7
KANJI10
  0
TEXT
  8
0
  6
CONTINUOUS
 62
     7
 10
162.98
 20
137.341
 30
0.0
 40
0.63
  1
Ｃ
 50
0.0
 41
1.0
 51
0.0
  7
KANJI10
  0
TEXT
  8
0
  6
CONTINUOUS
 62
     7
 10
163.61
 20
137.341
 30
0.0
 40
0.63
  1
Ｋ
 50
0.0
 41
1.0
 51
0.0
  7
KANJI10
  0
TEXT
  8
0
  6
CONTINUOUS
 62
     7
 10
164.618
 20
137.341
 30
0.0
 40
0.63
  1
Ｕ
 50
0.0
 41
1.0
 51
0.0
  7
KANJI10
  0
TEXT
  8
0
  6
CONTINUOUS
 62
     7
 10
165.248
 20
137.341
 30
0.0
 40
0.63
  1
Ｐ
 50
0.0
 41
1.0
 51
0.0
  7
KANJI10
  0
TEXT
  8
0
  6
CONTINUOUS
 62
     7
 10
166.256
 20
137.341
 30
0.0
 40
0.63
  1
Ｄ
 50
0.0
 41
1.0
 51
0.0
  7
KANJI10
  0
TEXT
  8
0
  6
CONTINUOUS
 62
     7
 10
166.886
 20
137.341
 30
0.0
 40
0.63
  1
Ｌ
 50
0.0
 41
1.0
 51
0.0
  7
KANJI10
  0
TEXT
  8
0
  6
CONTINUOUS
 62
     7
 10
167.516
 20
137.341
 30
0.0
 40
0.63
  1
Ｙ
 50
0.0
 41
1.0
 51
0.0
  7
KANJI10
  0
TEXT
  8
0
  6
CONTINUOUS
 62
     7
 10
161.72
 20
138.475
 30
0.0
 40
0.63
  1
Ｃ
 50
0.0
 41
1.0
 51
0.0
  7
KANJI10
  0
TEXT
  8
0
  6
CONTINUOUS
 62
     7
 10
167.516
 20
138.475
 30
0.0
 40
0.63
  1
Ｐ
 50
0.0
 41
1.0
 51
0.0
  7
KANJI10
  0
TEXT
  8
0
  6
CONTINUOUS
 62
     7
 10
165.5
 20
138.475
 30
0.0
 40
0.63
  1
Ｍ
 50
0.0
 41
1.0
 51
0.0
  7
KANJI10
  0
TEXT
  8
0
  6
CONTINUOUS
 62
     7
 10
163.61
 20
138.475
 30
0.0
 40
0.63
  1
Ｏ
 50
0.0
 41
1.0
 51
0.0
  7
KANJI10
  0
LINE
  8
0
  6
CONTINUOUS
 62
     7
 10
161.09
 20
139.294
 30
0.0
 11
168.65
 21
139.294
 31
0.0
  0
LINE
  8
0
  6
CONTINUOUS
 62
     7
 10
168.65
 20
139.294
 30
0.0
 11
168.65
 21
138.349
 31
0.0
  0
LINE
  8
0
  6
CONTINUOUS
 62
     7
 10
168.65
 20
138.349
 30
0.0
 11
161.09
 21
138.349
 31
0.0
  0
LINE
  8
0
  6
CONTINUOUS
 62
     7
 10
161.09
 20
138.349
 30
0.0
 11
161.09
 21
139.294
 31
0.0
  0
LINE
  8
0
  6
CONTINUOUS
 62
     7
 10
156.05
 20
133.12
 30
0.0
 11
159.83
 21
133.12
 31
0.0
  0
LINE
  8
0
  6
CONTINUOUS
 62
     7
 10
159.83
 20
133.12
 30
0.0
 11
159.83
 21
131.86
 31
0.0
  0
LINE
  8
0
  6
CONTINUOUS
 62
     7
 10
159.83
 20
131.86
 30
0.0
 11
156.05
 21
131.86
 31
0.0
  0
LINE
  8
0
  6
CONTINUOUS
 62
     7
 10
156.05
 20
131.86
 30
0.0
 11
156.05
 21
133.12
 31
0.0
  0
LINE
  8
0
  6
CONTINUOUS
 62
     7
 10
160.46
 20
133.12
 30
0.0
 11
164.24
 21
133.12
 31
0.0
  0
LINE
  8
0
  6
CONTINUOUS
 62
     7
 10
164.24
 20
133.12
 30
0.0
 11
164.24
 21
131.86
 31
0.0
  0
LINE
  8
0
  6
CONTINUOUS
 62
     7
 10
164.24
 20
131.86
 30
0.0
 11
160.46
 21
131.86
 31
0.0
  0
LINE
  8
0
  6
CONTINUOUS
 62
     7
 10
160.46
 20
131.86
 30
0.0
 11
160.46
 21
133.12
 31
0.0
  0
LINE
  8
0
  6
CONTINUOUS
 62
     7
 10
164.87
 20
133.12
 30
0.0
 11
168.65
 21
133.12
 31
0.0
  0
LINE
  8
0
  6
CONTINUOUS
 62
     7
 10
168.65
 20
133.12
 30
0.0
 11
168.65
 21
131.86
 31
0.0
  0
LINE
  8
0
  6
CONTINUOUS
 62
     7
 10
168.65
 20
131.86
 30
0.0
 11
164.87
 21
131.86
 31
0.0
  0
LINE
  8
0
  6
CONTINUOUS
 62
     7
 10
164.87
 20
131.86
 30
0.0
 11
164.87
 21
133.12
 31
0.0
  0
TEXT
  8
0
  6
CONTINUOUS
 62
     7
 10
161.342
 20
131.923
 30
0.0
 40
0.945
  1
Ｍ
 50
0.0
 41
0.666
 51
0.0
  7
KANJI12
  0
TEXT
  8
0
  6
CONTINUOUS
 62
     7
 10
161.972
 20
131.923
 30
0.0
 40
0.945
  1
Ｉ
 50
0.0
 41
0.666
 51
0.0
  7
KANJI12
  0
TEXT
  8
0
  6
CONTINUOUS
 62
     7
 10
162.602
 20
131.923
 30
0.0
 40
0.945
  1
Ｎ
 50
0.0
 41
0.666
 51
0.0
  7
KANJI12
  0
TEXT
  8
0
  6
CONTINUOUS
 62
     7
 10
157.058
 20
131.923
 30
0.0
 40
0.945
  1
Ｍ
 50
0.0
 41
0.666
 51
0.0
  7
KANJI12
  0
TEXT
  8
0
  6
CONTINUOUS
 62
     7
 10
157.688
 20
131.923
 30
0.0
 40
0.945
  1
Ａ
 50
0.0
 41
0.666
 51
0.0
  7
KANJI12
  0
TEXT
  8
0
  6
CONTINUOUS
 62
     7
 10
158.318
 20
131.923
 30
0.0
 40
0.945
  1
Ｘ
 50
0.0
 41
0.666
 51
0.0
  7
KANJI12
  0
TEXT
  8
0
  6
CONTINUOUS
 62
     7
 10
165.248
 20
131.986
 30
0.0
 40
0.882
  1
Ｐ
 50
0.0
 41
0.714
 51
0.0
  7
KANJI13
  0
TEXT
  8
0
  6
CONTINUOUS
 62
     7
 10
165.878
 20
131.986
 30
0.0
 40
0.882
  1
Ｏ
 50
0.0
 41
0.714
 51
0.0
  7
KANJI13
  0
TEXT
  8
0
  6
CONTINUOUS
 62
     7
 10
166.508
 20
131.986
 30
0.0
 40
0.882
  1
Ｉ
 50
0.0
 41
0.714
 51
0.0
  7
KANJI13
  0
TEXT
  8
0
  6
CONTINUOUS
 62
     7
 10
167.138
 20
131.986
 30
0.0
 40
0.882
  1
Ｎ
 50
0.0
 41
0.714
 51
0.0
  7
KANJI13
  0
TEXT
  8
0
  6
CONTINUOUS
 62
     7
 10
167.768
 20
131.986
 30
0.0
 40
0.882
  1
Ｔ
 50
0.0
 41
0.714
 51
0.0
  7
KANJI13
  0
TEXT
  8
0
  6
CONTINUOUS
 62
     7
 10
200.465
 20
143.83
 30
0.0
 40
1.26
  1
Ｈ
 50
0.0
 41
0.75
 51
0.0
  7
KANJI4
  0
TEXT
  8
0
  6
CONTINUOUS
 62
     7
 10
201.41
 20
143.83
 30
0.0
 40
1.26
  1
Ｌ
 50
0.0
 41
0.75
 51
0.0
  7
KANJI4
  0
CIRCLE
  8
0
  6
CONTINUOUS
 62
     5
 10
204.861581
 20
139.852306
 30
0.0
 40
0.120456
  0
LINE
  8
0
  6
CONTINUOUS
 62
     5
 10
203.924456
 20
141.324931
 30
0.0
 11
203.42915
 21
141.324931
 31
0.0
  0
LINE
  8
0
  6
CONTINUOUS
 62
     5
 10
204.419825
 20
141.083956
 30
0.0
 11
203.924519
 21
141.083956
 31
0.0
  0
LINE
  8
0
  6
CONTINUOUS
 62
     5
 10
204.4466
 20
141.324931
 30
0.0
 11
203.924519
 21
141.324931
 31
0.0
  0
LINE
  8
0
  6
CONTINUOUS
 62
     5
 10
203.924456
 20
141.083956
 30
0.0
 11
203.402375
 21
141.083956
 31
0.0
  0
LINE
  8
0
  6
CONTINUOUS
 62
     5
 10
204.687575
 20
141.324931
 30
0.0
 11
204.84035
 21
142.411996
 31
0.0
  0
LINE
  8
0
  6
CONTINUOUS
 62
     5
 10
204.50015
 20
140.012956
 30
0.0
 11
204.664265
 21
141.084901
 31
0.0
  0
LINE
  8
0
  6
CONTINUOUS
 62
     5
 10
204.4466
 20
141.324931
 30
0.0
 11
204.6608
 21
141.084019
 31
0.0
  0
LINE
  8
0
  6
CONTINUOUS
 62
     5
 10
204.419825
 20
141.083956
 30
0.0
 11
204.687575
 21
141.324868
 31
0.0
  0
LINE
  8
0
  6
CONTINUOUS
 62
     5
 10
204.272531
 20
140.093281
 30
0.0
 11
204.406406
 21
139.94605
 31
0.0
  0
LINE
  8
0
  6
CONTINUOUS
 62
     5
 10
204.7679
 20
142.476256
 30
0.0
 11
204.593894
 21
142.329025
 31
0.0
  0
LINE
  8
0
  6
CONTINUOUS
 62
     5
 10
204.272531
 20
140.093281
 30
0.0
 11
204.425495
 21
141.085657
 31
0.0
  0
LINE
  8
0
  6
CONTINUOUS
 62
     5
 10
204.4466
 20
141.324931
 30
0.0
 11
204.588161
 21
142.332427
 31
0.0
  0
LINE
  8
0
  6
CONTINUOUS
 62
     5
 10
203.42915
 20
141.324931
 30
0.0
 11
203.3
 21
141.1966
 31
0.0
  0
LINE
  8
0
  6
CONTINUOUS
 62
     5
 10
203.3
 20
141.1966
 30
0.0
 11
203.402375
 21
141.084019
 31
0.0
  0
LINE
  8
0
  6
CONTINUOUS
 62
     5
 10
204.4088
 20
139.9366
 30
0.0
 11
204.500087
 21
140.012893
 31
0.0
  0
LINE
  8
0
  6
CONTINUOUS
 62
     5
 10
204.7742
 20
142.4692
 30
0.0
 11
204.834806
 21
142.409413
 31
0.0
  0
CIRCLE
  8
0
  6
CONTINUOUS
 62
     5
 10
207.012275
 20
139.852306
 30
0.0
 40
0.120456
  0
LINE
  8
0
  6
CONTINUOUS
 62
     5
 10
206.07515
 20
141.324931
 30
0.0
 11
205.579844
 21
141.324931
 31
0.0
  0
LINE
  8
0
  6
CONTINUOUS
 62
     5
 10
206.570519
 20
141.083956
 30
0.0
 11
206.075213
 21
141.083956
 31
0.0
  0
LINE
  8
0
  6
CONTINUOUS
 62
     5
 10
206.597294
 20
141.324931
 30
0.0
 11
206.075213
 21
141.324931
 31
0.0
  0
LINE
  8
0
  6
CONTINUOUS
 62
     5
 10
206.07515
 20
141.083956
 30
0.0
 11
205.553069
 21
141.083956
 31
0.0
  0
LINE
  8
0
  6
CONTINUOUS
 62
     5
 10
206.838269
 20
142.57
 30
0.0
 11
206.9855
 21
142.409413
 31
0.0
  0
LINE
  8
0
  6
CONTINUOUS
 62
     5
 10
206.838269
 20
141.324931
 30
0.0
 11
206.991044
 21
142.411996
 31
0.0
  0
LINE
  8
0
  6
CONTINUOUS
 62
     5
 10
205.686944
 20
142.57
 30
0.0
 11
205.472744
 21
142.395994
 31
0.0
  0
LINE
  8
0
  6
CONTINUOUS
 62
     5
 10
205.686944
 20
142.57
 30
0.0
 11
206.838269
 21
142.57
 31
0.0
  0
LINE
  8
0
  6
CONTINUOUS
 62
     5
 10
205.338869
 20
141.324931
 30
0.0
 11
205.476461
 21
142.400593
 31
0.0
  0
LINE
  8
0
  6
CONTINUOUS
 62
     5
 10
205.579844
 20
141.324931
 30
0.0
 11
205.708175
 21
142.334317
 31
0.0
  0
LINE
  8
0
  6
CONTINUOUS
 62
     5
 10
205.405775
 20
140.093281
 30
0.0
 11
205.558739
 21
141.085657
 31
0.0
  0
LINE
  8
0
  6
CONTINUOUS
 62
     5
 10
205.579844
 20
141.324931
 30
0.0
 11
205.312094
 21
141.084019
 31
0.0
  0
LINE
  8
0
  6
CONTINUOUS
 62
     5
 10
205.338869
 20
141.324931
 30
0.0
 11
205.553069
 21
141.084019
 31
0.0
  0
LINE
  8
0
  6
CONTINUOUS
 62
     5
 10
205.1648
 20
140.012956
 30
0.0
 11
205.32545
 21
139.852369
 31
0.0
  0
LINE
  8
0
  6
CONTINUOUS
 62
     5
 10
206.423225
 20
140.093281
 30
0.0
 11
205.405775
 21
140.093281
 31
0.0
  0
LINE
  8
0
  6
CONTINUOUS
 62
     5
 10
206.45
 20
139.852306
 30
0.0
 11
206.650781
 21
140.012893
 31
0.0
  0
LINE
  8
0
  6
CONTINUOUS
 62
     5
 10
206.45
 20
139.852306
 30
0.0
 11
205.32545
 21
139.852306
 31
0.0
  0
LINE
  8
0
  6
CONTINUOUS
 62
     5
 10
206.650844
 20
140.012956
 30
0.0
 11
206.814959
 21
141.084901
 31
0.0
  0
LINE
  8
0
  6
CONTINUOUS
 62
     5
 10
206.597294
 20
141.324931
 30
0.0
 11
206.811494
 21
141.084019
 31
0.0
  0
LINE
  8
0
  6
CONTINUOUS
 62
     5
 10
206.570519
 20
141.083956
 30
0.0
 11
206.838269
 21
141.324868
 31
0.0
  0
LINE
  8
0
  6
CONTINUOUS
 62
     5
 10
205.1648
 20
140.012956
 30
0.0
 11
205.315685
 21
141.086728
 31
0.0
  0
LINE
  8
0
  6
CONTINUOUS
 62
     5
 10
206.423225
 20
140.093281
 30
0.0
 11
206.5571
 21
139.94605
 31
0.0
  0
LINE
  8
0
  6
CONTINUOUS
 62
     5
 10
205.579844
 20
142.476256
 30
0.0
 11
205.713719
 21
142.329025
 31
0.0
  0
LINE
  8
0
  6
CONTINUOUS
 62
     5
 10
205.713719
 20
142.329025
 30
0.0
 11
206.744525
 21
142.329025
 31
0.0
  0
LINE
  8
0
  6
CONTINUOUS
 62
     5
 10
206.918594
 20
142.476256
 30
0.0
 11
206.744588
 21
142.329025
 31
0.0
  0
LINE
  8
0
  6
CONTINUOUS
 62
     5
 10
205.405775
 20
140.093281
 30
0.0
 11
205.245125
 21
139.94605
 31
0.0
  0
LINE
  8
0
  6
CONTINUOUS
 62
     5
 10
206.423225
 20
140.093281
 30
0.0
 11
206.576189
 21
141.085657
 31
0.0
  0
LINE
  8
0
  6
CONTINUOUS
 62
     5
 10
206.597294
 20
141.324931
 30
0.0
 11
206.738855
 21
142.332427
 31
0.0
  0
CIRCLE
  8
0
  6
CONTINUOUS
 62
     5
 10
209.154275
 20
139.852306
 30
0.0
 40
0.120456
  0
LINE
  8
0
  6
CONTINUOUS
 62
     5
 10
208.21715
 20
141.324931
 30
0.0
 11
207.721844
 21
141.324931
 31
0.0
  0
LINE
  8
0
  6
CONTINUOUS
 62
     5
 10
208.712519
 20
141.083956
 30
0.0
 11
208.217213
 21
141.083956
 31
0.0
  0
LINE
  8
0
  6
CONTINUOUS
 62
     5
 10
208.739294
 20
141.324931
 30
0.0
 11
208.217213
 21
141.324931
 31
0.0
  0
LINE
  8
0
  6
CONTINUOUS
 62
     5
 10
208.21715
 20
141.083956
 30
0.0
 11
207.695069
 21
141.083956
 31
0.0
  0
LINE
  8
0
  6
CONTINUOUS
 62
     5
 10
208.980269
 20
142.57
 30
0.0
 11
209.1275
 21
142.409413
 31
0.0
  0
LINE
  8
0
  6
CONTINUOUS
 62
     5
 10
208.980269
 20
141.324931
 30
0.0
 11
209.133044
 21
142.411996
 31
0.0
  0
LINE
  8
0
  6
CONTINUOUS
 62
     5
 10
207.828944
 20
142.57
 30
0.0
 11
207.614744
 21
142.395994
 31
0.0
  0
LINE
  8
0
  6
CONTINUOUS
 62
     5
 10
207.828944
 20
142.57
 30
0.0
 11
208.980269
 21
142.57
 31
0.0
  0
LINE
  8
0
  6
CONTINUOUS
 62
     5
 10
207.480869
 20
141.324931
 30
0.0
 11
207.618461
 21
142.400593
 31
0.0
  0
LINE
  8
0
  6
CONTINUOUS
 62
     5
 10
207.721844
 20
141.324931
 30
0.0
 11
207.850175
 21
142.334317
 31
0.0
  0
LINE
  8
0
  6
CONTINUOUS
 62
     5
 10
207.547775
 20
140.093281
 30
0.0
 11
207.700739
 21
141.085657
 31
0.0
  0
LINE
  8
0
  6
CONTINUOUS
 62
     5
 10
207.721844
 20
141.324931
 30
0.0
 11
207.454094
 21
141.084019
 31
0.0
  0
LINE
  8
0
  6
CONTINUOUS
 62
     5
 10
207.480869
 20
141.324931
 30
0.0
 11
207.695069
 21
141.084019
 31
0.0
  0
LINE
  8
0
  6
CONTINUOUS
 62
     5
 10
207.3068
 20
140.012956
 30
0.0
 11
207.46745
 21
139.852369
 31
0.0
  0
LINE
  8
0
  6
CONTINUOUS
 62
     5
 10
208.565225
 20
140.093281
 30
0.0
 11
207.547775
 21
140.093281
 31
0.0
  0
LINE
  8
0
  6
CONTINUOUS
 62
     5
 10
208.592
 20
139.852306
 30
0.0
 11
208.792781
 21
140.012893
 31
0.0
  0
LINE
  8
0
  6
CONTINUOUS
 62
     5
 10
208.592
 20
139.852306
 30
0.0
 11
207.46745
 21
139.852306
 31
0.0
  0
LINE
  8
0
  6
CONTINUOUS
 62
     5
 10
208.792844
 20
140.012956
 30
0.0
 11
208.956959
 21
141.084901
 31
0.0
  0
LINE
  8
0
  6
CONTINUOUS
 62
     5
 10
208.739294
 20
141.324931
 30
0.0
 11
208.953494
 21
141.084019
 31
0.0
  0
LINE
  8
0
  6
CONTINUOUS
 62
     5
 10
208.712519
 20
141.083956
 30
0.0
 11
208.980269
 21
141.324868
 31
0.0
  0
LINE
  8
0
  6
CONTINUOUS
 62
     5
 10
207.3068
 20
140.012956
 30
0.0
 11
207.457685
 21
141.086728
 31
0.0
  0
LINE
  8
0
  6
CONTINUOUS
 62
     5
 10
208.565225
 20
140.093281
 30
0.0
 11
208.6991
 21
139.94605
 31
0.0
  0
LINE
  8
0
  6
CONTINUOUS
 62
     5
 10
207.721844
 20
142.476256
 30
0.0
 11
207.855719
 21
142.329025
 31
0.0
  0
LINE
  8
0
  6
CONTINUOUS
 62
     5
 10
207.855719
 20
142.329025
 30
0.0
 11
208.886525
 21
142.329025
 31
0.0
  0
LINE
  8
0
  6
CONTINUOUS
 62
     5
 10
209.060594
 20
142.476256
 30
0.0
 11
208.886588
 21
142.329025
 31
0.0
  0
LINE
  8
0
  6
CONTINUOUS
 62
     5
 10
207.547775
 20
140.093281
 30
0.0
 11
207.387125
 21
139.94605
 31
0.0
  0
LINE
  8
0
  6
CONTINUOUS
 62
     5
 10
208.565225
 20
140.093281
 30
0.0
 11
208.718189
 21
141.085657
 31
0.0
  0
LINE
  8
0
  6
CONTINUOUS
 62
     5
 10
208.739294
 20
141.324931
 30
0.0
 11
208.880855
 21
142.332427
 31
0.0
  0
LINE
  8
0
  6
CONTINUOUS
 62
     5
 10
210.35915
 20
141.324931
 30
0.0
 11
209.863844
 21
141.324931
 31
0.0
  0
LINE
  8
0
  6
CONTINUOUS
 62
     5
 10
210.854519
 20
141.083956
 30
0.0
 11
210.359213
 21
141.083956
 31
0.0
  0
LINE
  8
0
  6
CONTINUOUS
 62
     5
 10
210.881294
 20
141.324931
 30
0.0
 11
210.359213
 21
141.324931
 31
0.0
  0
LINE
  8
0
  6
CONTINUOUS
 62
     5
 10
210.35915
 20
141.083956
 30
0.0
 11
209.837069
 21
141.083956
 31
0.0
  0
LINE
  8
0
  6
CONTINUOUS
 62
     5
 10
211.122269
 20
142.57
 30
0.0
 11
211.2695
 21
142.409413
 31
0.0
  0
LINE
  8
0
  6
CONTINUOUS
 62
     5
 10
211.122269
 20
141.324931
 30
0.0
 11
211.275044
 21
142.411996
 31
0.0
  0
LINE
  8
0
  6
CONTINUOUS
 62
     5
 10
209.970944
 20
142.57
 30
0.0
 11
209.756744
 21
142.395994
 31
0.0
  0
LINE
  8
0
  6
CONTINUOUS
 62
     5
 10
209.970944
 20
142.57
 30
0.0
 11
211.122269
 21
142.57
 31
0.0
  0
LINE
  8
0
  6
CONTINUOUS
 62
     5
 10
209.622869
 20
141.324931
 30
0.0
 11
209.760461
 21
142.400593
 31
0.0
  0
LINE
  8
0
  6
CONTINUOUS
 62
     5
 10
209.863844
 20
141.324931
 30
0.0
 11
209.992175
 21
142.334317
 31
0.0
  0
LINE
  8
0
  6
CONTINUOUS
 62
     5
 10
209.689775
 20
140.093281
 30
0.0
 11
209.842739
 21
141.085657
 31
0.0
  0
LINE
  8
0
  6
CONTINUOUS
 62
     5
 10
209.863844
 20
141.324931
 30
0.0
 11
209.596094
 21
141.084019
 31
0.0
  0
LINE
  8
0
  6
CONTINUOUS
 62
     5
 10
209.622869
 20
141.324931
 30
0.0
 11
209.837069
 21
141.084019
 31
0.0
  0
LINE
  8
0
  6
CONTINUOUS
 62
     5
 10
209.4488
 20
140.012956
 30
0.0
 11
209.60945
 21
139.852369
 31
0.0
  0
LINE
  8
0
  6
CONTINUOUS
 62
     5
 10
210.707225
 20
140.093281
 30
0.0
 11
209.689775
 21
140.093281
 31
0.0
  0
LINE
  8
0
  6
CONTINUOUS
 62
     5
 10
210.734
 20
139.852306
 30
0.0
 11
210.934781
 21
140.012893
 31
0.0
  0
LINE
  8
0
  6
CONTINUOUS
 62
     5
 10
210.734
 20
139.852306
 30
0.0
 11
209.60945
 21
139.852306
 31
0.0
  0
LINE
  8
0
  6
CONTINUOUS
 62
     5
 10
210.934844
 20
140.012956
 30
0.0
 11
211.098959
 21
141.084901
 31
0.0
  0
LINE
  8
0
  6
CONTINUOUS
 62
     5
 10
210.881294
 20
141.324931
 30
0.0
 11
211.095494
 21
141.084019
 31
0.0
  0
LINE
  8
0
  6
CONTINUOUS
 62
     5
 10
210.854519
 20
141.083956
 30
0.0
 11
211.122269
 21
141.324868
 31
0.0
  0
LINE
  8
0
  6
CONTINUOUS
 62
     5
 10
209.4488
 20
140.012956
 30
0.0
 11
209.599685
 21
141.086728
 31
0.0
  0
LINE
  8
0
  6
CONTINUOUS
 62
     5
 10
210.707225
 20
140.093281
 30
0.0
 11
210.8411
 21
139.94605
 31
0.0
  0
LINE
  8
0
  6
CONTINUOUS
 62
     5
 10
209.863844
 20
142.476256
 30
0.0
 11
209.997719
 21
142.329025
 31
0.0
  0
LINE
  8
0
  6
CONTINUOUS
 62
     5
 10
209.997719
 20
142.329025
 30
0.0
 11
211.028525
 21
142.329025
 31
0.0
  0
LINE
  8
0
  6
CONTINUOUS
 62
     5
 10
211.202594
 20
142.476256
 30
0.0
 11
211.028588
 21
142.329025
 31
0.0
  0
LINE
  8
0
  6
CONTINUOUS
 62
     5
 10
209.689775
 20
140.093281
 30
0.0
 11
209.529125
 21
139.94605
 31
0.0
  0
LINE
  8
0
  6
CONTINUOUS
 62
     5
 10
210.707225
 20
140.093281
 30
0.0
 11
210.860189
 21
141.085657
 31
0.0
  0
LINE
  8
0
  6
CONTINUOUS
 62
     5
 10
210.881294
 20
141.324931
 30
0.0
 11
211.022855
 21
142.332427
 31
0.0
  0
LINE
  8
0
  6
CONTINUOUS
 62
     5
 10
213.075269
 20
142.57
 30
0.0
 11
213.2225
 21
142.409413
 31
0.0
  0
LINE
  8
0
  6
CONTINUOUS
 62
     5
 10
213.075269
 20
141.324931
 30
0.0
 11
213.228044
 21
142.411996
 31
0.0
  0
LINE
  8
0
  6
CONTINUOUS
 62
     5
 10
211.923944
 20
142.57
 30
0.0
 11
211.709744
 21
142.395994
 31
0.0
  0
LINE
  8
0
  6
CONTINUOUS
 62
     5
 10
211.923944
 20
142.57
 30
0.0
 11
213.075269
 21
142.57
 31
0.0
  0
LINE
  8
0
  6
CONTINUOUS
 62
     5
 10
211.575869
 20
141.324931
 30
0.0
 11
211.713461
 21
142.400593
 31
0.0
  0
LINE
  8
0
  6
CONTINUOUS
 62
     5
 10
211.816844
 20
141.324931
 30
0.0
 11
211.945175
 21
142.334317
 31
0.0
  0
LINE
  8
0
  6
CONTINUOUS
 62
     5
 10
211.642775
 20
140.093281
 30
0.0
 11
211.795739
 21
141.085657
 31
0.0
  0
LINE
  8
0
  6
CONTINUOUS
 62
     5
 10
211.816844
 20
141.324931
 30
0.0
 11
211.549094
 21
141.084019
 31
0.0
  0
LINE
  8
0
  6
CONTINUOUS
 62
     5
 10
211.575869
 20
141.324931
 30
0.0
 11
211.790069
 21
141.084019
 31
0.0
  0
LINE
  8
0
  6
CONTINUOUS
 62
     5
 10
211.4018
 20
140.012956
 30
0.0
 11
211.56245
 21
139.852369
 31
0.0
  0
LINE
  8
0
  6
CONTINUOUS
 62
     5
 10
212.660225
 20
140.093281
 30
0.0
 11
211.642775
 21
140.093281
 31
0.0
  0
LINE
  8
0
  6
CONTINUOUS
 62
     5
 10
212.687
 20
139.852306
 30
0.0
 11
212.887781
 21
140.012893
 31
0.0
  0
LINE
  8
0
  6
CONTINUOUS
 62
     5
 10
212.687
 20
139.852306
 30
0.0
 11
211.56245
 21
139.852306
 31
0.0
  0
LINE
  8
0
  6
CONTINUOUS
 62
     5
 10
212.887844
 20
140.012956
 30
0.0
 11
213.051959
 21
141.084901
 31
0.0
  0
LINE
  8
0
  6
CONTINUOUS
 62
     5
 10
212.834294
 20
141.324931
 30
0.0
 11
213.048494
 21
141.084019
 31
0.0
  0
LINE
  8
0
  6
CONTINUOUS
 62
     5
 10
212.807519
 20
141.083956
 30
0.0
 11
213.075269
 21
141.324868
 31
0.0
  0
LINE
  8
0
  6
CONTINUOUS
 62
     5
 10
211.4018
 20
140.012956
 30
0.0
 11
211.552685
 21
141.086728
 31
0.0
  0
LINE
  8
0
  6
CONTINUOUS
 62
     5
 10
212.660225
 20
140.093281
 30
0.0
 11
212.7941
 21
139.94605
 31
0.0
  0
LINE
  8
0
  6
CONTINUOUS
 62
     5
 10
211.816844
 20
142.476256
 30
0.0
 11
211.950719
 21
142.329025
 31
0.0
  0
LINE
  8
0
  6
CONTINUOUS
 62
     5
 10
211.950719
 20
142.329025
 30
0.0
 11
212.981525
 21
142.329025
 31
0.0
  0
LINE
  8
0
  6
CONTINUOUS
 62
     5
 10
213.155594
 20
142.476256
 30
0.0
 11
212.981588
 21
142.329025
 31
0.0
  0
LINE
  8
0
  6
CONTINUOUS
 62
     5
 10
211.642775
 20
140.093281
 30
0.0
 11
211.482125
 21
139.94605
 31
0.0
  0
LINE
  8
0
  6
CONTINUOUS
 62
     5
 10
212.660225
 20
140.093281
 30
0.0
 11
212.813189
 21
141.085657
 31
0.0
  0
LINE
  8
0
  6
CONTINUOUS
 62
     5
 10
212.834294
 20
141.324931
 30
0.0
 11
212.975855
 21
142.332427
 31
0.0
  0
CIRCLE
  8
0
  6
CONTINUOUS
 62
     5
 10
204.861581
 20
143.317306
 30
0.0
 40
0.120456
  0
LINE
  8
0
  6
CONTINUOUS
 62
     5
 10
203.924456
 20
144.789931
 30
0.0
 11
203.42915
 21
144.789931
 31
0.0
  0
LINE
  8
0
  6
CONTINUOUS
 62
     5
 10
204.419825
 20
144.548956
 30
0.0
 11
203.924519
 21
144.548956
 31
0.0
  0
LINE
  8
0
  6
CONTINUOUS
 62
     5
 10
204.4466
 20
144.789931
 30
0.0
 11
203.924519
 21
144.789931
 31
0.0
  0
LINE
  8
0
  6
CONTINUOUS
 62
     5
 10
203.924456
 20
144.548956
 30
0.0
 11
203.402375
 21
144.548956
 31
0.0
  0
LINE
  8
0
  6
CONTINUOUS
 62
     5
 10
204.687575
 20
144.789931
 30
0.0
 11
204.84035
 21
145.876996
 31
0.0
  0
LINE
  8
0
  6
CONTINUOUS
 62
     5
 10
204.50015
 20
143.477956
 30
0.0
 11
204.664265
 21
144.549901
 31
0.0
  0
LINE
  8
0
  6
CONTINUOUS
 62
     5
 10
204.4466
 20
144.789931
 30
0.0
 11
204.6608
 21
144.549019
 31
0.0
  0
LINE
  8
0
  6
CONTINUOUS
 62
     5
 10
204.419825
 20
144.548956
 30
0.0
 11
204.687575
 21
144.789868
 31
0.0
  0
LINE
  8
0
  6
CONTINUOUS
 62
     5
 10
204.272531
 20
143.558281
 30
0.0
 11
204.406406
 21
143.41105
 31
0.0
  0
LINE
  8
0
  6
CONTINUOUS
 62
     5
 10
204.7679
 20
145.941256
 30
0.0
 11
204.593894
 21
145.794025
 31
0.0
  0
LINE
  8
0
  6
CONTINUOUS
 62
     5
 10
204.272531
 20
143.558281
 30
0.0
 11
204.425495
 21
144.550657
 31
0.0
  0
LINE
  8
0
  6
CONTINUOUS
 62
     5
 10
204.4466
 20
144.789931
 30
0.0
 11
204.588161
 21
145.797427
 31
0.0
  0
LINE
  8
0
  6
CONTINUOUS
 62
     5
 10
203.42915
 20
144.789931
 30
0.0
 11
203.3
 21
144.6616
 31
0.0
  0
LINE
  8
0
  6
CONTINUOUS
 62
     5
 10
203.3
 20
144.6616
 30
0.0
 11
203.402375
 21
144.549019
 31
0.0
  0
LINE
  8
0
  6
CONTINUOUS
 62
     5
 10
204.4088
 20
143.4016
 30
0.0
 11
204.500087
 21
143.477893
 31
0.0
  0
LINE
  8
0
  6
CONTINUOUS
 62
     5
 10
204.7742
 20
145.9342
 30
0.0
 11
204.834806
 21
145.874413
 31
0.0
  0
CIRCLE
  8
0
  6
CONTINUOUS
 62
     5
 10
207.012275
 20
143.317306
 30
0.0
 40
0.120456
  0
LINE
  8
0
  6
CONTINUOUS
 62
     5
 10
206.07515
 20
144.789931
 30
0.0
 11
205.579844
 21
144.789931
 31
0.0
  0
LINE
  8
0
  6
CONTINUOUS
 62
     5
 10
206.570519
 20
144.548956
 30
0.0
 11
206.075213
 21
144.548956
 31
0.0
  0
LINE
  8
0
  6
CONTINUOUS
 62
     5
 10
206.597294
 20
144.789931
 30
0.0
 11
206.075213
 21
144.789931
 31
0.0
  0
LINE
  8
0
  6
CONTINUOUS
 62
     5
 10
206.07515
 20
144.548956
 30
0.0
 11
205.553069
 21
144.548956
 31
0.0
  0
LINE
  8
0
  6
CONTINUOUS
 62
     5
 10
206.838269
 20
146.035
 30
0.0
 11
206.9855
 21
145.874413
 31
0.0
  0
LINE
  8
0
  6
CONTINUOUS
 62
     5
 10
206.838269
 20
144.789931
 30
0.0
 11
206.991044
 21
145.876996
 31
0.0
  0
LINE
  8
0
  6
CONTINUOUS
 62
     5
 10
205.686944
 20
146.035
 30
0.0
 11
205.472744
 21
145.860994
 31
0.0
  0
LINE
  8
0
  6
CONTINUOUS
 62
     5
 10
205.686944
 20
146.035
 30
0.0
 11
206.838269
 21
146.035
 31
0.0
  0
LINE
  8
0
  6
CONTINUOUS
 62
     5
 10
205.338869
 20
144.789931
 30
0.0
 11
205.476461
 21
145.865593
 31
0.0
  0
LINE
  8
0
  6
CONTINUOUS
 62
     5
 10
205.579844
 20
144.789931
 30
0.0
 11
205.708175
 21
145.799317
 31
0.0
  0
LINE
  8
0
  6
CONTINUOUS
 62
     5
 10
205.405775
 20
143.558281
 30
0.0
 11
205.558739
 21
144.550657
 31
0.0
  0
LINE
  8
0
  6
CONTINUOUS
 62
     5
 10
205.579844
 20
144.789931
 30
0.0
 11
205.312094
 21
144.549019
 31
0.0
  0
LINE
  8
0
  6
CONTINUOUS
 62
     5
 10
205.338869
 20
144.789931
 30
0.0
 11
205.553069
 21
144.549019
 31
0.0
  0
LINE
  8
0
  6
CONTINUOUS
 62
     5
 10
205.1648
 20
143.477956
 30
0.0
 11
205.32545
 21
143.317369
 31
0.0
  0
LINE
  8
0
  6
CONTINUOUS
 62
     5
 10
206.423225
 20
143.558281
 30
0.0
 11
205.405775
 21
143.558281
 31
0.0
  0
LINE
  8
0
  6
CONTINUOUS
 62
     5
 10
206.45
 20
143.317306
 30
0.0
 11
206.650781
 21
143.477893
 31
0.0
  0
LINE
  8
0
  6
CONTINUOUS
 62
     5
 10
206.45
 20
143.317306
 30
0.0
 11
205.32545
 21
143.317306
 31
0.0
  0
LINE
  8
0
  6
CONTINUOUS
 62
     5
 10
206.650844
 20
143.477956
 30
0.0
 11
206.814959
 21
144.549901
 31
0.0
  0
LINE
  8
0
  6
CONTINUOUS
 62
     5
 10
206.597294
 20
144.789931
 30
0.0
 11
206.811494
 21
144.549019
 31
0.0
  0
LINE
  8
0
  6
CONTINUOUS
 62
     5
 10
206.570519
 20
144.548956
 30
0.0
 11
206.838269
 21
144.789868
 31
0.0
  0
LINE
  8
0
  6
CONTINUOUS
 62
     5
 10
205.1648
 20
143.477956
 30
0.0
 11
205.315685
 21
144.551728
 31
0.0
  0
LINE
  8
0
  6
CONTINUOUS
 62
     5
 10
206.423225
 20
143.558281
 30
0.0
 11
206.5571
 21
143.41105
 31
0.0
  0
LINE
  8
0
  6
CONTINUOUS
 62
     5
 10
205.579844
 20
145.941256
 30
0.0
 11
205.713719
 21
145.794025
 31
0.0
  0
LINE
  8
0
  6
CONTINUOUS
 62
     5
 10
205.713719
 20
145.794025
 30
0.0
 11
206.744525
 21
145.794025
 31
0.0
  0
LINE
  8
0
  6
CONTINUOUS
 62
     5
 10
206.918594
 20
145.941256
 30
0.0
 11
206.744588
 21
145.794025
 31
0.0
  0
LINE
  8
0
  6
CONTINUOUS
 62
     5
 10
205.405775
 20
143.558281
 30
0.0
 11
205.245125
 21
143.41105
 31
0.0
  0
LINE
  8
0
  6
CONTINUOUS
 62
     5
 10
206.423225
 20
143.558281
 30
0.0
 11
206.576189
 21
144.550657
 31
0.0
  0
LINE
  8
0
  6
CONTINUOUS
 62
     5
 10
206.597294
 20
144.789931
 30
0.0
 11
206.738855
 21
145.797427
 31
0.0
  0
CIRCLE
  8
0
  6
CONTINUOUS
 62
     5
 10
209.154275
 20
143.317306
 30
0.0
 40
0.120456
  0
LINE
  8
0
  6
CONTINUOUS
 62
     5
 10
208.21715
 20
144.789931
 30
0.0
 11
207.721844
 21
144.789931
 31
0.0
  0
LINE
  8
0
  6
CONTINUOUS
 62
     5
 10
208.712519
 20
144.548956
 30
0.0
 11
208.217213
 21
144.548956
 31
0.0
  0
LINE
  8
0
  6
CONTINUOUS
 62
     5
 10
208.739294
 20
144.789931
 30
0.0
 11
208.217213
 21
144.789931
 31
0.0
  0
LINE
  8
0
  6
CONTINUOUS
 62
     5
 10
208.21715
 20
144.548956
 30
0.0
 11
207.695069
 21
144.548956
 31
0.0
  0
LINE
  8
0
  6
CONTINUOUS
 62
     5
 10
208.980269
 20
146.035
 30
0.0
 11
209.1275
 21
145.874413
 31
0.0
  0
LINE
  8
0
  6
CONTINUOUS
 62
     5
 10
208.980269
 20
144.789931
 30
0.0
 11
209.133044
 21
145.876996
 31
0.0
  0
LINE
  8
0
  6
CONTINUOUS
 62
     5
 10
207.828944
 20
146.035
 30
0.0
 11
207.614744
 21
145.860994
 31
0.0
  0
LINE
  8
0
  6
CONTINUOUS
 62
     5
 10
207.828944
 20
146.035
 30
0.0
 11
208.980269
 21
146.035
 31
0.0
  0
LINE
  8
0
  6
CONTINUOUS
 62
     5
 10
207.480869
 20
144.789931
 30
0.0
 11
207.618461
 21
145.865593
 31
0.0
  0
LINE
  8
0
  6
CONTINUOUS
 62
     5
 10
207.721844
 20
144.789931
 30
0.0
 11
207.850175
 21
145.799317
 31
0.0
  0
LINE
  8
0
  6
CONTINUOUS
 62
     5
 10
207.547775
 20
143.558281
 30
0.0
 11
207.700739
 21
144.550657
 31
0.0
  0
LINE
  8
0
  6
CONTINUOUS
 62
     5
 10
207.721844
 20
144.789931
 30
0.0
 11
207.454094
 21
144.549019
 31
0.0
  0
LINE
  8
0
  6
CONTINUOUS
 62
     5
 10
207.480869
 20
144.789931
 30
0.0
 11
207.695069
 21
144.549019
 31
0.0
  0
LINE
  8
0
  6
CONTINUOUS
 62
     5
 10
207.3068
 20
143.477956
 30
0.0
 11
207.46745
 21
143.317369
 31
0.0
  0
LINE
  8
0
  6
CONTINUOUS
 62
     5
 10
208.565225
 20
143.558281
 30
0.0
 11
207.547775
 21
143.558281
 31
0.0
  0
LINE
  8
0
  6
CONTINUOUS
 62
     5
 10
208.592
 20
143.317306
 30
0.0
 11
208.792781
 21
143.477893
 31
0.0
  0
LINE
  8
0
  6
CONTINUOUS
 62
     5
 10
208.592
 20
143.317306
 30
0.0
 11
207.46745
 21
143.317306
 31
0.0
  0
LINE
  8
0
  6
CONTINUOUS
 62
     5
 10
208.792844
 20
143.477956
 30
0.0
 11
208.956959
 21
144.549901
 31
0.0
  0
LINE
  8
0
  6
CONTINUOUS
 62
     5
 10
208.739294
 20
144.789931
 30
0.0
 11
208.953494
 21
144.549019
 31
0.0
  0
LINE
  8
0
  6
CONTINUOUS
 62
     5
 10
208.712519
 20
144.548956
 30
0.0
 11
208.980269
 21
144.789868
 31
0.0
  0
LINE
  8
0
  6
CONTINUOUS
 62
     5
 10
207.3068
 20
143.477956
 30
0.0
 11
207.457685
 21
144.551728
 31
0.0
  0
LINE
  8
0
  6
CONTINUOUS
 62
     5
 10
208.565225
 20
143.558281
 30
0.0
 11
208.6991
 21
143.41105
 31
0.0
  0
LINE
  8
0
  6
CONTINUOUS
 62
     5
 10
207.721844
 20
145.941256
 30
0.0
 11
207.855719
 21
145.794025
 31
0.0
  0
LINE
  8
0
  6
CONTINUOUS
 62
     5
 10
207.855719
 20
145.794025
 30
0.0
 11
208.886525
 21
145.794025
 31
0.0
  0
LINE
  8
0
  6
CONTINUOUS
 62
     5
 10
209.060594
 20
145.941256
 30
0.0
 11
208.886588
 21
145.794025
 31
0.0
  0
LINE
  8
0
  6
CONTINUOUS
 62
     5
 10
207.547775
 20
143.558281
 30
0.0
 11
207.387125
 21
143.41105
 31
0.0
  0
LINE
  8
0
  6
CONTINUOUS
 62
     5
 10
208.565225
 20
143.558281
 30
0.0
 11
208.718189
 21
144.550657
 31
0.0
  0
LINE
  8
0
  6
CONTINUOUS
 62
     5
 10
208.739294
 20
144.789931
 30
0.0
 11
208.880855
 21
145.797427
 31
0.0
  0
LINE
  8
0
  6
CONTINUOUS
 62
     5
 10
210.35915
 20
144.789931
 30
0.0
 11
209.863844
 21
144.789931
 31
0.0
  0
LINE
  8
0
  6
CONTINUOUS
 62
     5
 10
210.854519
 20
144.548956
 30
0.0
 11
210.359213
 21
144.548956
 31
0.0
  0
LINE
  8
0
  6
CONTINUOUS
 62
     5
 10
210.881294
 20
144.789931
 30
0.0
 11
210.359213
 21
144.789931
 31
0.0
  0
LINE
  8
0
  6
CONTINUOUS
 62
     5
 10
210.35915
 20
144.548956
 30
0.0
 11
209.837069
 21
144.548956
 31
0.0
  0
LINE
  8
0
  6
CONTINUOUS
 62
     5
 10
211.122269
 20
146.035
 30
0.0
 11
211.2695
 21
145.874413
 31
0.0
  0
LINE
  8
0
  6
CONTINUOUS
 62
     5
 10
211.122269
 20
144.789931
 30
0.0
 11
211.275044
 21
145.876996
 31
0.0
  0
LINE
  8
0
  6
CONTINUOUS
 62
     5
 10
209.970944
 20
146.035
 30
0.0
 11
209.756744
 21
145.860994
 31
0.0
  0
LINE
  8
0
  6
CONTINUOUS
 62
     5
 10
209.970944
 20
146.035
 30
0.0
 11
211.122269
 21
146.035
 31
0.0
  0
LINE
  8
0
  6
CONTINUOUS
 62
     5
 10
209.622869
 20
144.789931
 30
0.0
 11
209.760461
 21
145.865593
 31
0.0
  0
LINE
  8
0
  6
CONTINUOUS
 62
     5
 10
209.863844
 20
144.789931
 30
0.0
 11
209.992175
 21
145.799317
 31
0.0
  0
LINE
  8
0
  6
CONTINUOUS
 62
     5
 10
209.689775
 20
143.558281
 30
0.0
 11
209.842739
 21
144.550657
 31
0.0
  0
LINE
  8
0
  6
CONTINUOUS
 62
     5
 10
209.863844
 20
144.789931
 30
0.0
 11
209.596094
 21
144.549019
 31
0.0
  0
LINE
  8
0
  6
CONTINUOUS
 62
     5
 10
209.622869
 20
144.789931
 30
0.0
 11
209.837069
 21
144.549019
 31
0.0
  0
LINE
  8
0
  6
CONTINUOUS
 62
     5
 10
209.4488
 20
143.477956
 30
0.0
 11
209.60945
 21
143.317369
 31
0.0
  0
LINE
  8
0
  6
CONTINUOUS
 62
     5
 10
210.707225
 20
143.558281
 30
0.0
 11
209.689775
 21
143.558281
 31
0.0
  0
LINE
  8
0
  6
CONTINUOUS
 62
     5
 10
210.734
 20
143.317306
 30
0.0
 11
210.934781
 21
143.477893
 31
0.0
  0
LINE
  8
0
  6
CONTINUOUS
 62
     5
 10
210.734
 20
143.317306
 30
0.0
 11
209.60945
 21
143.317306
 31
0.0
  0
LINE
  8
0
  6
CONTINUOUS
 62
     5
 10
210.934844
 20
143.477956
 30
0.0
 11
211.098959
 21
144.549901
 31
0.0
  0
LINE
  8
0
  6
CONTINUOUS
 62
     5
 10
210.881294
 20
144.789931
 30
0.0
 11
211.095494
 21
144.549019
 31
0.0
  0
LINE
  8
0
  6
CONTINUOUS
 62
     5
 10
210.854519
 20
144.548956
 30
0.0
 11
211.122269
 21
144.789868
 31
0.0
  0
LINE
  8
0
  6
CONTINUOUS
 62
     5
 10
209.4488
 20
143.477956
 30
0.0
 11
209.599685
 21
144.551728
 31
0.0
  0
LINE
  8
0
  6
CONTINUOUS
 62
     5
 10
210.707225
 20
143.558281
 30
0.0
 11
210.8411
 21
143.41105
 31
0.0
  0
LINE
  8
0
  6
CONTINUOUS
 62
     5
 10
209.863844
 20
145.941256
 30
0.0
 11
209.997719
 21
145.794025
 31
0.0
  0
LINE
  8
0
  6
CONTINUOUS
 62
     5
 10
209.997719
 20
145.794025
 30
0.0
 11
211.028525
 21
145.794025
 31
0.0
  0
LINE
  8
0
  6
CONTINUOUS
 62
     5
 10
211.202594
 20
145.941256
 30
0.0
 11
211.028588
 21
145.794025
 31
0.0
  0
LINE
  8
0
  6
CONTINUOUS
 62
     5
 10
209.689775
 20
143.558281
 30
0.0
 11
209.529125
 21
143.41105
 31
0.0
  0
LINE
  8
0
  6
CONTINUOUS
 62
     5
 10
210.707225
 20
143.558281
 30
0.0
 11
210.860189
 21
144.550657
 31
0.0
  0
LINE
  8
0
  6
CONTINUOUS
 62
     5
 10
210.881294
 20
144.789931
 30
0.0
 11
211.022855
 21
145.797427
 31
0.0
  0
LINE
  8
0
  6
CONTINUOUS
 62
     5
 10
213.075269
 20
146.035
 30
0.0
 11
213.2225
 21
145.874413
 31
0.0
  0
LINE
  8
0
  6
CONTINUOUS
 62
     5
 10
213.075269
 20
144.789931
 30
0.0
 11
213.228044
 21
145.876996
 31
0.0
  0
LINE
  8
0
  6
CONTINUOUS
 62
     5
 10
211.923944
 20
146.035
 30
0.0
 11
211.709744
 21
145.860994
 31
0.0
  0
LINE
  8
0
  6
CONTINUOUS
 62
     5
 10
211.923944
 20
146.035
 30
0.0
 11
213.075269
 21
146.035
 31
0.0
  0
LINE
  8
0
  6
CONTINUOUS
 62
     5
 10
211.575869
 20
144.789931
 30
0.0
 11
211.713461
 21
145.865593
 31
0.0
  0
LINE
  8
0
  6
CONTINUOUS
 62
     5
 10
211.816844
 20
144.789931
 30
0.0
 11
211.945175
 21
145.799317
 31
0.0
  0
LINE
  8
0
  6
CONTINUOUS
 62
     5
 10
211.642775
 20
143.558281
 30
0.0
 11
211.795739
 21
144.550657
 31
0.0
  0
LINE
  8
0
  6
CONTINUOUS
 62
     5
 10
211.816844
 20
144.789931
 30
0.0
 11
211.549094
 21
144.549019
 31
0.0
  0
LINE
  8
0
  6
CONTINUOUS
 62
     5
 10
211.575869
 20
144.789931
 30
0.0
 11
211.790069
 21
144.549019
 31
0.0
  0
LINE
  8
0
  6
CONTINUOUS
 62
     5
 10
211.4018
 20
143.477956
 30
0.0
 11
211.56245
 21
143.317369
 31
0.0
  0
LINE
  8
0
  6
CONTINUOUS
 62
     5
 10
212.660225
 20
143.558281
 30
0.0
 11
211.642775
 21
143.558281
 31
0.0
  0
LINE
  8
0
  6
CONTINUOUS
 62
     5
 10
212.687
 20
143.317306
 30
0.0
 11
212.887781
 21
143.477893
 31
0.0
  0
LINE
  8
0
  6
CONTINUOUS
 62
     5
 10
212.687
 20
143.317306
 30
0.0
 11
211.56245
 21
143.317306
 31
0.0
  0
LINE
  8
0
  6
CONTINUOUS
 62
     5
 10
212.887844
 20
143.477956
 30
0.0
 11
213.051959
 21
144.549901
 31
0.0
  0
LINE
  8
0
  6
CONTINUOUS
 62
     5
 10
212.834294
 20
144.789931
 30
0.0
 11
213.048494
 21
144.549019
 31
0.0
  0
LINE
  8
0
  6
CONTINUOUS
 62
     5
 10
212.807519
 20
144.548956
 30
0.0
 11
213.075269
 21
144.789868
 31
0.0
  0
LINE
  8
0
  6
CONTINUOUS
 62
     5
 10
211.4018
 20
143.477956
 30
0.0
 11
211.552685
 21
144.551728
 31
0.0
  0
LINE
  8
0
  6
CONTINUOUS
 62
     5
 10
212.660225
 20
143.558281
 30
0.0
 11
212.7941
 21
143.41105
 31
0.0
  0
LINE
  8
0
  6
CONTINUOUS
 62
     5
 10
211.816844
 20
145.941256
 30
0.0
 11
211.950719
 21
145.794025
 31
0.0
  0
LINE
  8
0
  6
CONTINUOUS
 62
     5
 10
211.950719
 20
145.794025
 30
0.0
 11
212.981525
 21
145.794025
 31
0.0
  0
LINE
  8
0
  6
CONTINUOUS
 62
     5
 10
213.155594
 20
145.941256
 30
0.0
 11
212.981588
 21
145.794025
 31
0.0
  0
LINE
  8
0
  6
CONTINUOUS
 62
     5
 10
211.642775
 20
143.558281
 30
0.0
 11
211.482125
 21
143.41105
 31
0.0
  0
LINE
  8
0
  6
CONTINUOUS
 62
     5
 10
212.660225
 20
143.558281
 30
0.0
 11
212.813189
 21
144.550657
 31
0.0
  0
LINE
  8
0
  6
CONTINUOUS
 62
     5
 10
212.834294
 20
144.789931
 30
0.0
 11
212.975855
 21
145.797427
 31
0.0
  0
TEXT
  8
0
  6
CONTINUOUS
 62
     7
 10
200.465
 20
140.68
 30
0.0
 40
1.26
  1
Ｈ
 50
0.0
 41
0.75
 51
0.0
  7
KANJI4
  0
TEXT
  8
0
  6
CONTINUOUS
 62
     7
 10
201.41
 20
140.68
 30
0.0
 40
1.26
  1
Ｌ
 50
0.0
 41
0.75
 51
0.0
  7
KANJI4
  0
LINE
  8
0
  6
CONTINUOUS
 62
     7
 10
212.75
 20
134.506
 30
0.0
 11
212.75
 21
133.561
 31
0.0
  0
LINE
  8
0
  6
CONTINUOUS
 62
     7
 10
205.19
 20
133.561
 30
0.0
 11
205.19
 21
134.506
 31
0.0
  0
LINE
  8
0
  6
CONTINUOUS
 62
     7
 10
205.19
 20
134.506
 30
0.0
 11
208.025
 21
134.506
 31
0.0
  0
LINE
  8
0
  6
CONTINUOUS
 62
     7
 10
205.19
 20
133.561
 30
0.0
 11
208.025
 21
133.561
 31
0.0
  0
LINE
  8
0
  6
CONTINUOUS
 62
     7
 10
209.915
 20
134.506
 30
0.0
 11
212.75
 21
134.506
 31
0.0
  0
LINE
  8
0
  6
CONTINUOUS
 62
     7
 10
209.915
 20
133.561
 30
0.0
 11
212.75
 21
133.561
 31
0.0
  0
LINE
  8
0
  6
CONTINUOUS
 62
     7
 10
208.025
 20
134.506
 30
0.0
 11
208.025
 21
133.561
 31
0.0
  0
LINE
  8
0
  6
CONTINUOUS
 62
     7
 10
209.915
 20
134.506
 30
0.0
 11
209.915
 21
133.561
 31
0.0
  0
LINE
  8
0
  6
CONTINUOUS
 62
     7
 10
208.277
 20
134.002
 30
0.0
 11
208.781
 21
134.002
 31
0.0
  0
LINE
  8
0
  6
CONTINUOUS
 62
     7
 10
209.096
 20
134.002
 30
0.0
 11
209.6
 21
134.002
 31
0.0
  0
CIRCLE
  8
0
  6
CONTINUOUS
 62
     7
 10
206.198
 20
134.002
 30
0.0
 40
0.189
  0
LINE
  8
0
  6
CONTINUOUS
 62
     7
 10
206.009
 20
134.002
 30
0.0
 11
205.442
 21
134.002
 31
0.0
  0
LINE
  8
0
  6
CONTINUOUS
 62
     7
 10
207.206
 20
134.002
 30
0.0
 11
207.773
 21
134.002
 31
0.0
  0
LINE
  8
0
  6
CONTINUOUS
 62
     7
 10
205.946
 20
134.317
 30
0.0
 11
207.332
 21
134.317
 31
0.0
  0
CIRCLE
  8
0
  6
CONTINUOUS
 62
     7
 10
207.017
 20
134.002
 30
0.0
 40
0.189
  0
CIRCLE
  8
0
  6
CONTINUOUS
 62
     7
 10
210.923
 20
134.002
 30
0.0
 40
0.189
  0
CIRCLE
  8
0
  6
CONTINUOUS
 62
     7
 10
211.742
 20
134.002
 30
0.0
 40
0.189
  0
LINE
  8
0
  6
CONTINUOUS
 62
     7
 10
210.734
 20
134.002
 30
0.0
 11
210.167
 21
134.002
 31
0.0
  0
LINE
  8
0
  6
CONTINUOUS
 62
     7
 10
211.931
 20
134.002
 30
0.0
 11
212.498
 21
134.002
 31
0.0
  0
LINE
  8
0
  6
CONTINUOUS
 62
     7
 10
210.671
 20
133.813
 30
0.0
 11
212.057
 21
133.813
 31
0.0
  0
LINE
  8
0
  6
CONTINUOUS
 62
     7
 10
205.19
 20
135.703
 30
0.0
 11
212.75
 21
135.703
 31
0.0
  0
LINE
  8
0
  6
CONTINUOUS
 62
     7
 10
212.75
 20
135.703
 30
0.0
 11
212.75
 21
134.758
 31
0.0
  0
LINE
  8
0
  6
CONTINUOUS
 62
     7
 10
212.75
 20
134.758
 30
0.0
 11
205.19
 21
134.758
 31
0.0
  0
LINE
  8
0
  6
CONTINUOUS
 62
     7
 10
205.19
 20
134.758
 30
0.0
 11
205.19
 21
135.703
 31
0.0
  0
TEXT
  8
0
  6
CONTINUOUS
 62
     7
 10
205.82
 20
134.947
 30
0.0
 40
0.63
  1
Ｄ
 50
0.0
 41
1.0
 51
0.0
  7
KANJI10
  0
TEXT
  8
0
  6
CONTINUOUS
 62
     7
 10
206.45
 20
134.947
 30
0.0
 40
0.63
  1
Ｅ
 50
0.0
 41
1.0
 51
0.0
  7
KANJI10
  0
TEXT
  8
0
  6
CONTINUOUS
 62
     7
 10
207.08
 20
134.947
 30
0.0
 40
0.63
  1
Ａ
 50
0.0
 41
1.0
 51
0.0
  7
KANJI10
  0
TEXT
  8
0
  6
CONTINUOUS
 62
     7
 10
207.71
 20
134.947
 30
0.0
 40
0.63
  1
Ｄ
 50
0.0
 41
1.0
 51
0.0
  7
KANJI10
  0
TEXT
  8
0
  6
CONTINUOUS
 62
     7
 10
209.726
 20
134.947
 30
0.0
 40
0.63
  1
Ｂ
 50
0.0
 41
1.0
 51
0.0
  7
KANJI10
  0
TEXT
  8
0
  6
CONTINUOUS
 62
     7
 10
210.356
 20
134.947
 30
0.0
 40
0.63
  1
Ａ
 50
0.0
 41
1.0
 51
0.0
  7
KANJI10
  0
TEXT
  8
0
  6
CONTINUOUS
 62
     7
 10
210.986
 20
134.947
 30
0.0
 40
0.63
  1
Ｎ
 50
0.0
 41
1.0
 51
0.0
  7
KANJI10
  0
TEXT
  8
0
  6
CONTINUOUS
 62
     7
 10
211.616
 20
134.947
 30
0.0
 40
0.63
  1
Ｄ
 50
0.0
 41
1.0
 51
0.0
  7
KANJI10
  0
LINE
  8
0
  6
CONTINUOUS
 62
     7
 10
205.19
 20
136.9
 30
0.0
 11
212.75
 21
136.9
 31
0.0
  0
LINE
  8
0
  6
CONTINUOUS
 62
     7
 10
212.75
 20
136.9
 30
0.0
 11
212.75
 21
135.955
 31
0.0
  0
LINE
  8
0
  6
CONTINUOUS
 62
     7
 10
212.75
 20
135.955
 30
0.0
 11
205.19
 21
135.955
 31
0.0
  0
LINE
  8
0
  6
CONTINUOUS
 62
     7
 10
205.19
 20
135.955
 30
0.0
 11
205.19
 21
136.9
 31
0.0
  0
TEXT
  8
0
  6
CONTINUOUS
 62
     7
 10
205.82
 20
136.081
 30
0.0
 40
0.63
  1
Ｓ
 50
0.0
 41
1.0
 51
0.0
  7
KANJI10
  0
TEXT
  8
0
  6
CONTINUOUS
 62
     7
 10
206.45
 20
136.081
 30
0.0
 40
0.63
  1
Ｔ
 50
0.0
 41
1.0
 51
0.0
  7
KANJI10
  0
TEXT
  8
0
  6
CONTINUOUS
 62
     7
 10
207.08
 20
136.081
 30
0.0
 40
0.63
  1
Ａ
 50
0.0
 41
1.0
 51
0.0
  7
KANJI10
  0
TEXT
  8
0
  6
CONTINUOUS
 62
     7
 10
207.71
 20
136.081
 30
0.0
 40
0.63
  1
Ｒ
 50
0.0
 41
1.0
 51
0.0
  7
KANJI10
  0
TEXT
  8
0
  6
CONTINUOUS
 62
     7
 10
208.34
 20
136.081
 30
0.0
 40
0.63
  1
Ｔ
 50
0.0
 41
1.0
 51
0.0
  7
KANJI10
  0
TEXT
  8
0
  6
CONTINUOUS
 62
     7
 10
210.356
 20
136.081
 30
0.0
 40
0.63
  1
Ｄ
 50
0.0
 41
1.0
 51
0.0
  7
KANJI10
  0
TEXT
  8
0
  6
CONTINUOUS
 62
     7
 10
210.986
 20
136.081
 30
0.0
 40
0.63
  1
Ｌ
 50
0.0
 41
1.0
 51
0.0
  7
KANJI10
  0
TEXT
  8
0
  6
CONTINUOUS
 62
     7
 10
211.616
 20
136.081
 30
0.0
 40
0.63
  1
Ｙ
 50
0.0
 41
1.0
 51
0.0
  7
KANJI10
  0
LINE
  8
0
  6
CONTINUOUS
 62
     7
 10
205.19
 20
138.097
 30
0.0
 11
212.75
 21
138.097
 31
0.0
  0
LINE
  8
0
  6
CONTINUOUS
 62
     7
 10
212.75
 20
138.097
 30
0.0
 11
212.75
 21
137.152
 31
0.0
  0
LINE
  8
0
  6
CONTINUOUS
 62
     7
 10
212.75
 20
137.152
 30
0.0
 11
205.19
 21
137.152
 31
0.0
  0
LINE
  8
0
  6
CONTINUOUS
 62
     7
 10
205.19
 20
137.152
 30
0.0
 11
205.19
 21
138.097
 31
0.0
  0
TEXT
  8
0
  6
CONTINUOUS
 62
     7
 10
205.82
 20
137.341
 30
0.0
 40
0.63
  1
Ｐ
 50
0.0
 41
1.0
 51
0.0
  7
KANJI10
  0
TEXT
  8
0
  6
CONTINUOUS
 62
     7
 10
206.45
 20
137.341
 30
0.0
 40
0.63
  1
Ｉ
 50
0.0
 41
1.0
 51
0.0
  7
KANJI10
  0
TEXT
  8
0
  6
CONTINUOUS
 62
     7
 10
207.08
 20
137.341
 30
0.0
 40
0.63
  1
Ｃ
 50
0.0
 41
1.0
 51
0.0
  7
KANJI10
  0
TEXT
  8
0
  6
CONTINUOUS
 62
     7
 10
207.71
 20
137.341
 30
0.0
 40
0.63
  1
Ｋ
 50
0.0
 41
1.0
 51
0.0
  7
KANJI10
  0
TEXT
  8
0
  6
CONTINUOUS
 62
     7
 10
208.718
 20
137.341
 30
0.0
 40
0.63
  1
Ｕ
 50
0.0
 41
1.0
 51
0.0
  7
KANJI10
  0
TEXT
  8
0
  6
CONTINUOUS
 62
     7
 10
209.348
 20
137.341
 30
0.0
 40
0.63
  1
Ｐ
 50
0.0
 41
1.0
 51
0.0
  7
KANJI10
  0
TEXT
  8
0
  6
CONTINUOUS
 62
     7
 10
210.356
 20
137.341
 30
0.0
 40
0.63
  1
Ｄ
 50
0.0
 41
1.0
 51
0.0
  7
KANJI10
  0
TEXT
  8
0
  6
CONTINUOUS
 62
     7
 10
210.986
 20
137.341
 30
0.0
 40
0.63
  1
Ｌ
 50
0.0
 41
1.0
 51
0.0
  7
KANJI10
  0
TEXT
  8
0
  6
CONTINUOUS
 62
     7
 10
211.616
 20
137.341
 30
0.0
 40
0.63
  1
Ｙ
 50
0.0
 41
1.0
 51
0.0
  7
KANJI10
  0
TEXT
  8
0
  6
CONTINUOUS
 62
     7
 10
205.82
 20
138.475
 30
0.0
 40
0.63
  1
Ｃ
 50
0.0
 41
1.0
 51
0.0
  7
KANJI10
  0
TEXT
  8
0
  6
CONTINUOUS
 62
     7
 10
211.616
 20
138.475
 30
0.0
 40
0.63
  1
Ｐ
 50
0.0
 41
1.0
 51
0.0
  7
KANJI10
  0
TEXT
  8
0
  6
CONTINUOUS
 62
     7
 10
209.6
 20
138.475
 30
0.0
 40
0.63
  1
Ｍ
 50
0.0
 41
1.0
 51
0.0
  7
KANJI10
  0
TEXT
  8
0
  6
CONTINUOUS
 62
     7
 10
207.71
 20
138.475
 30
0.0
 40
0.63
  1
Ｏ
 50
0.0
 41
1.0
 51
0.0
  7
KANJI10
  0
LINE
  8
0
  6
CONTINUOUS
 62
     7
 10
205.19
 20
139.294
 30
0.0
 11
212.75
 21
139.294
 31
0.0
  0
LINE
  8
0
  6
CONTINUOUS
 62
     7
 10
212.75
 20
139.294
 30
0.0
 11
212.75
 21
138.349
 31
0.0
  0
LINE
  8
0
  6
CONTINUOUS
 62
     7
 10
212.75
 20
138.349
 30
0.0
 11
205.19
 21
138.349
 31
0.0
  0
LINE
  8
0
  6
CONTINUOUS
 62
     7
 10
205.19
 20
138.349
 30
0.0
 11
205.19
 21
139.294
 31
0.0
  0
LINE
  8
0
  6
CONTINUOUS
 62
     7
 10
200.15
 20
133.12
 30
0.0
 11
203.93
 21
133.12
 31
0.0
  0
LINE
  8
0
  6
CONTINUOUS
 62
     7
 10
203.93
 20
133.12
 30
0.0
 11
203.93
 21
131.86
 31
0.0
  0
LINE
  8
0
  6
CONTINUOUS
 62
     7
 10
203.93
 20
131.86
 30
0.0
 11
200.15
 21
131.86
 31
0.0
  0
LINE
  8
0
  6
CONTINUOUS
 62
     7
 10
200.15
 20
131.86
 30
0.0
 11
200.15
 21
133.12
 31
0.0
  0
LINE
  8
0
  6
CONTINUOUS
 62
     7
 10
204.56
 20
133.12
 30
0.0
 11
208.34
 21
133.12
 31
0.0
  0
LINE
  8
0
  6
CONTINUOUS
 62
     7
 10
208.34
 20
133.12
 30
0.0
 11
208.34
 21
131.86
 31
0.0
  0
LINE
  8
0
  6
CONTINUOUS
 62
     7
 10
208.34
 20
131.86
 30
0.0
 11
204.56
 21
131.86
 31
0.0
  0
LINE
  8
0
  6
CONTINUOUS
 62
     7
 10
204.56
 20
131.86
 30
0.0
 11
204.56
 21
133.12
 31
0.0
  0
LINE
  8
0
  6
CONTINUOUS
 62
     7
 10
208.97
 20
133.12
 30
0.0
 11
212.75
 21
133.12
 31
0.0
  0
LINE
  8
0
  6
CONTINUOUS
 62
     7
 10
212.75
 20
133.12
 30
0.0
 11
212.75
 21
131.86
 31
0.0
  0
LINE
  8
0
  6
CONTINUOUS
 62
     7
 10
212.75
 20
131.86
 30
0.0
 11
208.97
 21
131.86
 31
0.0
  0
LINE
  8
0
  6
CONTINUOUS
 62
     7
 10
208.97
 20
131.86
 30
0.0
 11
208.97
 21
133.12
 31
0.0
  0
TEXT
  8
0
  6
CONTINUOUS
 62
     7
 10
205.442
 20
131.923
 30
0.0
 40
0.945
  1
Ｍ
 50
0.0
 41
0.666
 51
0.0
  7
KANJI12
  0
TEXT
  8
0
  6
CONTINUOUS
 62
     7
 10
206.072
 20
131.923
 30
0.0
 40
0.945
  1
Ｉ
 50
0.0
 41
0.666
 51
0.0
  7
KANJI12
  0
TEXT
  8
0
  6
CONTINUOUS
 62
     7
 10
206.702
 20
131.923
 30
0.0
 40
0.945
  1
Ｎ
 50
0.0
 41
0.666
 51
0.0
  7
KANJI12
  0
TEXT
  8
0
  6
CONTINUOUS
 62
     7
 10
201.158
 20
131.923
 30
0.0
 40
0.945
  1
Ｍ
 50
0.0
 41
0.666
 51
0.0
  7
KANJI12
  0
TEXT
  8
0
  6
CONTINUOUS
 62
     7
 10
201.788
 20
131.923
 30
0.0
 40
0.945
  1
Ａ
 50
0.0
 41
0.666
 51
0.0
  7
KANJI12
  0
TEXT
  8
0
  6
CONTINUOUS
 62
     7
 10
202.418
 20
131.923
 30
0.0
 40
0.945
  1
Ｘ
 50
0.0
 41
0.666
 51
0.0
  7
KANJI12
  0
TEXT
  8
0
  6
CONTINUOUS
 62
     7
 10
209.348
 20
131.986
 30
0.0
 40
0.882
  1
Ｐ
 50
0.0
 41
0.714
 51
0.0
  7
KANJI13
  0
TEXT
  8
0
  6
CONTINUOUS
 62
     7
 10
209.978
 20
131.986
 30
0.0
 40
0.882
  1
Ｏ
 50
0.0
 41
0.714
 51
0.0
  7
KANJI13
  0
TEXT
  8
0
  6
CONTINUOUS
 62
     7
 10
210.608
 20
131.986
 30
0.0
 40
0.882
  1
Ｉ
 50
0.0
 41
0.714
 51
0.0
  7
KANJI13
  0
TEXT
  8
0
  6
CONTINUOUS
 62
     7
 10
211.238
 20
131.986
 30
0.0
 40
0.882
  1
Ｎ
 50
0.0
 41
0.714
 51
0.0
  7
KANJI13
  0
TEXT
  8
0
  6
CONTINUOUS
 62
     7
 10
211.868
 20
131.986
 30
0.0
 40
0.882
  1
Ｔ
 50
0.0
 41
0.714
 51
0.0
  7
KANJI13
  0
LINE
  8
0
  6
CONTINUOUS
 62
     7
 10
50.525
 20
139.42
 30
0.0
 11
50.84
 21
139.42
 31
0.0
  0
LINE
  8
0
  6
CONTINUOUS
 62
     7
 10
50.525
 20
142.57
 30
0.0
 11
50.525
 21
139.42
 31
0.0
  0
LINE
  8
0
  6
CONTINUOUS
 62
     7
 10
50.525
 20
142.57
 30
0.0
 11
50.84
 21
142.57
 31
0.0
  0
LINE
  8
0
  6
CONTINUOUS
 62
     7
 10
22.175
 20
142.57
 30
0.0
 11
22.175
 21
139.42
 31
0.0
  0
LINE
  8
0
  6
CONTINUOUS
 62
     7
 10
21.86
 20
142.57
 30
0.0
 11
22.175
 21
142.57
 31
0.0
  0
LINE
  8
0
  6
CONTINUOUS
 62
     7
 10
21.86
 20
139.42
 30
0.0
 11
22.175
 21
139.42
 31
0.0
  0
LINE
  8
0
  6
CONTINUOUS
 62
     7
 10
20.6
 20
146.35
 30
0.0
 11
21.86
 21
146.35
 31
0.0
  0
POLYLINE
  8
0
  6
CONTINUOUS
 62
     7
 66
     1
  0
VERTEX
  8
0
  6
CONTINUOUS
 62
     7
 10
23.12
 20
141.94
 30
0.0
  0
VERTEX
  8
0
  6
CONTINUOUS
 62
     7
 10
23.12
 20
147.61
 30
0.0
  0
VERTEX
  8
0
  6
CONTINUOUS
 62
     7
 10
21.86
 20
147.61
 30
0.0
  0
VERTEX
  8
0
  6
CONTINUOUS
 62
     7
 10
21.86
 20
147.61
 30
0.0
  0
VERTEX
  8
0
  6
CONTINUOUS
 62
     7
 10
21.86
 20
153.28
 30
0.0
  0
SEQEND
  0
POLYLINE
  8
0
  6
CONTINUOUS
 62
     7
 66
     1
  0
VERTEX
  8
0
  6
CONTINUOUS
 62
     7
 10
50.84
 20
153.28
 30
0.0
  0
VERTEX
  8
0
  6
CONTINUOUS
 62
     7
 10
50.84
 20
147.61
 30
0.0
  0
VERTEX
  8
0
  6
CONTINUOUS
 62
     7
 10
49.58
 20
147.61
 30
0.0
  0
VERTEX
  8
0
  6
CONTINUOUS
 62
     7
 10
49.58
 20
141.94
 30
0.0
  0
SEQEND
  0
POLYLINE
  8
0
  6
CONTINUOUS
 62
     7
 66
     1
  0
VERTEX
  8
0
  6
CONTINUOUS
 62
     7
 10
52.1
 20
146.35
 30
0.0
  0
VERTEX
  8
0
  6
CONTINUOUS
 62
     7
 10
50.84
 20
146.35
 30
0.0
  0
VERTEX
  8
0
  6
CONTINUOUS
 62
     7
 10
50.84
 20
129.97
 30
0.0
  0
SEQEND
  0
LINE
  8
0
  6
CONTINUOUS
 62
     7
 10
26.9
 20
153.28
 30
0.0
 11
26.9
 21
150.76
 31
0.0
  0
LINE
  8
0
  6
CONTINUOUS
 62
     7
 10
26.9
 20
150.76
 30
0.0
 11
21.86
 21
150.76
 31
0.0
  0
LINE
  8
0
  6
CONTINUOUS
 62
     7
 10
23.12
 20
140.68
 30
0.0
 11
49.58
 21
140.68
 31
0.0
  0
LINE
  8
0
  6
CONTINUOUS
 62
     7
 10
23.12
 20
141.94
 30
0.0
 11
49.58
 21
141.94
 31
0.0
  0
LINE
  8
0
  6
CONTINUOUS
 62
     7
 10
21.86
 20
150.76
 30
0.0
 11
26.9
 21
150.76
 31
0.0
  0
LINE
  8
0
  6
CONTINUOUS
 62
     7
 10
22.49
 20
152.65
 30
0.0
 11
26.27
 21
152.65
 31
0.0
  0
LINE
  8
0
  6
CONTINUOUS
 62
     7
 10
22.49
 20
150.76
 30
0.0
 11
22.49
 21
152.65
 31
0.0
  0
LINE
  8
0
  6
CONTINUOUS
 62
     7
 10
26.27
 20
150.76
 30
0.0
 11
26.27
 21
152.65
 31
0.0
  0
LINE
  8
0
  6
CONTINUOUS
 62
     7
 10
23.939
 20
152.02
 30
0.0
 11
23.939
 21
150.76
 31
0.0
  0
LINE
  8
0
  6
CONTINUOUS
 62
     7
 10
24.884
 20
152.02
 30
0.0
 11
24.884
 21
150.76
 31
0.0
  0
LINE
  8
0
  6
CONTINUOUS
 62
     7
 10
23.939
 20
152.02
 30
0.0
 11
24.884
 21
152.02
 31
0.0
  0
LINE
  8
0
  6
CONTINUOUS
 62
     7
 10
50.84
 20
150.76
 30
0.0
 11
45.8
 21
150.76
 31
0.0
  0
LINE
  8
0
  6
CONTINUOUS
 62
     7
 10
45.8
 20
150.76
 30
0.0
 11
45.8
 21
153.28
 31
0.0
  0
LINE
  8
0
  6
CONTINUOUS
 62
     7
 10
50.84
 20
150.76
 30
0.0
 11
45.8
 21
150.76
 31
0.0
  0
LINE
  8
0
  6
CONTINUOUS
 62
     7
 10
50.21
 20
152.65
 30
0.0
 11
46.43
 21
152.65
 31
0.0
  0
LINE
  8
0
  6
CONTINUOUS
 62
     7
 10
50.21
 20
150.76
 30
0.0
 11
50.21
 21
152.65
 31
0.0
  0
LINE
  8
0
  6
CONTINUOUS
 62
     7
 10
46.43
 20
150.76
 30
0.0
 11
46.43
 21
152.65
 31
0.0
  0
LINE
  8
0
  6
CONTINUOUS
 62
     7
 10
48.761
 20
152.02
 30
0.0
 11
48.761
 21
150.76
 31
0.0
  0
LINE
  8
0
  6
CONTINUOUS
 62
     7
 10
47.816
 20
152.02
 30
0.0
 11
47.816
 21
150.76
 31
0.0
  0
LINE
  8
0
  6
CONTINUOUS
 62
     7
 10
48.761
 20
152.02
 30
0.0
 11
47.816
 21
152.02
 31
0.0
  0
LINE
  8
0
  6
CONTINUOUS
 62
     7
 10
35.09
 20
154.54
 30
0.0
 11
35.09
 21
151.39
 31
0.0
  0
LINE
  8
0
  6
CONTINUOUS
 62
     7
 10
37.61
 20
151.39
 30
0.0
 11
37.61
 21
154.54
 31
0.0
  0
LINE
  8
0
  6
CONTINUOUS
 62
     7
 10
35.09
 20
151.39
 30
0.0
 11
37.61
 21
151.39
 31
0.0
  0
LINE
  8
0
  6
CONTINUOUS
 62
     7
 10
33.83
 20
153.28
 30
0.0
 11
21.86
 21
153.28
 31
0.0
  0
LINE
  8
0
  6
CONTINUOUS
 62
     7
 10
50.84
 20
153.28
 30
0.0
 11
38.87
 21
153.28
 31
0.0
  0
LINE
  8
0
  6
CONTINUOUS
 62
     7
 10
38.87
 20
150.13
 30
0.0
 11
33.83
 21
150.13
 31
0.0
  0
LINE
  8
0
  6
CONTINUOUS
 62
     7
 10
33.83
 20
150.13
 30
0.0
 11
33.83
 21
153.28
 31
0.0
  0
LINE
  8
0
  6
CONTINUOUS
 62
     7
 10
38.87
 20
153.28
 30
0.0
 11
38.87
 21
150.13
 31
0.0
  0
LINE
  8
0
  6
CONTINUOUS
 62
     7
 10
33.83
 20
150.13
 30
0.0
 11
33.83
 21
147.61
 31
0.0
  0
LINE
  8
0
  6
CONTINUOUS
 62
     7
 10
33.83
 20
147.61
 30
0.0
 11
38.87
 21
147.61
 31
0.0
  0
LINE
  8
0
  6
CONTINUOUS
 62
     7
 10
38.87
 20
147.61
 30
0.0
 11
38.87
 21
150.13
 31
0.0
  0
LINE
  8
0
  6
LTYPE1
 62
     7
 10
36.35
 20
160.84
 30
0.0
 11
36.35
 21
97.84
 31
0.0
  0
TEXT
  8
0
  6
CONTINUOUS
 62
     7
 10
41.39
 20
114.22
 30
0.62937
 40
1.89
  1
洋
 50
0.0
 41
1.0
 51
0.0
  7
KANJI14
  0
TEXT
  8
0
  6
CONTINUOUS
 62
     7
 10
43.91
 20
114.22
 30
0.62937
 40
1.89
  1
計
 50
0.0
 41
1.0
 51
0.0
  7
KANJI14
  0
TEXT
  8
0
  6
CONTINUOUS
 62
     7
 10
46.43
 20
114.22
 30
0.62937
 40
1.89
  1
器
 50
0.0
 41
1.0
 51
0.0
  7
KANJI14
  0
TEXT
  8
0
  6
CONTINUOUS
 62
     7
 10
38.87
 20
114.22
 30
0.62937
 40
1.89
  1
東
 50
0.0
 41
1.0
 51
0.0
  7
KANJI14
  0
LINE
  8
0
  6
CONTINUOUS
 62
     7
 10
50.525
 20
117.37
 30
0.0
 11
50.84
 21
117.37
 31
0.0
  0
LINE
  8
0
  6
CONTINUOUS
 62
     7
 10
50.525
 20
120.52
 30
0.0
 11
50.525
 21
117.37
 31
0.0
  0
LINE
  8
0
  6
CONTINUOUS
 62
     7
 10
50.525
 20
120.52
 30
0.0
 11
50.84
 21
120.52
 31
0.0
  0
LINE
  8
0
  6
CONTINUOUS
 62
     7
 10
22.175
 20
120.52
 30
0.0
 11
22.175
 21
117.37
 31
0.0
  0
LINE
  8
0
  6
CONTINUOUS
 62
     7
 10
21.86
 20
120.52
 30
0.0
 11
22.175
 21
120.52
 31
0.0
  0
LINE
  8
0
  6
CONTINUOUS
 62
     7
 10
21.86
 20
117.37
 30
0.0
 11
22.175
 21
117.37
 31
0.0
  0
LINE
  8
0
  6
CONTINUOUS
 62
     7
 10
49.58
 20
140.68
 30
0.0
 11
49.58
 21
119.26
 31
0.0
  0
LINE
  8
0
  6
CONTINUOUS
 62
     7
 10
49.58
 20
119.26
 30
0.0
 11
23.12
 21
119.26
 31
0.0
  0
LINE
  8
0
  6
CONTINUOUS
 62
     7
 10
23.12
 20
118.0
 30
0.0
 11
49.58
 21
118.0
 31
0.0
  0
LINE
  8
0
  6
CONTINUOUS
 62
     7
 10
50.84
 20
109.18
 30
0.0
 11
45.8
 21
109.18
 31
0.0
  0
LINE
  8
0
  6
CONTINUOUS
 62
     7
 10
45.8
 20
109.18
 30
0.0
 11
45.8
 21
106.66
 31
0.0
  0
LINE
  8
0
  6
CONTINUOUS
 62
     7
 10
26.9
 20
109.18
 30
0.0
 11
26.9
 21
106.66
 31
0.0
  0
LINE
  8
0
  6
CONTINUOUS
 62
     7
 10
20.6
 20
154.54
 30
0.0
 11
52.1
 21
154.54
 31
0.0
  0
LINE
  8
0
  6
CONTINUOUS
 62
     7
 10
52.1
 20
154.54
 30
0.0
 11
52.1
 21
105.4
 31
0.0
  0
LINE
  8
0
  6
CONTINUOUS
 62
     7
 10
52.1
 20
105.4
 30
0.0
 11
20.6
 21
105.4
 31
0.0
  0
LINE
  8
0
  6
CONTINUOUS
 62
     7
 10
20.6
 20
105.4
 30
0.0
 11
20.6
 21
154.54
 31
0.0
  0
LINE
  8
0
  6
CONTINUOUS
 62
     7
 10
21.86
 20
146.35
 30
0.0
 11
21.86
 21
113.59
 31
0.0
  0
LINE
  8
0
  6
CONTINUOUS
 62
     7
 10
50.84
 20
113.59
 30
0.0
 11
50.84
 21
129.97
 31
0.0
  0
LINE
  8
0
  6
CONTINUOUS
 62
     7
 10
52.1
 20
113.59
 30
0.0
 11
50.84
 21
113.59
 31
0.0
  0
LINE
  8
0
  6
CONTINUOUS
 62
     7
 10
49.58
 20
112.33
 30
0.0
 11
50.84
 21
112.33
 31
0.0
  0
LINE
  8
0
  6
CONTINUOUS
 62
     7
 10
49.58
 20
118.0
 30
0.0
 11
49.58
 21
112.33
 31
0.0
  0
LINE
  8
0
  6
CONTINUOUS
 62
     7
 10
50.84
 20
112.33
 30
0.0
 11
50.84
 21
106.66
 31
0.0
  0
LINE
  8
0
  6
CONTINUOUS
 62
     7
 10
21.86
 20
113.59
 30
0.0
 11
20.6
 21
113.59
 31
0.0
  0
LINE
  8
0
  6
CONTINUOUS
 62
     7
 10
21.86
 20
106.66
 30
0.0
 11
21.86
 21
112.33
 31
0.0
  0
LINE
  8
0
  6
CONTINUOUS
 62
     7
 10
21.86
 20
112.33
 30
0.0
 11
23.12
 21
112.33
 31
0.0
  0
LINE
  8
0
  6
CONTINUOUS
 62
     7
 10
23.12
 20
112.33
 30
0.0
 11
23.12
 21
118.0
 31
0.0
  0
LINE
  8
0
  6
CONTINUOUS
 62
     7
 10
21.86
 20
109.18
 30
0.0
 11
26.9
 21
109.18
 31
0.0
  0
LINE
  8
0
  6
CONTINUOUS
 62
     7
 10
22.49
 20
107.29
 30
0.0
 11
26.27
 21
107.29
 31
0.0
  0
LINE
  8
0
  6
CONTINUOUS
 62
     7
 10
22.49
 20
109.18
 30
0.0
 11
22.49
 21
107.29
 31
0.0
  0
LINE
  8
0
  6
CONTINUOUS
 62
     7
 10
26.27
 20
109.18
 30
0.0
 11
26.27
 21
107.29
 31
0.0
  0
LINE
  8
0
  6
CONTINUOUS
 62
     7
 10
23.939
 20
107.92
 30
0.0
 11
23.939
 21
109.18
 31
0.0
  0
LINE
  8
0
  6
CONTINUOUS
 62
     7
 10
24.884
 20
107.92
 30
0.0
 11
24.884
 21
109.18
 31
0.0
  0
LINE
  8
0
  6
CONTINUOUS
 62
     7
 10
23.939
 20
107.92
 30
0.0
 11
24.884
 21
107.92
 31
0.0
  0
LINE
  8
0
  6
CONTINUOUS
 62
     7
 10
50.84
 20
109.18
 30
0.0
 11
45.8
 21
109.18
 31
0.0
  0
LINE
  8
0
  6
CONTINUOUS
 62
     7
 10
50.21
 20
107.29
 30
0.0
 11
46.43
 21
107.29
 31
0.0
  0
LINE
  8
0
  6
CONTINUOUS
 62
     7
 10
50.21
 20
109.18
 30
0.0
 11
50.21
 21
107.29
 31
0.0
  0
LINE
  8
0
  6
CONTINUOUS
 62
     7
 10
46.43
 20
109.18
 30
0.0
 11
46.43
 21
107.29
 31
0.0
  0
LINE
  8
0
  6
CONTINUOUS
 62
     7
 10
48.761
 20
107.92
 30
0.0
 11
48.761
 21
109.18
 31
0.0
  0
LINE
  8
0
  6
CONTINUOUS
 62
     7
 10
47.816
 20
107.92
 30
0.0
 11
47.816
 21
109.18
 31
0.0
  0
LINE
  8
0
  6
CONTINUOUS
 62
     7
 10
48.761
 20
107.92
 30
0.0
 11
47.816
 21
107.92
 31
0.0
  0
LINE
  8
0
  6
CONTINUOUS
 62
     7
 10
35.09
 20
105.4
 30
0.0
 11
35.09
 21
108.55
 31
0.0
  0
LINE
  8
0
  6
CONTINUOUS
 62
     7
 10
37.61
 20
108.55
 30
0.0
 11
37.61
 21
105.4
 31
0.0
  0
LINE
  8
0
  6
CONTINUOUS
 62
     7
 10
35.09
 20
108.55
 30
0.0
 11
37.61
 21
108.55
 31
0.0
  0
LINE
  8
0
  6
CONTINUOUS
 62
     7
 10
33.83
 20
106.66
 30
0.0
 11
21.86
 21
106.66
 31
0.0
  0
LINE
  8
0
  6
CONTINUOUS
 62
     7
 10
50.84
 20
106.66
 30
0.0
 11
38.87
 21
106.66
 31
0.0
  0
LINE
  8
0
  6
CONTINUOUS
 62
     7
 10
38.87
 20
109.81
 30
0.0
 11
33.83
 21
109.81
 31
0.0
  0
LINE
  8
0
  6
CONTINUOUS
 62
     7
 10
33.83
 20
109.81
 30
0.0
 11
33.83
 21
106.66
 31
0.0
  0
LINE
  8
0
  6
CONTINUOUS
 62
     7
 10
38.87
 20
106.66
 30
0.0
 11
38.87
 21
109.81
 31
0.0
  0
LINE
  8
0
  6
CONTINUOUS
 62
     7
 10
33.83
 20
109.81
 30
0.0
 11
33.83
 21
112.33
 31
0.0
  0
LINE
  8
0
  6
CONTINUOUS
 62
     7
 10
33.83
 20
112.33
 30
0.0
 11
38.87
 21
112.33
 31
0.0
  0
LINE
  8
0
  6
CONTINUOUS
 62
     7
 10
38.87
 20
112.33
 30
0.0
 11
38.87
 21
109.81
 31
0.0
  0
LINE
  8
0
  6
CONTINUOUS
 62
     7
 10
23.12
 20
140.68
 30
0.0
 11
23.12
 21
119.26
 31
0.0
  0
ARC
  8
0
  6
CONTINUOUS
 62
     7
 10
36.35
 20
127.45
 30
0.0
 40
0.63
 50
175.0
 51
0.0
  0
ARC
  8
0
  6
CONTINUOUS
 62
     7
 10
36.35
 20
127.45
 30
0.0
 40
0.63
 50
0.0
 51
5.0
  0
CIRCLE
  8
0
  6
CONTINUOUS
 62
     7
 10
36.35
 20
129.97
 30
0.0
 40
2.52
  0
CIRCLE
  8
0
  6
CONTINUOUS
 62
     7
 10
39.311
 20
134.569
 30
0.0
 40
0.819
  0
CIRCLE
  8
0
  6
CONTINUOUS
 62
     7
 10
36.35
 20
135.451
 30
0.0
 40
0.819
  0
CIRCLE
  8
0
  6
CONTINUOUS
 62
     7
 10
41.327
 20
132.175
 30
0.0
 40
0.819
  0
CIRCLE
  8
0
  6
CONTINUOUS
 62
     7
 10
41.768
 20
129.088
 30
0.0
 40
0.819
  0
CIRCLE
  8
0
  6
CONTINUOUS
 62
     7
 10
40.445
 20
126.316
 30
0.0
 40
0.819
  0
CIRCLE
  8
0
  6
CONTINUOUS
 62
     7
 10
37.799
 20
124.678
 30
0.0
 40
0.819
  0
CIRCLE
  8
0
  6
CONTINUOUS
 62
     7
 10
34.901
 20
124.678
 30
0.0
 40
0.819
  0
CIRCLE
  8
0
  6
CONTINUOUS
 62
     7
 10
32.255
 20
126.316
 30
0.0
 40
0.819
  0
CIRCLE
  8
0
  6
CONTINUOUS
 62
     7
 10
30.932
 20
129.151
 30
0.0
 40
0.819
  0
CIRCLE
  8
0
  6
CONTINUOUS
 62
     7
 10
31.373
 20
132.175
 30
0.0
 40
0.819
  0
CIRCLE
  8
0
  6
CONTINUOUS
 62
     7
 10
33.389
 20
134.569
 30
0.0
 40
0.819
  0
CIRCLE
  8
0
  6
CONTINUOUS
 62
     7
 10
36.35
 20
129.97
 30
0.0
 40
9.45
  0
LINE
  8
0
  6
CONTINUOUS
 62
     7
 10
37.295
 20
132.301
 30
0.0
 11
38.87
 21
137.719
 31
0.0
  0
LINE
  8
0
  6
CONTINUOUS
 62
     7
 10
38.24
 20
137.908
 30
0.0
 11
36.665
 21
132.427
 31
0.0
  0
LINE
  8
0
  6
CONTINUOUS
 62
     7
 10
34.46
 20
137.908
 30
0.0
 11
36.035
 21
132.427
 31
0.0
  0
LINE
  8
0
  6
CONTINUOUS
 62
     7
 10
35.342
 20
132.301
 30
0.0
 11
33.767
 21
137.719
 31
0.0
  0
LINE
  8
0
  6
CONTINUOUS
 62
     7
 10
42.335
 20
135.577
 30
0.0
 11
38.051
 21
131.86
 31
0.0
  0
LINE
  8
0
  6
CONTINUOUS
 62
     7
 10
38.492
 20
131.356
 30
0.0
 11
42.713
 21
135.136
 31
0.0
  0
LINE
  8
0
  6
CONTINUOUS
 62
     7
 10
30.365
 20
135.577
 30
0.0
 11
34.649
 21
131.86
 31
0.0
  0
LINE
  8
0
  6
CONTINUOUS
 62
     7
 10
34.271
 20
131.356
 30
0.0
 11
29.924
 21
135.136
 31
0.0
  0
LINE
  8
0
  6
CONTINUOUS
 62
     7
 10
44.414
 20
131.419
 30
0.0
 11
38.744
 21
130.6
 31
0.0
  0
LINE
  8
0
  6
CONTINUOUS
 62
     7
 10
43.847
 20
126.757
 30
0.0
 11
38.744
 21
129.151
 31
0.0
  0
LINE
  8
0
  6
CONTINUOUS
 62
     7
 10
38.492
 20
128.584
 30
0.0
 11
43.595
 21
126.19
 31
0.0
  0
LINE
  8
0
  6
CONTINUOUS
 62
     7
 10
37.421
 20
127.702
 30
0.0
 11
40.445
 21
122.851
 31
0.0
  0
LINE
  8
0
  6
CONTINUOUS
 62
     7
 10
31.751
 20
123.166
 30
0.0
 11
34.775
 21
128.017
 31
0.0
  0
LINE
  8
0
  6
CONTINUOUS
 62
     7
 10
35.279
 20
127.702
 30
0.0
 11
32.255
 21
122.851
 31
0.0
  0
LINE
  8
0
  6
CONTINUOUS
 62
     7
 10
34.208
 20
128.584
 30
0.0
 11
29.105
 21
126.19
 31
0.0
  0
LINE
  8
0
  6
CONTINUOUS
 62
     7
 10
28.853
 20
126.757
 30
0.0
 11
33.956
 21
129.214
 31
0.0
  0
LINE
  8
0
  6
CONTINUOUS
 62
     7
 10
33.893
 20
129.97
 30
0.0
 11
28.223
 21
130.789
 31
0.0
  0
LINE
  8
0
  6
CONTINUOUS
 62
     7
 10
36.035
 20
126.883
 30
0.0
 11
36.035
 21
121.78
 31
0.0
  0
LINE
  8
0
  6
CONTINUOUS
 62
     7
 10
36.665
 20
126.883
 30
0.0
 11
36.665
 21
121.78
 31
0.0
  0
LINE
  8
0
  6
CONTINUOUS
 62
     7
 10
44.414
 20
131.419
 30
0.0
 11
44.036
 21
132.742
 31
0.0
  0
LINE
  8
0
  6
CONTINUOUS
 62
     7
 10
44.036
 20
132.742
 30
0.0
 11
43.469
 21
134.065
 31
0.0
  0
LINE
  8
0
  6
CONTINUOUS
 62
     7
 10
41.642
 20
136.27
 30
0.0
 11
40.445
 21
137.089
 31
0.0
  0
LINE
  8
0
  6
CONTINUOUS
 62
     7
 10
32.255
 20
137.089
 30
0.0
 11
31.058
 21
136.27
 31
0.0
  0
LINE
  8
0
  6
CONTINUOUS
 62
     7
 10
29.231
 20
134.065
 30
0.0
 11
28.664
 21
132.742
 31
0.0
  0
LINE
  8
0
  6
CONTINUOUS
 62
     7
 10
28.16
 20
129.97
 30
0.0
 11
28.286
 21
128.521
 31
0.0
  0
LINE
  8
0
  6
CONTINUOUS
 62
     7
 10
28.286
 20
128.521
 30
0.0
 11
28.664
 21
127.198
 31
0.0
  0
LINE
  8
0
  6
CONTINUOUS
 62
     7
 10
30.05
 20
124.678
 30
0.0
 11
31.058
 21
123.67
 31
0.0
  0
LINE
  8
0
  6
CONTINUOUS
 62
     7
 10
32.255
 20
122.851
 30
0.0
 11
33.578
 21
122.284
 31
0.0
  0
LINE
  8
0
  6
CONTINUOUS
 62
     7
 10
33.578
 20
122.284
 30
0.0
 11
34.901
 21
121.906
 31
0.0
  0
LINE
  8
0
  6
CONTINUOUS
 62
     7
 10
37.799
 20
121.906
 30
0.0
 11
39.122
 21
122.284
 31
0.0
  0
LINE
  8
0
  6
CONTINUOUS
 62
     7
 10
39.122
 20
122.284
 30
0.0
 11
40.445
 21
122.851
 31
0.0
  0
LINE
  8
0
  6
CONTINUOUS
 62
     7
 10
41.642
 20
123.67
 30
0.0
 11
42.65
 21
124.678
 31
0.0
  0
LINE
  8
0
  6
CONTINUOUS
 62
     7
 10
42.65
 20
124.678
 30
0.0
 11
43.469
 21
125.875
 31
0.0
  0
LINE
  8
0
  6
CONTINUOUS
 62
     7
 10
44.414
 20
128.521
 30
0.0
 11
44.54
 21
129.844
 31
0.0
  0
LINE
  8
0
  6
CONTINUOUS
 62
     7
 10
36.35
 20
138.16
 30
0.0
 11
34.901
 21
138.034
 31
0.0
  0
LINE
  8
0
  6
CONTINUOUS
 62
     7
 10
42.398
 20
135.514
 30
0.0
 11
41.642
 21
136.27
 31
0.0
  0
LINE
  8
0
  6
CONTINUOUS
 62
     7
 10
43.469
 20
134.065
 30
0.0
 11
42.776
 21
135.136
 31
0.0
  0
LINE
  8
0
  6
CONTINUOUS
 62
     7
 10
38.87
 20
129.97
 30
0.0
 11
44.477
 21
130.789
 31
0.0
  0
LINE
  8
0
  6
CONTINUOUS
 62
     7
 10
44.54
 20
129.97
 30
0.0
 11
44.477
 21
130.789
 31
0.0
  0
LINE
  8
0
  6
CONTINUOUS
 62
     7
 10
43.469
 20
125.875
 30
0.0
 11
43.595
 21
126.19
 31
0.0
  0
LINE
  8
0
  6
CONTINUOUS
 62
     7
 10
43.847
 20
126.757
 30
0.0
 11
44.414
 21
128.521
 31
0.0
  0
LINE
  8
0
  6
CONTINUOUS
 62
     7
 10
40.949
 20
123.166
 30
0.0
 11
41.642
 21
123.67
 31
0.0
  0
LINE
  8
0
  6
CONTINUOUS
 62
     7
 10
36.665
 20
121.78
 30
0.0
 11
37.799
 21
121.906
 31
0.0
  0
LINE
  8
0
  6
CONTINUOUS
 62
     7
 10
34.901
 20
121.906
 30
0.0
 11
36.035
 21
121.78
 31
0.0
  0
LINE
  8
0
  6
CONTINUOUS
 62
     7
 10
31.058
 20
123.67
 30
0.0
 11
31.751
 21
123.166
 31
0.0
  0
LINE
  8
0
  6
CONTINUOUS
 62
     7
 10
28.664
 20
127.198
 30
0.0
 11
28.853
 21
126.757
 31
0.0
  0
LINE
  8
0
  6
CONTINUOUS
 62
     7
 10
29.105
 20
126.19
 30
0.0
 11
30.05
 21
124.678
 31
0.0
  0
LINE
  8
0
  6
CONTINUOUS
 62
     7
 10
28.223
 20
130.789
 30
0.0
 11
28.16
 21
129.97
 31
0.0
  0
LINE
  8
0
  6
CONTINUOUS
 62
     7
 10
28.286
 20
131.482
 30
0.0
 11
33.956
 21
130.6
 31
0.0
  0
LINE
  8
0
  6
CONTINUOUS
 62
     7
 10
28.664
 20
132.742
 30
0.0
 11
28.286
 21
131.482
 31
0.0
  0
LINE
  8
0
  6
CONTINUOUS
 62
     7
 10
31.058
 20
136.27
 30
0.0
 11
30.365
 21
135.577
 31
0.0
  0
LINE
  8
0
  6
CONTINUOUS
 62
     7
 10
29.924
 20
135.136
 30
0.0
 11
29.231
 21
134.065
 31
0.0
  0
LINE
  8
0
  6
CONTINUOUS
 62
     7
 10
34.901
 20
138.034
 30
0.0
 11
34.46
 21
137.908
 31
0.0
  0
LINE
  8
0
  6
CONTINUOUS
 62
     7
 10
33.767
 20
137.719
 30
0.0
 11
32.255
 21
137.089
 31
0.0
  0
LINE
  8
0
  6
CONTINUOUS
 62
     7
 10
40.445
 20
137.089
 30
0.0
 11
38.87
 21
137.719
 31
0.0
  0
POLYLINE
  8
0
  6
CONTINUOUS
 62
     7
 66
     1
  0
VERTEX
  8
0
  6
CONTINUOUS
 62
     7
 10
38.24
 20
137.908
 30
0.0
  0
VERTEX
  8
0
  6
CONTINUOUS
 62
     7
 10
37.673
 20
138.034
 30
0.0
  0
VERTEX
  8
0
  6
CONTINUOUS
 62
     7
 10
36.35
 20
138.16
 30
0.0
  0
SEQEND
  0
TEXT
  8
0
  6
CONTINUOUS
 62
     7
 10
34.775
 20
125.875
 30
0.0
 40
0.945
  1
１
 50
0.0
 41
0.666
 51
0.0
  7
KANJI12
  0
TEXT
  8
0
  6
CONTINUOUS
 62
     7
 10
39.815
 20
129.025
 30
0.0
 40
0.945
  1
９
 50
0.0
 41
0.666
 51
0.0
  7
KANJI12
  0
TEXT
  8
0
  6
CONTINUOUS
 62
     7
 10
33.452
 20
126.946
 30
0.0
 40
0.945
  1
２
 50
0.0
 41
0.666
 51
0.0
  7
KANJI12
  0
TEXT
  8
0
  6
CONTINUOUS
 62
     7
 10
32.318
 20
128.962
 30
0.0
 40
0.945
  1
３
 50
0.0
 41
0.666
 51
0.0
  7
KANJI12
  0
TEXT
  8
0
  6
CONTINUOUS
 62
     7
 10
32.696
 20
131.23
 30
0.0
 40
0.945
  1
４
 50
0.0
 41
0.666
 51
0.0
  7
KANJI12
  0
TEXT
  8
0
  6
CONTINUOUS
 62
     7
 10
34.082
 20
132.616
 30
0.0
 40
0.945
  1
５
 50
0.0
 41
0.666
 51
0.0
  7
KANJI12
  0
TEXT
  8
0
  6
CONTINUOUS
 62
     7
 10
36.098
 20
133.246
 30
0.0
 40
0.945
  1
６
 50
0.0
 41
0.666
 51
0.0
  7
KANJI12
  0
TEXT
  8
0
  6
CONTINUOUS
 62
     7
 10
37.988
 20
132.364
 30
0.0
 40
1.26
  1
７
 50
0.0
 41
0.5
 51
0.0
  7
KANJI9
  0
TEXT
  8
0
  6
CONTINUOUS
 62
     7
 10
39.626
 20
131.104
 30
0.0
 40
0.945
  1
８
 50
0.0
 41
0.666
 51
0.0
  7
KANJI12
  0
TEXT
  8
0
  6
CONTINUOUS
 62
     7
 10
38.618
 20
127.009
 30
0.0
 40
0.945
  1
１
 50
0.0
 41
0.666
 51
0.0
  7
KANJI12
  0
TEXT
  8
0
  6
CONTINUOUS
 62
     7
 10
39.248
 20
127.009
 30
0.0
 40
0.945
  1
０
 50
0.0
 41
0.666
 51
0.0
  7
KANJI12
  0
TEXT
  8
0
  6
CONTINUOUS
 62
     7
 10
36.854
 20
125.875
 30
0.0
 40
0.945
  1
１
 50
0.0
 41
0.666
 51
0.0
  7
KANJI12
  0
TEXT
  8
0
  6
CONTINUOUS
 62
     7
 10
37.484
 20
125.875
 30
0.0
 40
0.945
  1
１
 50
0.0
 41
0.666
 51
0.0
  7
KANJI12
  0
LINE
  8
0
  6
CONTINUOUS
 62
     7
 10
40.949
 20
123.166
 30
0.0
 11
37.925
 21
128.017
 31
0.0
  0
LINE
  8
0
  6
CONTINUOUS
 62
     7
 10
27.298979
 20
115.48
 30
0.0
 11
26.27
 21
114.993199
 31
0.0
  0
LINE
  8
0
  6
CONTINUOUS
 62
     7
 10
27.446021
 20
115.48
 30
0.0
 11
28.475
 21
114.993199
 31
0.0
  0
LINE
  8
0
  6
CONTINUOUS
 62
     7
 10
28.475
 20
114.895801
 30
0.0
 11
27.446021
 21
114.409
 31
0.0
  0
LINE
  8
0
  6
CONTINUOUS
 62
     7
 10
27.446021
 20
114.993199
 30
0.0
 11
27.960479
 21
115.236568
 31
0.0
  0
LINE
  8
0
  6
CONTINUOUS
 62
     7
 10
27.446021
 20
114.895801
 30
0.0
 11
27.960479
 21
114.652432
 31
0.0
  0
LINE
  8
0
  6
CONTINUOUS
 62
     7
 10
27.298979
 20
114.895801
 30
0.0
 11
26.784521
 21
114.652432
 31
0.0
  0
LINE
  8
0
  6
CONTINUOUS
 62
     7
 10
27.298979
 20
114.993199
 30
0.0
 11
26.784521
 21
115.236568
 31
0.0
  0
LINE
  8
0
  6
CONTINUOUS
 62
     7
 10
27.298979
 20
114.409
 30
0.0
 11
26.27
 21
114.895801
 31
0.0
  0
LINE
  8
0
  6
CONTINUOUS
 62
     7
 10
132.74
 20
155.17
 30
0.0
 11
132.74
 21
167.14
 31
0.0
  0
LINE
  8
0
  6
CONTINUOUS
 62
     7
 10
69.74
 20
155.8
 30
0.0
 11
69.74
 21
162.1
 31
0.0
  0
TEXT
  8
0
  6
CONTINUOUS
 62
     7
 10
96.2
 20
166.51
 30
0.0
 40
1.89
  1
１
 50
0.0
 41
0.666
 51
0.0
  7
KANJI2
  0
TEXT
  8
0
  6
CONTINUOUS
 62
     7
 10
97.46
 20
166.51
 30
0.0
 40
1.89
  1
１
 50
0.0
 41
0.666
 51
0.0
  7
KANJI2
  0
TEXT
  8
0
  6
CONTINUOUS
 62
     7
 10
98.72
 20
166.51
 30
0.0
 40
1.89
  1
０
 50
0.0
 41
0.666
 51
0.0
  7
KANJI2
  0
TEXT
  8
0
  6
CONTINUOUS
 62
     7
 10
65.33
 20
161.47
 30
0.0
 40
1.89
  1
１
 50
0.0
 41
0.666
 51
0.0
  7
KANJI2
  0
TEXT
  8
0
  6
CONTINUOUS
 62
     7
 10
66.59
 20
161.47
 30
0.0
 40
1.89
  1
０
 50
0.0
 41
0.666
 51
0.0
  7
KANJI2
  0
LINE
  8
0
  6
CONTINUOUS
 62
     7
 10
63.44
 20
160.84
 30
0.0
 11
69.74
 21
160.84
 31
0.0
  0
LINE
  8
0
  6
CONTINUOUS
 62
     7
 10
64.657097
 20
161.166088
 30
0.0
 11
63.44
 21
160.84
 31
0.0
  0
LINE
  8
0
  6
CONTINUOUS
 62
     7
 10
63.44
 20
160.84
 30
0.0
 11
64.657097
 21
160.513912
 31
0.0
  0
LINE
  8
0
  6
CONTINUOUS
 62
     7
 10
68.522903
 20
160.513912
 30
0.0
 11
69.74
 21
160.84
 31
0.0
  0
LINE
  8
0
  6
CONTINUOUS
 62
     7
 10
69.74
 20
160.84
 30
0.0
 11
68.522903
 21
161.166088
 31
0.0
  0
TEXT
  8
0
  6
CONTINUOUS
 62
     7
 10
99.35
 20
161.47
 30
0.0
 40
1.89
  1
１
 50
0.0
 41
0.666
 51
0.0
  7
KANJI2
  0
TEXT
  8
0
  6
CONTINUOUS
 62
     7
 10
100.61
 20
161.47
 30
0.0
 40
1.89
  1
０
 50
0.0
 41
0.666
 51
0.0
  7
KANJI2
  0
TEXT
  8
0
  6
CONTINUOUS
 62
     7
 10
101.87
 20
161.47
 30
0.0
 40
1.89
  1
０
 50
0.0
 41
0.666
 51
0.0
  7
KANJI2
  0
LINE
  8
0
  6
CONTINUOUS
 62
     7
 10
69.74
 20
160.84
 30
0.0
 11
132.74
 21
160.84
 31
0.0
  0
LINE
  8
0
  6
CONTINUOUS
 62
     7
 10
70.957097
 20
161.166088
 30
0.0
 11
69.74
 21
160.84
 31
0.0
  0
LINE
  8
0
  6
CONTINUOUS
 62
     7
 10
69.74
 20
160.84
 30
0.0
 11
70.957097
 21
160.513912
 31
0.0
  0
LINE
  8
0
  6
CONTINUOUS
 62
     7
 10
131.522903
 20
160.513912
 30
0.0
 11
132.74
 21
160.84
 31
0.0
  0
LINE
  8
0
  6
CONTINUOUS
 62
     7
 10
132.74
 20
160.84
 30
0.0
 11
131.522903
 21
161.166088
 31
0.0
  0
LINE
  8
0
  6
CONTINUOUS
 62
     7
 10
63.44
 20
165.88
 30
0.0
 11
132.74
 21
165.88
 31
0.0
  0
LINE
  8
0
  6
CONTINUOUS
 62
     7
 10
64.657097
 20
166.206088
 30
0.0
 11
63.44
 21
165.88
 31
0.0
  0
LINE
  8
0
  6
CONTINUOUS
 62
     7
 10
63.44
 20
165.88
 30
0.0
 11
64.657097
 21
165.553912
 31
0.0
  0
LINE
  8
0
  6
CONTINUOUS
 62
     7
 10
131.522903
 20
165.553912
 30
0.0
 11
132.74
 21
165.88
 31
0.0
  0
LINE
  8
0
  6
CONTINUOUS
 62
     7
 10
132.74
 20
165.88
 30
0.0
 11
131.522903
 21
166.206088
 31
0.0
  0
LINE
  8
0
  6
CONTINUOUS
 62
     7
 10
63.44
 20
133.12
 30
0.0
 11
63.44
 21
167.14
 31
0.0
  0
LINE
  8
0
  6
CONTINUOUS
 62
     7
 10
63.44
 20
132.175
 30
0.0
 11
63.44
 21
127.765
 31
0.0
  0
ARC
  8
0
  6
CONTINUOUS
 62
     7
 10
63.755
 20
132.175
 30
0.0
 40
0.315
 50
90.0
 51
180.0
  0
ARC
  8
0
  6
CONTINUOUS
 62
     7
 10
63.755
 20
127.765
 30
0.0
 40
0.315
 50
180.0
 51
270.0
  0
LINE
  8
0
  6
CONTINUOUS
 62
     7
 10
64.7
 20
127.45
 30
0.0
 11
64.7
 21
127.135
 31
0.0
  0
LINE
  8
0
  6
CONTINUOUS
 62
     7
 10
65.015
 20
126.82
 30
0.0
 11
69.74
 21
126.82
 31
0.0
  0
ARC
  8
0
  6
CONTINUOUS
 62
     7
 10
65.015
 20
127.135
 30
0.0
 40
0.315
 50
180.0
 51
270.0
  0
ARC
  8
0
  6
CONTINUOUS
 62
     7
 10
66.086
 20
135.136
 30
0.0
 40
0.756
 50
90.0
 51
270.0
  0
ARC
  8
0
  6
CONTINUOUS
 62
     7
 10
66.086
 20
132.112
 30
0.0
 40
0.756
 50
90.0
 51
270.0
  0
ARC
  8
0
  6
CONTINUOUS
 62
     7
 10
66.086
 20
127.891
 30
0.0
 40
0.756
 50
90.0
 51
270.0
  0
ARC
  8
0
  6
CONTINUOUS
 62
     7
 10
66.086
 20
124.867
 30
0.0
 40
0.756
 50
90.0
 51
270.0
  0
LINE
  8
0
  6
CONTINUOUS
 62
     7
 10
66.086
 20
135.892
 30
0.0
 11
69.74
 21
135.892
 31
0.0
  0
LINE
  8
0
  6
CONTINUOUS
 62
     7
 10
66.086
 20
134.38
 30
0.0
 11
69.74
 21
134.38
 31
0.0
  0
LINE
  8
0
  6
CONTINUOUS
 62
     7
 10
66.086
 20
132.868
 30
0.0
 11
69.74
 21
132.868
 31
0.0
  0
LINE
  8
0
  6
CONTINUOUS
 62
     7
 10
66.086
 20
131.356
 30
0.0
 11
69.74
 21
131.356
 31
0.0
  0
LINE
  8
0
  6
CONTINUOUS
 62
     7
 10
66.086
 20
128.647
 30
0.0
 11
69.74
 21
128.647
 31
0.0
  0
LINE
  8
0
  6
CONTINUOUS
 62
     7
 10
66.086
 20
127.135
 30
0.0
 11
69.74
 21
127.135
 31
0.0
  0
LINE
  8
0
  6
CONTINUOUS
 62
     7
 10
66.086
 20
125.623
 30
0.0
 11
69.74
 21
125.623
 31
0.0
  0
LINE
  8
0
  6
CONTINUOUS
 62
     7
 10
66.086
 20
124.111
 30
0.0
 11
69.74
 21
124.111
 31
0.0
  0
LINE
  8
0
  6
CONTINUOUS
 62
     7
 10
63.755
 20
127.45
 30
0.0
 11
65.456
 21
127.45
 31
0.0
  0
LINE
  8
0
  6
CONTINUOUS
 62
     7
 10
63.755
 20
132.49
 30
0.0
 11
65.456
 21
132.49
 31
0.0
  0
LINE
  8
0
  6
CONTINUOUS
 62
     7
 10
69.74
 20
146.35
 30
0.0
 11
74.15
 21
146.35
 31
0.0
  0
LINE
  8
0
  6
CONTINUOUS
 62
     7
 10
74.78
 20
146.98
 30
0.0
 11
74.78
 21
154.54
 31
0.0
  0
LINE
  8
0
  6
CONTINUOUS
 62
     7
 10
74.78
 20
105.4
 30
0.0
 11
74.78
 21
112.96
 31
0.0
  0
LINE
  8
0
  6
CONTINUOUS
 62
     7
 10
69.74
 20
113.59
 30
0.0
 11
74.15
 21
113.59
 31
0.0
  0
ARC
  8
0
  6
CONTINUOUS
 62
     7
 10
74.15
 20
146.98
 30
0.0
 40
0.63
 50
270.0
 51
0.0
  0
ARC
  8
0
  6
CONTINUOUS
 62
     7
 10
74.15
 20
112.96
 30
0.0
 40
0.63
 50
0.0
 51
90.0
  0
LINE
  8
0
  6
CONTINUOUS
 62
     7
 10
69.74
 20
105.4
 30
0.0
 11
69.74
 21
154.54
 31
0.0
  0
LINE
  8
0
  6
CONTINUOUS
 62
     7
 10
70.055
 20
129.97
 30
0.0
 11
70.055
 21
146.35
 31
0.0
  0
LINE
  8
0
  6
CONTINUOUS
 62
     7
 10
70.055
 20
129.97
 30
0.0
 11
70.055
 21
113.59
 31
0.0
  0
LINE
  8
0
  6
LTYPE1
 62
     7
 10
141.56
 20
129.97
 30
0.0
 11
58.4
 21
129.97
 31
0.0
  0
LINE
  8
0
  6
CONTINUOUS
 62
     7
 10
71.567
 20
139.105
 30
0.0
 11
73.142
 21
139.105
 31
0.0
  0
LINE
  8
0
  6
CONTINUOUS
 62
     7
 10
71.567
 20
142.885
 30
0.0
 11
73.142
 21
142.885
 31
0.0
  0
LINE
  8
0
  6
CONTINUOUS
 62
     7
 10
71.567
 20
139.105
 30
0.0
 11
71.567
 21
142.885
 31
0.0
  0
LINE
  8
0
  6
CONTINUOUS
 62
     7
 10
73.142
 20
142.885
 30
0.0
 11
73.142
 21
139.105
 31
0.0
  0
LINE
  8
0
  6
CONTINUOUS
 62
     7
 10
71.567
 20
117.055
 30
0.0
 11
73.142
 21
117.055
 31
0.0
  0
LINE
  8
0
  6
CONTINUOUS
 62
     7
 10
71.567
 20
120.835
 30
0.0
 11
73.142
 21
120.835
 31
0.0
  0
LINE
  8
0
  6
CONTINUOUS
 62
     7
 10
71.567
 20
117.055
 30
0.0
 11
71.567
 21
120.835
 31
0.0
  0
LINE
  8
0
  6
CONTINUOUS
 62
     7
 10
73.142
 20
120.835
 30
0.0
 11
73.142
 21
117.055
 31
0.0
  0
LINE
  8
0
  6
CONTINUOUS
 62
     7
 10
69.74
 20
154.54
 30
0.0
 11
132.614
 21
153.91
 31
0.0
  0
ARC
  8
0
  6
CONTINUOUS
 62
     7
 10
132.614
 20
153.784
 30
0.0
 40
0.126
 50
0.0
 51
90.0
  0
LINE
  8
0
  6
CONTINUOUS
 62
     7
 10
132.74
 20
153.784
 30
0.0
 11
132.74
 21
106.156
 31
0.0
  0
LINE
  8
0
  6
CONTINUOUS
 62
     7
 10
132.614
 20
106.03
 30
0.0
 11
69.74
 21
105.4
 31
0.0
  0
ARC
  8
0
  6
CONTINUOUS
 62
     7
 10
132.614
 20
106.156
 30
0.0
 40
0.126
 50
270.0
 51
0.0
  0
LINE
  8
0
  6
CONTINUOUS
 62
     7
 10
132.74
 20
110.251
 30
0.0
 11
133.37
 21
110.251
 31
0.0
  0
LINE
  8
0
  6
CONTINUOUS
 62
     7
 10
133.37
 20
110.251
 30
0.0
 11
133.37
 21
111.196
 31
0.0
  0
LINE
  8
0
  6
CONTINUOUS
 62
     7
 10
132.74
 20
111.196
 30
0.0
 11
133.37
 21
111.196
 31
0.0
  0
LINE
  8
0
  6
LTYPE1
 62
     7
 10
14.3
 20
95.95
 30
0.0
 11
152.9
 21
95.95
 31
0.0
  0
TEXT
  8
0
  6
CONTINUOUS
 62
     5
 10
225.35
 20
9.64
 30
0.0
 40
3.15
  1
Ｙ
 50
0.0
 41
0.8
 51
0.0
  7
KANJI15
  0
TEXT
  8
0
  6
CONTINUOUS
 62
     5
 10
227.87
 20
9.64
 30
0.0
 40
3.15
  1
Ｍ
 50
0.0
 41
0.8
 51
0.0
  7
KANJI15
  0
TEXT
  8
0
  6
CONTINUOUS
 62
     5
 10
230.39
 20
9.64
 30
0.0
 40
3.15
  1
Ｌ
 50
0.0
 41
0.8
 51
0.0
  7
KANJI15
  0
TEXT
  8
0
  6
CONTINUOUS
 62
     5
 10
232.91
 20
9.64
 30
0.0
 40
3.15
  1
－
 50
0.0
 41
0.8
 51
0.0
  7
KANJI15
  0
TEXT
  8
0
  6
CONTINUOUS
 62
     5
 10
235.43
 20
9.64
 30
0.0
 40
3.15
  1
１
 50
0.0
 41
0.8
 51
0.0
  7
KANJI15
  0
TEXT
  8
0
  6
CONTINUOUS
 62
     5
 10
237.95
 20
9.64
 30
0.0
 40
3.15
  1
３
 50
0.0
 41
0.8
 51
0.0
  7
KANJI15
  0
TEXT
  8
0
  6
CONTINUOUS
 62
     5
 10
240.47
 20
9.64
 30
0.0
 40
3.15
  1
９
 50
0.0
 41
0.8
 51
0.0
  7
KANJI15
  0
TEXT
  8
0
  6
CONTINUOUS
 62
     5
 10
242.99
 20
9.64
 30
0.0
 40
3.15
  1
３
 50
0.0
 41
0.8
 51
0.0
  7
KANJI15
  0
TEXT
  8
0
  6
CONTINUOUS
 62
     7
 10
217.83
 20
25.3
 30
0.0
 40
3.15
  1
□
 50
0.0
 41
0.8
 51
0.0
  7
KANJI15
  0
TEXT
  8
0
  6
CONTINUOUS
 62
     7
 10
220.35
 20
25.3
 30
0.0
 40
3.15
  1
Ｄ
 50
0.0
 41
0.8
 51
0.0
  7
KANJI15
  0
TEXT
  8
0
  6
CONTINUOUS
 62
     7
 10
222.87
 20
25.3
 30
0.0
 40
3.15
  1
Ｐ
 50
0.0
 41
0.8
 51
0.0
  7
KANJI15
  0
TEXT
  8
0
  6
CONTINUOUS
 62
     7
 10
225.39
 20
25.3
 30
0.0
 40
3.15
  1
－
 50
0.0
 41
0.8
 51
0.0
  7
KANJI15
  0
TEXT
  8
0
  6
CONTINUOUS
 62
     7
 10
227.91
 20
25.3
 30
0.0
 40
3.15
  1
□
 50
0.0
 41
0.8
 51
0.0
  7
KANJI15
  0
TEXT
  8
0
  6
CONTINUOUS
 62
     7
 10
230.43
 20
25.3
 30
0.0
 40
3.15
  1
Ａ
 50
0.0
 41
0.8
 51
0.0
  7
KANJI15
  0
TEXT
  8
0
  6
CONTINUOUS
 62
     7
 10
217.83
 20
19.63
 30
0.0
 40
3.15
  1
ア
 50
0.0
 41
0.8
 51
0.0
  7
KANJI15
  0
TEXT
  8
0
  6
CONTINUOUS
 62
     7
 10
220.35
 20
19.63
 30
0.0
 40
3.15
  1
ラ
 50
0.0
 41
0.8
 51
0.0
  7
KANJI15
  0
TEXT
  8
0
  6
CONTINUOUS
 62
     7
 10
222.87
 20
19.63
 30
0.0
 40
3.15
  1
ー
 50
0.0
 41
0.8
 51
0.0
  7
KANJI15
  0
TEXT
  8
0
  6
CONTINUOUS
 62
     7
 10
225.39
 20
19.63
 30
0.0
 40
3.15
  1
ム
 50
0.0
 41
0.8
 51
0.0
  7
KANJI15
  0
TEXT
  8
0
  6
CONTINUOUS
 62
     7
 10
227.91
 20
19.63
 30
0.0
 40
3.15
  1
セ
 50
0.0
 41
0.8
 51
0.0
  7
KANJI15
  0
TEXT
  8
0
  6
CONTINUOUS
 62
     7
 10
230.43
 20
19.63
 30
0.0
 40
3.15
  1
ッ
 50
0.0
 41
0.8
 51
0.0
  7
KANJI15
  0
TEXT
  8
0
  6
CONTINUOUS
 62
     7
 10
232.95
 20
19.63
 30
0.0
 40
3.15
  1
タ
 50
0.0
 41
0.8
 51
0.0
  7
KANJI15
  0
TEXT
  8
0
  6
CONTINUOUS
 62
     7
 10
235.47
 20
19.63
 30
0.0
 40
3.15
  1
ー
 50
0.0
 41
0.8
 51
0.0
  7
KANJI15
  0
TEXT
  8
0
  6
CONTINUOUS
 62
     7
 10
240.51
 20
19.63
 30
0.0
 40
3.15
  1
外
 50
0.0
 41
0.8
 51
0.0
  7
KANJI15
  0
TEXT
  8
0
  6
CONTINUOUS
 62
     7
 10
243.03
 20
19.63
 30
0.0
 40
3.15
  1
形
 50
0.0
 41
0.8
 51
0.0
  7
KANJI15
  0
TEXT
  8
0
  6
CONTINUOUS
 62
     7
 10
245.55
 20
19.63
 30
0.0
 40
3.15
  1
図
 50
0.0
 41
0.8
 51
0.0
  7
KANJI15
  0
LINE
  8
0
  6
LTYPE1
 62
     7
 10
57.0
 20
129.97
 30
0.0
 11
58.4
 21
129.97
 31
0.0
  0
LINE
  8
0
  6
LTYPE1
 62
     7
 10
14.3
 20
129.97
 30
0.0
 11
57.0
 21
129.97
 31
0.0
  0
ENDSEC
  0
EOF
