  0
SECTION
  2
HEADER
  9
$ACADVER
  1
AC1009
  9
$DWGCODEPAGE
  3
dos932
  9
$EXTMIN
 10
0.0
 20
0.0
 30
0.0
  9
$EXTMAX
 10
420.0
 20
297.0
 30
0.0
  9
$LIMMIN
 10
0.0
 20
0.0
  9
$LIMMAX
 10
420.0
 20
297.0
  9
$LTSCALE
 40
1.0
  9
$PDMODE
 70
     0
  0
ENDSEC
  0
SECTION
  2
TABLES
  0
TABLE
  2
VPORT
 70
     1
  0
VPORT
  2
*ACTIVE
 70
     0
 10
0.0
 20
0.0
 11
1.0
 21
1.0
 12
210.0
 22
148.5
 13
0.0
 23
0.0
 14
10.0
 24
10.0
 15
10.0
 25
10.0
 16
0.0
 26
0.0
 36
1.0
 17
0.0
 27
0.0
 37
0.0
 40
420.0
 41
1.414141414
 42
50.0
 43
0.0
 44
0.0
 50
0.0
 51
0.0
 71
     0
 72
  1000
 73
     1
 74
     3
 75
     0
 76
     0
 77
     0
 78
     0
  0
ENDTAB
  0
TABLE
  2
LTYPE
 70
     2
  0
LTYPE
  2
LTYPE0
 70
    64
  3
CENTERX2
 72
    65
 73
     4
 40
15.0
 49
12.75
 49
-0.75
 49
0.75
 49
-0.75
  0
LTYPE
  2
CONTINUOUS
 70
    64
  3
Solid line
 72
    65
 73
     0
 40
0.0
  0
ENDTAB
  0
TABLE
  2
LAYER
 70
   128
  0
LAYER
  2
0
 70
     0
 62
     7
  6
CONTINUOUS
  0
LAYER
  2
2
 70
     0
 62
     7
  6
CONTINUOUS
  0
LAYER
  2
3
 70
     0
 62
     7
  6
CONTINUOUS
  0
LAYER
  2
4
 70
     0
 62
     7
  6
CONTINUOUS
  0
LAYER
  2
5
 70
     0
 62
     7
  6
CONTINUOUS
  0
LAYER
  2
6
 70
     0
 62
     7
  6
CONTINUOUS
  0
LAYER
  2
7
 70
     0
 62
     7
  6
CONTINUOUS
  0
LAYER
  2
8
 70
     0
 62
     7
  6
CONTINUOUS
  0
LAYER
  2
9
 70
     0
 62
     7
  6
CONTINUOUS
  0
LAYER
  2
10
 70
     0
 62
     7
  6
CONTINUOUS
  0
LAYER
  2
11
 70
     0
 62
     7
  6
CONTINUOUS
  0
LAYER
  2
12
 70
     0
 62
     7
  6
CONTINUOUS
  0
LAYER
  2
13
 70
     0
 62
     7
  6
CONTINUOUS
  0
LAYER
  2
14
 70
     0
 62
     7
  6
CONTINUOUS
  0
LAYER
  2
15
 70
     0
 62
     7
  6
CONTINUOUS
  0
LAYER
  2
16
 70
     0
 62
     7
  6
CONTINUOUS
  0
LAYER
  2
17
 70
     0
 62
     7
  6
CONTINUOUS
  0
LAYER
  2
18
 70
     0
 62
     7
  6
CONTINUOUS
  0
LAYER
  2
19
 70
     0
 62
     7
  6
CONTINUOUS
  0
LAYER
  2
20
 70
     0
 62
     7
  6
CONTINUOUS
  0
LAYER
  2
21
 70
     0
 62
     7
  6
CONTINUOUS
  0
LAYER
  2
22
 70
     0
 62
     7
  6
CONTINUOUS
  0
LAYER
  2
23
 70
     0
 62
     7
  6
CONTINUOUS
  0
LAYER
  2
24
 70
     0
 62
     7
  6
CONTINUOUS
  0
LAYER
  2
25
 70
     0
 62
     7
  6
CONTINUOUS
  0
LAYER
  2
26
 70
     0
 62
     7
  6
CONTINUOUS
  0
LAYER
  2
27
 70
     0
 62
     7
  6
CONTINUOUS
  0
LAYER
  2
28
 70
     0
 62
     7
  6
CONTINUOUS
  0
LAYER
  2
29
 70
     0
 62
     7
  6
CONTINUOUS
  0
LAYER
  2
30
 70
     0
 62
     7
  6
CONTINUOUS
  0
LAYER
  2
31
 70
     0
 62
     7
  6
CONTINUOUS
  0
LAYER
  2
32
 70
     0
 62
     7
  6
CONTINUOUS
  0
LAYER
  2
33
 70
     0
 62
     7
  6
CONTINUOUS
  0
LAYER
  2
34
 70
     0
 62
     7
  6
CONTINUOUS
  0
LAYER
  2
35
 70
     0
 62
     7
  6
CONTINUOUS
  0
LAYER
  2
36
 70
     0
 62
     7
  6
CONTINUOUS
  0
LAYER
  2
37
 70
     0
 62
     7
  6
CONTINUOUS
  0
LAYER
  2
38
 70
     0
 62
     7
  6
CONTINUOUS
  0
LAYER
  2
39
 70
     0
 62
     7
  6
CONTINUOUS
  0
LAYER
  2
40
 70
     0
 62
     7
  6
CONTINUOUS
  0
LAYER
  2
41
 70
     0
 62
     7
  6
CONTINUOUS
  0
LAYER
  2
42
 70
     0
 62
     7
  6
CONTINUOUS
  0
LAYER
  2
43
 70
     0
 62
     7
  6
CONTINUOUS
  0
LAYER
  2
44
 70
     0
 62
     7
  6
CONTINUOUS
  0
LAYER
  2
45
 70
     0
 62
     7
  6
CONTINUOUS
  0
LAYER
  2
46
 70
     0
 62
     7
  6
CONTINUOUS
  0
LAYER
  2
47
 70
     0
 62
     7
  6
CONTINUOUS
  0
LAYER
  2
48
 70
     0
 62
     7
  6
CONTINUOUS
  0
LAYER
  2
49
 70
     0
 62
     7
  6
CONTINUOUS
  0
LAYER
  2
50
 70
     0
 62
     7
  6
CONTINUOUS
  0
LAYER
  2
51
 70
     0
 62
     7
  6
CONTINUOUS
  0
LAYER
  2
52
 70
     0
 62
     7
  6
CONTINUOUS
  0
LAYER
  2
53
 70
     0
 62
     7
  6
CONTINUOUS
  0
LAYER
  2
54
 70
     0
 62
     7
  6
CONTINUOUS
  0
LAYER
  2
55
 70
     0
 62
     7
  6
CONTINUOUS
  0
LAYER
  2
56
 70
     0
 62
     7
  6
CONTINUOUS
  0
LAYER
  2
57
 70
     0
 62
     7
  6
CONTINUOUS
  0
LAYER
  2
58
 70
     0
 62
     7
  6
CONTINUOUS
  0
LAYER
  2
59
 70
     0
 62
     7
  6
CONTINUOUS
  0
LAYER
  2
60
 70
     0
 62
     7
  6
CONTINUOUS
  0
LAYER
  2
61
 70
     0
 62
     7
  6
CONTINUOUS
  0
LAYER
  2
62
 70
     0
 62
     7
  6
CONTINUOUS
  0
LAYER
  2
63
 70
     0
 62
     7
  6
CONTINUOUS
  0
LAYER
  2
64
 70
     0
 62
     7
  6
CONTINUOUS
  0
LAYER
  2
65
 70
     0
 62
     7
  6
CONTINUOUS
  0
LAYER
  2
66
 70
     0
 62
     7
  6
CONTINUOUS
  0
LAYER
  2
67
 70
     0
 62
     7
  6
CONTINUOUS
  0
LAYER
  2
68
 70
     0
 62
     7
  6
CONTINUOUS
  0
LAYER
  2
69
 70
     0
 62
     7
  6
CONTINUOUS
  0
LAYER
  2
70
 70
     0
 62
     7
  6
CONTINUOUS
  0
LAYER
  2
71
 70
     0
 62
     7
  6
CONTINUOUS
  0
LAYER
  2
72
 70
     0
 62
     7
  6
CONTINUOUS
  0
LAYER
  2
73
 70
     0
 62
     7
  6
CONTINUOUS
  0
LAYER
  2
74
 70
     0
 62
     7
  6
CONTINUOUS
  0
LAYER
  2
75
 70
     0
 62
     7
  6
CONTINUOUS
  0
LAYER
  2
76
 70
     0
 62
     7
  6
CONTINUOUS
  0
LAYER
  2
77
 70
     0
 62
     7
  6
CONTINUOUS
  0
LAYER
  2
78
 70
     0
 62
     7
  6
CONTINUOUS
  0
LAYER
  2
79
 70
     0
 62
     7
  6
CONTINUOUS
  0
LAYER
  2
80
 70
     0
 62
     7
  6
CONTINUOUS
  0
LAYER
  2
81
 70
     0
 62
     7
  6
CONTINUOUS
  0
LAYER
  2
82
 70
     0
 62
     7
  6
CONTINUOUS
  0
LAYER
  2
83
 70
     0
 62
     7
  6
CONTINUOUS
  0
LAYER
  2
84
 70
     0
 62
     7
  6
CONTINUOUS
  0
LAYER
  2
85
 70
     0
 62
     7
  6
CONTINUOUS
  0
LAYER
  2
86
 70
     0
 62
     7
  6
CONTINUOUS
  0
LAYER
  2
87
 70
     0
 62
     7
  6
CONTINUOUS
  0
LAYER
  2
88
 70
     0
 62
     7
  6
CONTINUOUS
  0
LAYER
  2
89
 70
     0
 62
     7
  6
CONTINUOUS
  0
LAYER
  2
90
 70
     0
 62
     7
  6
CONTINUOUS
  0
LAYER
  2
91
 70
     0
 62
     7
  6
CONTINUOUS
  0
LAYER
  2
92
 70
     0
 62
     7
  6
CONTINUOUS
  0
LAYER
  2
93
 70
     0
 62
     7
  6
CONTINUOUS
  0
LAYER
  2
94
 70
     0
 62
     7
  6
CONTINUOUS
  0
LAYER
  2
95
 70
     0
 62
     7
  6
CONTINUOUS
  0
LAYER
  2
96
 70
     0
 62
     7
  6
CONTINUOUS
  0
LAYER
  2
97
 70
     0
 62
     7
  6
CONTINUOUS
  0
LAYER
  2
98
 70
     0
 62
     7
  6
CONTINUOUS
  0
LAYER
  2
99
 70
     0
 62
     7
  6
CONTINUOUS
  0
LAYER
  2
100
 70
     0
 62
     7
  6
CONTINUOUS
  0
LAYER
  2
101
 70
     0
 62
     7
  6
CONTINUOUS
  0
LAYER
  2
102
 70
     0
 62
     7
  6
CONTINUOUS
  0
LAYER
  2
103
 70
     0
 62
     7
  6
CONTINUOUS
  0
LAYER
  2
104
 70
     0
 62
     7
  6
CONTINUOUS
  0
LAYER
  2
105
 70
     0
 62
     7
  6
CONTINUOUS
  0
LAYER
  2
106
 70
     0
 62
     7
  6
CONTINUOUS
  0
LAYER
  2
107
 70
     0
 62
     7
  6
CONTINUOUS
  0
LAYER
  2
108
 70
     0
 62
     7
  6
CONTINUOUS
  0
LAYER
  2
109
 70
     0
 62
     7
  6
CONTINUOUS
  0
LAYER
  2
110
 70
     0
 62
     7
  6
CONTINUOUS
  0
LAYER
  2
111
 70
     0
 62
     7
  6
CONTINUOUS
  0
LAYER
  2
112
 70
     0
 62
     7
  6
CONTINUOUS
  0
LAYER
  2
113
 70
     0
 62
     7
  6
CONTINUOUS
  0
LAYER
  2
114
 70
     0
 62
     7
  6
CONTINUOUS
  0
LAYER
  2
115
 70
     0
 62
     7
  6
CONTINUOUS
  0
LAYER
  2
116
 70
     0
 62
     7
  6
CONTINUOUS
  0
LAYER
  2
117
 70
     0
 62
     7
  6
CONTINUOUS
  0
LAYER
  2
118
 70
     0
 62
     7
  6
CONTINUOUS
  0
LAYER
  2
119
 70
     0
 62
     7
  6
CONTINUOUS
  0
LAYER
  2
120
 70
     0
 62
     7
  6
CONTINUOUS
  0
LAYER
  2
121
 70
     0
 62
     7
  6
CONTINUOUS
  0
LAYER
  2
122
 70
     0
 62
     7
  6
CONTINUOUS
  0
LAYER
  2
123
 70
     0
 62
     7
  6
CONTINUOUS
  0
LAYER
  2
124
 70
     0
 62
     7
  6
CONTINUOUS
  0
LAYER
  2
125
 70
     0
 62
     7
  6
CONTINUOUS
  0
LAYER
  2
126
 70
     0
 62
     7
  6
CONTINUOUS
  0
LAYER
  2
127
 70
     0
 62
     7
  6
CONTINUOUS
  0
LAYER
  2
128
 70
     0
 62
     7
  6
CONTINUOUS
  0
ENDTAB
  0
TABLE
  2
STYLE
 70
    21
  0
STYLE
  2
STANDARD
 70
     0
 40
0.0
 41
1.0
 50
0.0
 71
     0
 42
0.2
  3
txt.shx
  4
extfont.shx
  0
STYLE
  2
KANJI0
 70
     0
 40
3.0
 41
0.666
 50
0.0
 71
     0
 42
3.0
  3
txt.shx
  4
extfont.shx
  0
STYLE
  2
KANJI1
 70
     0
 40
2.0
 41
0.75
 50
0.0
 71
     0
 42
2.0
  3
txt.shx
  4
extfont.shx
  0
STYLE
  2
KANJI2
 70
     0
 40
3.0
 41
1.0
 50
0.0
 71
     0
 42
3.0
  3
txt.shx
  4
extfont.shx
  0
STYLE
  2
KANJI3
 70
     0
 40
1.5
 41
1.0
 50
0.0
 71
     0
 42
1.5
  3
txt.shx
  4
extfont.shx
  0
STYLE
  2
KANJI4
 70
     0
 40
3.0
 41
0.666666667
 50
0.0
 71
     0
 42
3.0
  3
txt.shx
  4
extfont.shx
  0
STYLE
  2
KANJI5
 70
     0
 40
2.5
 41
0.8
 50
0.0
 71
     0
 42
2.5
  3
txt.shx
  4
extfont.shx
  0
STYLE
  2
KANJI6
 70
     0
 40
2.5
 41
0.4
 50
0.0
 71
     0
 42
2.5
  3
txt.shx
  4
extfont.shx
  0
STYLE
  2
KANJI7
 70
     0
 40
3.0
 41
0.9
 50
0.0
 71
     0
 42
3.0
  3
txt.shx
  4
extfont.shx
  0
STYLE
  2
KANJI8
 70
     0
 40
5.0
 41
0.9
 50
0.0
 71
     0
 42
5.0
  3
txt.shx
  4
extfont.shx
  0
STYLE
  2
KANJI9
 70
     0
 40
4.0
 41
0.9
 50
0.0
 71
     0
 42
4.0
  3
txt.shx
  4
extfont.shx
  0
STYLE
  2
KANJI10
 70
     0
 40
3.0
 41
1.0
 50
0.0
 71
     0
 42
3.0
  3
txt.shx
  4
extfont.shx
  0
STYLE
  2
KANJI11
 70
     0
 40
2.0
 41
1.0
 50
0.0
 71
     0
 42
2.0
  3
txt.shx
  4
extfont.shx
  0
STYLE
  2
KANJI12
 70
     0
 40
1.5
 41
0.666666667
 50
5.0
 71
     0
 42
1.5
  3
txt.shx
  4
extfont.shx
  0
STYLE
  2
KANJI13
 70
     0
 40
1.5
 41
0.666666667
 50
5.0
 71
     0
 42
1.5
  3
txt.shx
  4
extfont.shx
  0
STYLE
  2
KANJI14
 70
     0
 40
3.0
 41
0.9
 50
0.0
 71
     0
 42
3.0
  3
txt.shx
  4
extfont.shx
  0
STYLE
  2
KANJI15
 70
     0
 40
6.0
 41
0.866666667
 50
0.0
 71
     0
 42
6.0
  3
txt.shx
  4
extfont.shx
  0
STYLE
  2
KANJI16
 70
     0
 40
3.0
 41
1.0
 50
0.0
 71
     0
 42
3.0
  3
txt.shx
  4
extfont.shx
  0
STYLE
  2
KANJI17
 70
     0
 40
1.5
 41
0.666666667
 50
0.0
 71
     0
 42
1.5
  3
txt.shx
  4
extfont.shx
  0
STYLE
  2
KANJI18
 70
     0
 40
2.5
 41
0.9
 50
0.0
 71
     0
 42
2.5
  3
txt.shx
  4
extfont.shx
  0
STYLE
  2
KANJI19
 70
     0
 40
4.0
 41
0.9
 50
0.0
 71
     0
 42
4.0
  3
txt.shx
  4
extfont.shx
  0
ENDTAB
  0
TABLE
  2
VIEW
 70
     0
  0
ENDTAB
  0
ENDSEC
  0
SECTION
  2
BLOCKS
  0
ENDSEC
  0
SECTION
  2
ENTITIES
  0
LINE
  8
0
  6
LTYPE0
 62
     2
 10
324.0
 20
91.3
 30
0.0
 11
243.0
 21
91.3
 31
0.0
  0
LINE
  8
0
  6
CONTINUOUS
 62
     2
 10
285.0
 20
250.0
 30
0.0
 11
285.0
 21
268.0
 31
0.0
  0
LINE
  8
0
  6
CONTINUOUS
 62
     2
 10
335.0
 20
268.0
 30
0.0
 11
335.0
 21
250.0
 31
0.0
  0
LINE
  8
0
  6
CONTINUOUS
 62
     2
 10
285.0
 20
266.0
 30
0.0
 11
335.0
 21
266.0
 31
0.0
  0
LINE
  8
0
  6
CONTINUOUS
 62
     2
 10
286.9319
 20
266.5176
 30
0.0
 11
285.0
 21
266.0
 31
0.0
  0
LINE
  8
0
  6
CONTINUOUS
 62
     2
 10
285.0
 20
266.0
 30
0.0
 11
286.9319
 21
265.4824
 31
0.0
  0
LINE
  8
0
  6
CONTINUOUS
 62
     2
 10
333.0681
 20
265.4824
 30
0.0
 11
335.0
 21
266.0
 31
0.0
  0
LINE
  8
0
  6
CONTINUOUS
 62
     2
 10
335.0
 20
266.0
 30
0.0
 11
333.0681
 21
266.5176
 31
0.0
  0
TEXT
  8
0
  6
CONTINUOUS
 62
     2
 10
308.0
 20
267.0
 30
0.0
 40
3.0
  1
５
 50
0.0
 41
0.666
 51
0.0
  7
KANJI0
  0
TEXT
  8
0
  6
CONTINUOUS
 62
     2
 10
310.0
 20
267.0
 30
0.0
 40
3.0
  1
０
 50
0.0
 41
0.666
 51
0.0
  7
KANJI0
  0
LINE
  8
0
  6
CONTINUOUS
 62
     2
 10
337.0
 20
248.0
 30
0.0
 11
355.0
 21
248.0
 31
0.0
  0
LINE
  8
0
  6
CONTINUOUS
 62
     2
 10
337.0
 20
170.0
 30
0.0
 11
355.0
 21
170.0
 31
0.0
  0
TEXT
  8
0
  6
CONTINUOUS
 62
     2
 10
352.0
 20
207.0
 30
0.0
 40
3.0
  1
７
 50
90.0
 41
0.666
 51
0.0
  7
KANJI0
  0
TEXT
  8
0
  6
CONTINUOUS
 62
     2
 10
352.0
 20
209.0
 30
0.0
 40
3.0
  1
８
 50
90.0
 41
0.666
 51
0.0
  7
KANJI0
  0
LINE
  8
0
  6
CONTINUOUS
 62
     2
 10
353.0
 20
248.0
 30
0.0
 11
353.0
 21
170.0
 31
0.0
  0
LINE
  8
0
  6
CONTINUOUS
 62
     2
 10
353.5176
 20
246.0681
 30
0.0
 11
353.0
 21
248.0
 31
0.0
  0
LINE
  8
0
  6
CONTINUOUS
 62
     2
 10
353.0
 20
248.0
 30
0.0
 11
352.4824
 21
246.0681
 31
0.0
  0
LINE
  8
0
  6
CONTINUOUS
 62
     2
 10
352.4824
 20
171.9319
 30
0.0
 11
353.0
 21
170.0
 31
0.0
  0
LINE
  8
0
  6
CONTINUOUS
 62
     2
 10
353.0
 20
170.0
 30
0.0
 11
353.5176
 21
171.9319
 31
0.0
  0
LINE
  8
0
  6
CONTINUOUS
 62
     2
 10
313.8
 20
122.0
 30
0.0
 11
313.8
 21
111.2
 31
0.0
  0
LINE
  8
0
  6
CONTINUOUS
 62
     2
 10
311.8681
 20
119.4824
 30
0.0
 11
313.8
 21
120.0
 31
0.0
  0
LINE
  8
0
  6
CONTINUOUS
 62
     2
 10
313.8
 20
120.0
 30
0.0
 11
311.8681
 21
120.5176
 31
0.0
  0
TEXT
  8
0
  6
CONTINUOUS
 62
     2
 10
275.0
 20
121.0
 30
0.0
 40
3.0
  1
ｍ
 50
0.0
 41
0.666
 51
0.0
  7
KANJI0
  0
TEXT
  8
0
  6
CONTINUOUS
 62
     2
 10
277.0
 20
121.0
 30
0.0
 40
3.0
  1
ａ
 50
0.0
 41
0.666
 51
0.0
  7
KANJI0
  0
TEXT
  8
0
  6
CONTINUOUS
 62
     2
 10
279.0
 20
121.0
 30
0.0
 40
3.0
  1
ｘ
 50
0.0
 41
0.666
 51
0.0
  7
KANJI0
  0
TEXT
  8
0
  6
CONTINUOUS
 62
     2
 10
281.0
 20
121.0
 30
0.0
 40
3.0
  1
．
 50
0.0
 41
0.666
 51
0.0
  7
KANJI0
  0
TEXT
  8
0
  6
CONTINUOUS
 62
     2
 10
283.0
 20
121.0
 30
0.0
 40
3.0
  1
１
 50
0.0
 41
0.666
 51
0.0
  7
KANJI0
  0
TEXT
  8
0
  6
CONTINUOUS
 62
     2
 10
285.0
 20
121.0
 30
0.0
 40
3.0
  1
３
 50
0.0
 41
0.666
 51
0.0
  7
KANJI0
  0
TEXT
  8
0
  6
CONTINUOUS
 62
     2
 10
287.0
 20
121.0
 30
0.0
 40
3.0
  1
４
 50
0.0
 41
0.666
 51
0.0
  7
KANJI0
  0
LINE
  8
0
  6
CONTINUOUS
 62
     2
 10
249.0
 20
112.0
 30
0.0
 11
249.0
 21
122.0
 31
0.0
  0
LINE
  8
0
  6
CONTINUOUS
 62
     2
 10
249.0
 20
120.0
 30
0.0
 11
313.8
 21
120.0
 31
0.0
  0
LINE
  8
0
  6
CONTINUOUS
 62
     2
 10
250.9319
 20
120.5176
 30
0.0
 11
249.0
 21
120.0
 31
0.0
  0
LINE
  8
0
  6
CONTINUOUS
 62
     2
 10
249.0
 20
120.0
 30
0.0
 11
250.9319
 21
119.4824
 31
0.0
  0
LINE
  8
0
  6
CONTINUOUS
 62
     2
 10
328.0
 20
160.0
 30
0.0
 11
335.0
 21
160.0
 31
0.0
  0
LINE
  8
0
  6
CONTINUOUS
 62
     2
 10
339.0
 20
174.0
 30
0.0
 11
346.0
 21
174.0
 31
0.0
  0
LINE
  8
0
  6
CONTINUOUS
 62
     2
 10
296.5
 20
180.5
 30
0.0
 11
297.8357
 21
179.0114
 31
0.0
  0
LINE
  8
0
  6
CONTINUOUS
 62
     2
 10
328.0
 20
160.0
 30
0.0
 11
296.5
 21
180.5
 31
0.0
  0
LINE
  8
0
  6
CONTINUOUS
 62
     2
 10
298.401
 20
179.8786
 30
0.0
 11
296.5
 21
180.5
 31
0.0
  0
LINE
  8
0
  6
CONTINUOUS
 62
     2
 10
299.04
 20
191.6075
 30
0.0
 11
300.5987
 21
190.3543
 31
0.0
  0
LINE
  8
0
  6
CONTINUOUS
 62
     2
 10
339.0
 20
174.0
 30
0.0
 11
299.04
 21
191.6075
 31
0.0
  0
LINE
  8
0
  6
CONTINUOUS
 62
     2
 10
301.0165
 20
191.3015
 30
0.0
 11
299.04
 21
191.6075
 31
0.0
  0
TEXT
  8
0
  6
CONTINUOUS
 62
     2
 10
303.0
 20
193.0
 30
0.0
 40
2.0
  1
Ｄ
 50
0.0
 41
0.75
 51
0.0
  7
KANJI1
  0
TEXT
  8
0
  6
CONTINUOUS
 62
     2
 10
310.5
 20
193.0
 30
0.0
 40
2.0
  1
Ｂ
 50
0.0
 41
0.75
 51
0.0
  7
KANJI1
  0
TEXT
  8
0
  6
CONTINUOUS
 62
     2
 10
312.0
 20
193.0
 30
0.0
 40
2.0
  1
Ａ
 50
0.0
 41
0.75
 51
0.0
  7
KANJI1
  0
TEXT
  8
0
  6
CONTINUOUS
 62
     2
 10
304.5
 20
193.0
 30
0.0
 40
2.0
  1
Ｅ
 50
0.0
 41
0.75
 51
0.0
  7
KANJI1
  0
TEXT
  8
0
  6
CONTINUOUS
 62
     2
 10
306.0
 20
193.0
 30
0.0
 40
2.0
  1
Ａ
 50
0.0
 41
0.75
 51
0.0
  7
KANJI1
  0
TEXT
  8
0
  6
CONTINUOUS
 62
     2
 10
307.5
 20
193.0
 30
0.0
 40
2.0
  1
Ｄ
 50
0.0
 41
0.75
 51
0.0
  7
KANJI1
  0
TEXT
  8
0
  6
CONTINUOUS
 62
     2
 10
315.0
 20
193.0
 30
0.0
 40
2.0
  1
Ｄ
 50
0.0
 41
0.75
 51
0.0
  7
KANJI1
  0
TEXT
  8
0
  6
CONTINUOUS
 62
     2
 10
313.5
 20
193.0
 30
0.0
 40
2.0
  1
Ｎ
 50
0.0
 41
0.75
 51
0.0
  7
KANJI1
  0
TEXT
  8
0
  6
CONTINUOUS
 62
     2
 10
306.0
 20
181.0
 30
0.0
 40
2.0
  1
Ｒ
 50
0.0
 41
0.75
 51
0.0
  7
KANJI1
  0
TEXT
  8
0
  6
CONTINUOUS
 62
     2
 10
307.5
 20
181.0
 30
0.0
 40
2.0
  1
Ｅ
 50
0.0
 41
0.75
 51
0.0
  7
KANJI1
  0
TEXT
  8
0
  6
CONTINUOUS
 62
     2
 10
309.0
 20
181.0
 30
0.0
 40
2.0
  1
Ｌ
 50
0.0
 41
0.75
 51
0.0
  7
KANJI1
  0
TEXT
  8
0
  6
CONTINUOUS
 62
     2
 10
312.0
 20
181.0
 30
0.0
 40
2.0
  1
Ｙ
 50
0.0
 41
0.75
 51
0.0
  7
KANJI1
  0
TEXT
  8
0
  6
CONTINUOUS
 62
     2
 10
310.5
 20
181.0
 30
0.0
 40
2.0
  1
Ａ
 50
0.0
 41
0.75
 51
0.0
  7
KANJI1
  0
TEXT
  8
0
  6
CONTINUOUS
 62
     2
 10
298.5
 20
222.0
 30
0.0
 40
3.0
  1
８
 50
0.0
 41
0.666
 51
0.0
  7
KANJI0
  0
TEXT
  8
0
  6
CONTINUOUS
 62
     2
 10
296.0
 20
204.8
 30
0.0
 40
2.0
  1
Ｎ
 50
0.0
 41
0.75
 51
0.0
  7
KANJI1
  0
TEXT
  8
0
  6
CONTINUOUS
 62
     2
 10
297.5
 20
204.8
 30
0.0
 40
2.0
  1
Ｏ
 50
0.0
 41
0.75
 51
0.0
  7
KANJI1
  0
TEXT
  8
0
  6
CONTINUOUS
 62
     2
 10
299.0
 20
204.8
 30
0.0
 40
2.0
  1
．
 50
0.0
 41
0.75
 51
0.0
  7
KANJI1
  0
TEXT
  8
0
  6
CONTINUOUS
 62
     2
 10
304.5
 20
222.0
 30
0.0
 40
3.0
  1
８
 50
0.0
 41
0.666
 51
0.0
  7
KANJI0
  0
LINE
  8
0
  6
CONTINUOUS
 62
     2
 10
305.0
 20
216.5
 30
0.0
 11
306.0
 21
216.5
 31
0.0
  0
LINE
  8
0
  6
CONTINUOUS
 62
     2
 10
305.5
 20
217.0
 30
0.0
 11
305.5
 21
216.0
 31
0.0
  0
LINE
  8
0
  6
CONTINUOUS
 62
     2
 10
299.0
 20
216.5
 30
0.0
 11
300.0
 21
216.5
 31
0.0
  0
LINE
  8
0
  6
CONTINUOUS
 62
     2
 10
299.5
 20
217.0
 30
0.0
 11
299.5
 21
216.0
 31
0.0
  0
LINE
  8
0
  6
CONTINUOUS
 62
     2
 10
299.0
 20
230.5
 30
0.0
 11
300.0
 21
230.5
 31
0.0
  0
LINE
  8
0
  6
CONTINUOUS
 62
     2
 10
305.0
 20
230.5
 30
0.0
 11
306.0
 21
230.5
 31
0.0
  0
TEXT
  8
0
  6
CONTINUOUS
 62
     2
 10
301.0
 20
239.0
 30
0.0
 40
2.0
  1
Ａ
 50
0.0
 41
0.75
 51
0.0
  7
KANJI1
  0
TEXT
  8
0
  6
CONTINUOUS
 62
     2
 10
302.5
 20
239.0
 30
0.0
 40
2.0
  1
Ｌ
 50
0.0
 41
0.75
 51
0.0
  7
KANJI1
  0
TEXT
  8
0
  6
CONTINUOUS
 62
     2
 10
304.0
 20
239.0
 30
0.0
 40
2.0
  1
Ａ
 50
0.0
 41
0.75
 51
0.0
  7
KANJI1
  0
TEXT
  8
0
  6
CONTINUOUS
 62
     2
 10
305.5
 20
239.0
 30
0.0
 40
2.0
  1
Ｒ
 50
0.0
 41
0.75
 51
0.0
  7
KANJI1
  0
TEXT
  8
0
  6
CONTINUOUS
 62
     2
 10
307.0
 20
239.0
 30
0.0
 40
2.0
  1
Ｍ
 50
0.0
 41
0.75
 51
0.0
  7
KANJI1
  0
TEXT
  8
0
  6
CONTINUOUS
 62
     2
 10
310.0
 20
239.0
 30
0.0
 40
2.0
  1
Ｓ
 50
0.0
 41
0.75
 51
0.0
  7
KANJI1
  0
TEXT
  8
0
  6
CONTINUOUS
 62
     2
 10
311.5
 20
239.0
 30
0.0
 40
2.0
  1
Ｅ
 50
0.0
 41
0.75
 51
0.0
  7
KANJI1
  0
TEXT
  8
0
  6
CONTINUOUS
 62
     2
 10
313.0
 20
239.0
 30
0.0
 40
2.0
  1
Ｔ
 50
0.0
 41
0.75
 51
0.0
  7
KANJI1
  0
TEXT
  8
0
  6
CONTINUOUS
 62
     2
 10
314.5
 20
239.0
 30
0.0
 40
2.0
  1
Ｔ
 50
0.0
 41
0.75
 51
0.0
  7
KANJI1
  0
TEXT
  8
0
  6
CONTINUOUS
 62
     2
 10
316.0
 20
239.0
 30
0.0
 40
2.0
  1
Ｅ
 50
0.0
 41
0.75
 51
0.0
  7
KANJI1
  0
TEXT
  8
0
  6
CONTINUOUS
 62
     2
 10
317.5
 20
239.0
 30
0.0
 40
2.0
  1
Ｒ
 50
0.0
 41
0.75
 51
0.0
  7
KANJI1
  0
CIRCLE
  8
0
  6
CONTINUOUS
 62
     1
 10
296.5
 20
194.0
 30
0.0
 40
3.5
  0
ARC
  8
0
  6
CONTINUOUS
 62
     1
 10
313.7
 20
110.2
 30
0.0
 40
0.1
 50
0.0
 51
90.0
  0
ARC
  8
0
  6
CONTINUOUS
 62
     1
 10
313.7
 20
72.4
 30
0.0
 40
0.1
 50
270.0
 51
0.0
  0
LINE
  8
0
  6
CONTINUOUS
 62
     1
 10
267.8
 20
71.8
 30
0.0
 11
267.8
 21
77.8
 31
0.0
  0
LINE
  8
0
  6
CONTINUOUS
 62
     1
 10
263.8
 20
78.3
 30
0.0
 11
267.3
 21
78.3
 31
0.0
  0
ARC
  8
0
  6
CONTINUOUS
 62
     1
 10
267.3
 20
104.8
 30
0.0
 40
0.5
 50
270.0
 51
0.0
  0
ARC
  8
0
  6
CONTINUOUS
 62
     1
 10
267.3
 20
77.8
 30
0.0
 40
0.5
 50
0.0
 51
90.0
  0
LINE
  8
0
  6
CONTINUOUS
 62
     1
 10
261.2
 20
89.1
 30
0.0
 11
261.2
 21
93.4
 31
0.0
  0
LINE
  8
0
  6
CONTINUOUS
 62
     1
 10
263.2
 20
89.1
 30
0.0
 11
261.2
 21
89.1
 31
0.0
  0
LINE
  8
0
  6
CONTINUOUS
 62
     1
 10
249.0
 20
110.3
 30
0.0
 11
249.0
 21
111.3
 31
0.0
  0
LINE
  8
0
  6
CONTINUOUS
 62
     1
 10
251.0
 20
93.8
 30
0.0
 11
249.0
 21
93.8
 31
0.0
  0
LINE
  8
0
  6
CONTINUOUS
 62
     1
 10
249.0
 20
100.1
 30
0.0
 11
251.0
 21
100.1
 31
0.0
  0
LINE
  8
0
  6
CONTINUOUS
 62
     1
 10
249.0
 20
93.8
 30
0.0
 11
249.0
 21
95.8
 31
0.0
  0
LINE
  8
0
  6
CONTINUOUS
 62
     1
 10
251.0
 20
88.8
 30
0.0
 11
249.0
 21
88.8
 31
0.0
  0
LINE
  8
0
  6
CONTINUOUS
 62
     1
 10
249.0
 20
86.8
 30
0.0
 11
251.0
 21
86.8
 31
0.0
  0
LINE
  8
0
  6
CONTINUOUS
 62
     1
 10
249.0
 20
88.8
 30
0.0
 11
249.0
 21
86.8
 31
0.0
  0
LINE
  8
0
  6
CONTINUOUS
 62
     1
 10
263.2
 20
103.0
 30
0.0
 11
262.5
 21
103.7
 31
0.0
  0
LINE
  8
0
  6
CONTINUOUS
 62
     1
 10
263.2
 20
72.0
 30
0.0
 11
262.5
 21
71.3
 31
0.0
  0
LINE
  8
0
  6
CONTINUOUS
 62
     1
 10
263.8
 20
82.4
 30
0.0
 11
263.2
 21
82.4
 31
0.0
  0
LINE
  8
0
  6
CONTINUOUS
 62
     1
 10
263.2
 20
80.2
 30
0.0
 11
263.8
 21
80.2
 31
0.0
  0
LINE
  8
0
  6
CONTINUOUS
 62
     1
 10
263.8
 20
80.2
 30
0.0
 11
263.8
 21
82.4
 31
0.0
  0
LINE
  8
0
  6
CONTINUOUS
 62
     1
 10
263.8
 20
102.4
 30
0.0
 11
263.2
 21
102.4
 31
0.0
  0
LINE
  8
0
  6
CONTINUOUS
 62
     1
 10
263.2
 20
100.1
 30
0.0
 11
263.8
 21
100.1
 31
0.0
  0
LINE
  8
0
  6
CONTINUOUS
 62
     1
 10
263.8
 20
100.1
 30
0.0
 11
263.8
 21
102.3
 31
0.0
  0
LINE
  8
0
  6
CONTINUOUS
 62
     1
 10
263.2
 20
98.5
 30
0.0
 11
263.2
 21
84.0
 31
0.0
  0
LINE
  8
0
  6
CONTINUOUS
 62
     1
 10
263.7
 20
98.5
 30
0.0
 11
263.2
 21
98.5
 31
0.0
  0
LINE
  8
0
  6
CONTINUOUS
 62
     1
 10
263.2
 20
84.0
 30
0.0
 11
263.7
 21
84.0
 31
0.0
  0
LINE
  8
0
  6
CONTINUOUS
 62
     1
 10
250.2
 20
82.4
 30
0.0
 11
250.2
 21
83.4
 31
0.0
  0
LINE
  8
0
  6
CONTINUOUS
 62
     1
 10
250.7
 20
69.3
 30
0.0
 11
249.0
 21
69.3
 31
0.0
  0
LINE
  8
0
  6
CONTINUOUS
 62
     1
 10
263.2
 20
80.2
 30
0.0
 11
263.2
 21
72.1
 31
0.0
  0
LINE
  8
0
  6
CONTINUOUS
 62
     1
 10
263.2
 20
73.6
 30
0.0
 11
263.8
 21
73.6
 31
0.0
  0
LINE
  8
0
  6
CONTINUOUS
 62
     1
 10
262.9
 20
70.5
 30
0.0
 11
262.2
 21
71.2
 31
0.0
  0
LINE
  8
0
  6
CONTINUOUS
 62
     1
 10
262.9
 20
70.5
 30
0.0
 11
269.4
 21
70.5
 31
0.0
  0
LINE
  8
0
  6
CONTINUOUS
 62
     1
 10
268.1
 20
71.5
 30
0.0
 11
269.3
 21
71.5
 31
0.0
  0
ARC
  8
0
  6
CONTINUOUS
 62
     1
 10
269.4
 20
71.0
 30
0.0
 40
0.5
 50
270.0
 51
0.0
  0
ARC
  8
0
  6
CONTINUOUS
 62
     1
 10
269.4
 20
71.0
 30
0.0
 40
0.5
 50
0.0
 51
90.0
  0
LINE
  8
0
  6
CONTINUOUS
 62
     1
 10
268.1
 20
71.5
 30
0.0
 11
268.1
 21
71.8
 31
0.0
  0
LINE
  8
0
  6
CONTINUOUS
 62
     1
 10
263.2
 20
79.5
 30
0.0
 11
262.5
 21
78.8
 31
0.0
  0
LINE
  8
0
  6
CONTINUOUS
 62
     1
 10
262.5
 20
78.8
 30
0.0
 11
258.3
 21
78.8
 31
0.0
  0
LINE
  8
0
  6
CONTINUOUS
 62
     1
 10
258.2
 20
73.0
 30
0.0
 11
258.2
 21
78.7
 31
0.0
  0
LINE
  8
0
  6
CONTINUOUS
 62
     1
 10
258.2
 20
73.0
 30
0.0
 11
257.5
 21
72.3
 31
0.0
  0
LINE
  8
0
  6
CONTINUOUS
 62
     1
 10
250.7
 20
70.3
 30
0.0
 11
249.0
 21
70.3
 31
0.0
  0
LINE
  8
0
  6
CONTINUOUS
 62
     1
 10
249.0
 20
70.3
 30
0.0
 11
249.0
 21
71.3
 31
0.0
  0
LINE
  8
0
  6
CONTINUOUS
 62
     1
 10
250.7
 20
70.3
 30
0.0
 11
250.7
 21
69.3
 31
0.0
  0
LINE
  8
0
  6
CONTINUOUS
 62
     1
 10
249.0
 20
69.3
 30
0.0
 11
249.0
 21
70.3
 31
0.0
  0
LINE
  8
0
  6
CONTINUOUS
 62
     1
 10
250.7
 20
71.3
 30
0.0
 11
250.7
 21
70.3
 31
0.0
  0
LINE
  8
0
  6
CONTINUOUS
 62
     1
 10
250.7
 20
72.0
 30
0.0
 11
249.0
 21
72.0
 31
0.0
  0
LINE
  8
0
  6
CONTINUOUS
 62
     1
 10
250.7
 20
72.0
 30
0.0
 11
250.7
 21
71.3
 31
0.0
  0
LINE
  8
0
  6
CONTINUOUS
 62
     1
 10
249.0
 20
72.3
 30
0.0
 11
249.0
 21
71.3
 31
0.0
  0
LINE
  8
0
  6
CONTINUOUS
 62
     1
 10
250.7
 20
72.3
 30
0.0
 11
250.7
 21
72.1
 31
0.0
  0
LINE
  8
0
  6
CONTINUOUS
 62
     1
 10
249.0
 20
71.3
 30
0.0
 11
262.5
 21
71.3
 31
0.0
  0
LINE
  8
0
  6
CONTINUOUS
 62
     1
 10
257.5
 20
72.3
 30
0.0
 11
249.0
 21
72.3
 31
0.0
  0
LINE
  8
0
  6
CONTINUOUS
 62
     1
 10
263.2
 20
108.9
 30
0.0
 11
263.8
 21
108.9
 31
0.0
  0
LINE
  8
0
  6
CONTINUOUS
 62
     1
 10
262.9
 20
112.0
 30
0.0
 11
262.2
 21
111.3
 31
0.0
  0
LINE
  8
0
  6
CONTINUOUS
 62
     1
 10
262.9
 20
112.0
 30
0.0
 11
269.4
 21
112.0
 31
0.0
  0
LINE
  8
0
  6
CONTINUOUS
 62
     1
 10
268.1
 20
111.0
 30
0.0
 11
269.3
 21
111.0
 31
0.0
  0
ARC
  8
0
  6
CONTINUOUS
 62
     1
 10
269.4
 20
111.5
 30
0.0
 40
0.5
 50
270.0
 51
0.0
  0
ARC
  8
0
  6
CONTINUOUS
 62
     1
 10
269.4
 20
111.5
 30
0.0
 40
0.5
 50
0.0
 51
90.0
  0
LINE
  8
0
  6
CONTINUOUS
 62
     1
 10
268.1
 20
111.0
 30
0.0
 11
268.1
 21
110.7
 31
0.0
  0
LINE
  8
0
  6
CONTINUOUS
 62
     1
 10
249.0
 20
111.3
 30
0.0
 11
262.5
 21
111.3
 31
0.0
  0
LINE
  8
0
  6
CONTINUOUS
 62
     1
 10
263.2
 20
110.5
 30
0.0
 11
263.2
 21
102.4
 31
0.0
  0
LINE
  8
0
  6
CONTINUOUS
 62
     1
 10
263.8
 20
71.8
 30
0.0
 11
263.8
 21
110.8
 31
0.0
  0
LINE
  8
0
  6
CONTINUOUS
 62
     1
 10
263.2
 20
93.4
 30
0.0
 11
261.2
 21
93.4
 31
0.0
  0
LINE
  8
0
  6
CONTINUOUS
 62
     1
 10
264.1
 20
91.3
 30
0.0
 11
264.1
 21
104.3
 31
0.0
  0
LINE
  8
0
  6
CONTINUOUS
 62
     1
 10
263.2
 20
82.4
 30
0.0
 11
263.2
 21
100.1
 31
0.0
  0
LINE
  8
0
  6
CONTINUOUS
 62
     1
 10
249.0
 20
100.1
 30
0.0
 11
249.0
 21
110.2
 31
0.0
  0
LINE
  8
0
  6
CONTINUOUS
 62
     1
 10
249.0
 20
95.8
 30
0.0
 11
251.0
 21
95.8
 31
0.0
  0
LINE
  8
0
  6
CONTINUOUS
 62
     1
 10
250.2
 20
100.1
 30
0.0
 11
250.2
 21
99.1
 31
0.0
  0
LINE
  8
0
  6
CONTINUOUS
 62
     1
 10
250.2
 20
99.1
 30
0.0
 11
250.0
 21
99.1
 31
0.0
  0
LINE
  8
0
  6
CONTINUOUS
 62
     1
 10
250.0
 20
99.1
 30
0.0
 11
249.0
 21
100.1
 31
0.0
  0
LINE
  8
0
  6
CONTINUOUS
 62
     1
 10
250.2
 20
83.4
 30
0.0
 11
250.0
 21
83.4
 31
0.0
  0
LINE
  8
0
  6
CONTINUOUS
 62
     1
 10
250.0
 20
83.4
 30
0.0
 11
249.0
 21
82.4
 31
0.0
  0
LINE
  8
0
  6
CONTINUOUS
 62
     1
 10
249.0
 20
82.4
 30
0.0
 11
251.0
 21
82.4
 31
0.0
  0
LINE
  8
0
  6
CONTINUOUS
 62
     1
 10
251.0
 20
110.3
 30
0.0
 11
251.0
 21
72.3
 31
0.0
  0
LINE
  8
0
  6
CONTINUOUS
 62
     1
 10
249.0
 20
72.3
 30
0.0
 11
249.0
 21
82.4
 31
0.0
  0
LINE
  8
0
  6
CONTINUOUS
 62
     1
 10
262.5
 20
103.8
 30
0.0
 11
258.3
 21
103.8
 31
0.0
  0
LINE
  8
0
  6
CONTINUOUS
 62
     1
 10
257.5
 20
110.3
 30
0.0
 11
249.0
 21
110.3
 31
0.0
  0
LINE
  8
0
  6
CONTINUOUS
 62
     1
 10
258.2
 20
109.5
 30
0.0
 11
258.2
 21
103.8
 31
0.0
  0
LINE
  8
0
  6
CONTINUOUS
 62
     1
 10
258.2
 20
109.5
 30
0.0
 11
257.5
 21
110.2
 31
0.0
  0
LINE
  8
0
  6
CONTINUOUS
 62
     1
 10
263.2
 20
110.5
 30
0.0
 11
262.5
 21
111.2
 31
0.0
  0
LINE
  8
0
  6
CONTINUOUS
 62
     1
 10
267.8
 20
104.8
 30
0.0
 11
267.8
 21
110.8
 31
0.0
  0
LINE
  8
0
  6
CONTINUOUS
 62
     1
 10
263.8
 20
104.3
 30
0.0
 11
267.3
 21
104.3
 31
0.0
  0
LINE
  8
0
  6
CONTINUOUS
 62
     1
 10
265.3
 20
98.5
 30
0.0
 11
266.5
 21
98.5
 31
0.0
  0
LINE
  8
0
  6
CONTINUOUS
 62
     1
 10
265.3
 20
101.5
 30
0.0
 11
266.5
 21
101.5
 31
0.0
  0
LINE
  8
0
  6
CONTINUOUS
 62
     1
 10
265.3
 20
98.5
 30
0.0
 11
265.3
 21
101.5
 31
0.0
  0
LINE
  8
0
  6
CONTINUOUS
 62
     1
 10
266.5
 20
101.5
 30
0.0
 11
266.5
 21
98.5
 31
0.0
  0
LINE
  8
0
  6
CONTINUOUS
 62
     1
 10
265.3
 20
81.0
 30
0.0
 11
266.5
 21
81.0
 31
0.0
  0
LINE
  8
0
  6
CONTINUOUS
 62
     1
 10
265.3
 20
84.0
 30
0.0
 11
266.5
 21
84.0
 31
0.0
  0
LINE
  8
0
  6
CONTINUOUS
 62
     1
 10
265.3
 20
81.0
 30
0.0
 11
265.3
 21
84.0
 31
0.0
  0
LINE
  8
0
  6
CONTINUOUS
 62
     1
 10
266.5
 20
84.0
 30
0.0
 11
266.5
 21
81.0
 31
0.0
  0
LINE
  8
0
  6
CONTINUOUS
 62
     1
 10
313.7
 20
72.3
 30
0.0
 11
263.8
 21
71.8
 31
0.0
  0
LINE
  8
0
  6
CONTINUOUS
 62
     1
 10
264.1
 20
91.3
 30
0.0
 11
264.1
 21
78.3
 31
0.0
  0
LINE
  8
0
  6
CONTINUOUS
 62
     1
 10
313.8
 20
110.2
 30
0.0
 11
313.8
 21
72.4
 31
0.0
  0
LINE
  8
0
  6
CONTINUOUS
 62
     1
 10
263.8
 20
110.8
 30
0.0
 11
313.7
 21
110.3
 31
0.0
  0
ARC
  8
0
  6
CONTINUOUS
 62
     1
 10
285.2
 20
247.8
 30
0.0
 40
0.2
 50
90.0
 51
180.0
  0
ARC
  8
0
  6
CONTINUOUS
 62
     1
 10
285.2
 20
170.2
 30
0.0
 40
0.2
 50
180.0
 51
270.0
  0
ARC
  8
0
  6
CONTINUOUS
 62
     1
 10
334.8
 20
170.2
 30
0.0
 40
0.2
 50
270.0
 51
0.0
  0
ARC
  8
0
  6
CONTINUOUS
 62
     1
 10
334.8
 20
247.8
 30
0.0
 40
0.2
 50
0.0
 51
90.0
  0
ARC
  8
0
  6
CONTINUOUS
 62
     1
 10
286.2
 20
171.2
 30
0.0
 40
0.2
 50
166.0
 51
270.0
  0
ARC
  8
0
  6
CONTINUOUS
 62
     1
 10
333.8
 20
171.2
 30
0.0
 40
0.2
 50
270.0
 51
0.0
  0
ARC
  8
0
  6
CONTINUOUS
 62
     1
 10
333.8
 20
171.2
 30
0.0
 40
0.2
 50
0.0
 51
14.0
  0
ARC
  8
0
  6
CONTINUOUS
 62
     1
 10
333.8
 20
246.8
 30
0.0
 40
0.2
 50
346.0
 51
0.0
  0
ARC
  8
0
  6
CONTINUOUS
 62
     1
 10
333.8
 20
246.8
 30
0.0
 40
0.2
 50
0.0
 51
90.0
  0
ARC
  8
0
  6
CONTINUOUS
 62
     1
 10
286.2
 20
246.8
 30
0.0
 40
0.2
 50
90.0
 51
194.0
  0
LINE
  8
0
  6
CONTINUOUS
 62
     1
 10
286.2
 20
247.0
 30
0.0
 11
333.8
 21
247.0
 31
0.0
  0
LINE
  8
0
  6
CONTINUOUS
 62
     1
 10
334.0
 20
246.8
 30
0.0
 11
334.0
 21
171.2
 31
0.0
  0
LINE
  8
0
  6
CONTINUOUS
 62
     1
 10
286.0
 20
171.2
 30
0.0
 11
286.0
 21
246.8
 31
0.0
  0
LINE
  8
0
  6
CONTINUOUS
 62
     1
 10
330.5
 20
174.5
 30
0.0
 11
289.5
 21
174.5
 31
0.0
  0
LINE
  8
0
  6
CONTINUOUS
 62
     1
 10
335.0
 20
170.2
 30
0.0
 11
335.0
 21
247.8
 31
0.0
  0
LINE
  8
0
  6
CONTINUOUS
 62
     1
 10
334.8
 20
248.0
 30
0.0
 11
285.2
 21
248.0
 31
0.0
  0
LINE
  8
0
  6
CONTINUOUS
 62
     1
 10
285.0
 20
247.8
 30
0.0
 11
285.0
 21
170.2
 31
0.0
  0
LINE
  8
0
  6
CONTINUOUS
 62
     1
 10
285.2
 20
170.0
 30
0.0
 11
334.8
 21
170.0
 31
0.0
  0
LINE
  8
0
  6
CONTINUOUS
 62
     1
 10
333.8
 20
171.0
 30
0.0
 11
286.2
 21
171.0
 31
0.0
  0
LINE
  8
0
  6
CONTINUOUS
 62
     1
 10
289.5
 20
243.5
 30
0.0
 11
330.5
 21
243.5
 31
0.0
  0
LINE
  8
0
  6
CONTINUOUS
 62
     1
 10
289.5
 20
174.5
 30
0.0
 11
289.5
 21
243.5
 31
0.0
  0
LINE
  8
0
  6
CONTINUOUS
 62
     1
 10
330.5
 20
243.5
 30
0.0
 11
330.5
 21
174.5
 31
0.0
  0
LINE
  8
0
  6
CONTINUOUS
 62
     1
 10
291.0
 20
242.0
 30
0.0
 11
329.0
 21
242.0
 31
0.0
  0
LINE
  8
0
  6
CONTINUOUS
 62
     1
 10
329.0
 20
242.0
 30
0.0
 11
329.0
 21
176.0
 31
0.0
  0
LINE
  8
0
  6
CONTINUOUS
 62
     1
 10
329.0
 20
176.0
 30
0.0
 11
291.0
 21
176.0
 31
0.0
  0
LINE
  8
0
  6
CONTINUOUS
 62
     1
 10
291.0
 20
176.0
 30
0.0
 11
291.0
 21
242.0
 31
0.0
  0
LINE
  8
0
  6
CONTINUOUS
 62
     1
 10
296.5
 20
232.5
 30
0.0
 11
302.5
 21
232.5
 31
0.0
  0
LINE
  8
0
  6
CONTINUOUS
 62
     1
 10
302.5
 20
214.5
 30
0.0
 11
296.5
 21
214.5
 31
0.0
  0
LINE
  8
0
  6
CONTINUOUS
 62
     1
 10
298.0
 20
225.5
 30
0.0
 11
301.0
 21
225.5
 31
0.0
  0
LINE
  8
0
  6
CONTINUOUS
 62
     1
 10
301.0
 20
225.5
 30
0.0
 11
301.0
 21
221.5
 31
0.0
  0
LINE
  8
0
  6
CONTINUOUS
 62
     1
 10
301.0
 20
221.5
 30
0.0
 11
298.0
 21
221.5
 31
0.0
  0
LINE
  8
0
  6
CONTINUOUS
 62
     1
 10
298.0
 20
221.5
 30
0.0
 11
298.0
 21
225.5
 31
0.0
  0
LINE
  8
0
  6
CONTINUOUS
 62
     1
 10
298.5
 20
219.0
 30
0.0
 11
300.5
 21
219.0
 31
0.0
  0
LINE
  8
0
  6
CONTINUOUS
 62
     1
 10
300.5
 20
219.0
 30
0.0
 11
300.5
 21
214.5
 31
0.0
  0
LINE
  8
0
  6
CONTINUOUS
 62
     1
 10
300.5
 20
214.5
 30
0.0
 11
298.5
 21
214.5
 31
0.0
  0
LINE
  8
0
  6
CONTINUOUS
 62
     1
 10
298.5
 20
214.5
 30
0.0
 11
298.5
 21
219.0
 31
0.0
  0
LINE
  8
0
  6
CONTINUOUS
 62
     1
 10
298.5
 20
232.5
 30
0.0
 11
300.5
 21
232.5
 31
0.0
  0
LINE
  8
0
  6
CONTINUOUS
 62
     1
 10
300.5
 20
232.5
 30
0.0
 11
300.5
 21
228.0
 31
0.0
  0
LINE
  8
0
  6
CONTINUOUS
 62
     1
 10
300.5
 20
228.0
 30
0.0
 11
298.5
 21
228.0
 31
0.0
  0
LINE
  8
0
  6
CONTINUOUS
 62
     1
 10
298.5
 20
228.0
 30
0.0
 11
298.5
 21
232.5
 31
0.0
  0
LINE
  8
0
  6
CONTINUOUS
 62
     1
 10
297.5
 20
226.0
 30
0.0
 11
301.5
 21
226.0
 31
0.0
  0
LINE
  8
0
  6
CONTINUOUS
 62
     1
 10
301.5
 20
226.0
 30
0.0
 11
301.5
 21
221.0
 31
0.0
  0
LINE
  8
0
  6
CONTINUOUS
 62
     1
 10
301.5
 20
221.0
 30
0.0
 11
297.5
 21
221.0
 31
0.0
  0
LINE
  8
0
  6
CONTINUOUS
 62
     1
 10
297.5
 20
221.0
 30
0.0
 11
297.5
 21
226.0
 31
0.0
  0
LINE
  8
0
  6
CONTINUOUS
 62
     1
 10
298.0
 20
221.5
 30
0.0
 11
297.5
 21
221.0
 31
0.0
  0
LINE
  8
0
  6
CONTINUOUS
 62
     1
 10
297.5
 20
226.0
 30
0.0
 11
298.0
 21
225.5
 31
0.0
  0
LINE
  8
0
  6
CONTINUOUS
 62
     1
 10
301.5
 20
226.0
 30
0.0
 11
301.0
 21
225.5
 31
0.0
  0
LINE
  8
0
  6
CONTINUOUS
 62
     1
 10
301.0
 20
221.5
 30
0.0
 11
301.5
 21
221.0
 31
0.0
  0
LINE
  8
0
  6
CONTINUOUS
 62
     1
 10
302.5
 20
232.5
 30
0.0
 11
308.5
 21
232.5
 31
0.0
  0
LINE
  8
0
  6
CONTINUOUS
 62
     1
 10
308.5
 20
214.5
 30
0.0
 11
302.5
 21
214.5
 31
0.0
  0
LINE
  8
0
  6
CONTINUOUS
 62
     1
 10
304.0
 20
225.5
 30
0.0
 11
307.0
 21
225.5
 31
0.0
  0
LINE
  8
0
  6
CONTINUOUS
 62
     1
 10
307.0
 20
225.5
 30
0.0
 11
307.0
 21
221.5
 31
0.0
  0
LINE
  8
0
  6
CONTINUOUS
 62
     1
 10
307.0
 20
221.5
 30
0.0
 11
304.0
 21
221.5
 31
0.0
  0
LINE
  8
0
  6
CONTINUOUS
 62
     1
 10
304.0
 20
221.5
 30
0.0
 11
304.0
 21
225.5
 31
0.0
  0
LINE
  8
0
  6
CONTINUOUS
 62
     1
 10
304.5
 20
219.0
 30
0.0
 11
306.5
 21
219.0
 31
0.0
  0
LINE
  8
0
  6
CONTINUOUS
 62
     1
 10
306.5
 20
219.0
 30
0.0
 11
306.5
 21
214.5
 31
0.0
  0
LINE
  8
0
  6
CONTINUOUS
 62
     1
 10
306.5
 20
214.5
 30
0.0
 11
304.5
 21
214.5
 31
0.0
  0
LINE
  8
0
  6
CONTINUOUS
 62
     1
 10
304.5
 20
214.5
 30
0.0
 11
304.5
 21
219.0
 31
0.0
  0
LINE
  8
0
  6
CONTINUOUS
 62
     1
 10
304.5
 20
232.5
 30
0.0
 11
306.5
 21
232.5
 31
0.0
  0
LINE
  8
0
  6
CONTINUOUS
 62
     1
 10
306.5
 20
232.5
 30
0.0
 11
306.5
 21
228.0
 31
0.0
  0
LINE
  8
0
  6
CONTINUOUS
 62
     1
 10
306.5
 20
228.0
 30
0.0
 11
304.5
 21
228.0
 31
0.0
  0
LINE
  8
0
  6
CONTINUOUS
 62
     1
 10
304.5
 20
228.0
 30
0.0
 11
304.5
 21
232.5
 31
0.0
  0
LINE
  8
0
  6
CONTINUOUS
 62
     1
 10
303.5
 20
226.0
 30
0.0
 11
307.5
 21
226.0
 31
0.0
  0
LINE
  8
0
  6
CONTINUOUS
 62
     1
 10
307.5
 20
226.0
 30
0.0
 11
307.5
 21
221.0
 31
0.0
  0
LINE
  8
0
  6
CONTINUOUS
 62
     1
 10
307.5
 20
221.0
 30
0.0
 11
303.5
 21
221.0
 31
0.0
  0
LINE
  8
0
  6
CONTINUOUS
 62
     1
 10
303.5
 20
221.0
 30
0.0
 11
303.5
 21
226.0
 31
0.0
  0
LINE
  8
0
  6
CONTINUOUS
 62
     1
 10
304.0
 20
221.5
 30
0.0
 11
303.5
 21
221.0
 31
0.0
  0
LINE
  8
0
  6
CONTINUOUS
 62
     1
 10
303.5
 20
226.0
 30
0.0
 11
304.0
 21
225.5
 31
0.0
  0
LINE
  8
0
  6
CONTINUOUS
 62
     1
 10
307.5
 20
226.0
 30
0.0
 11
307.0
 21
225.5
 31
0.0
  0
LINE
  8
0
  6
CONTINUOUS
 62
     1
 10
307.0
 20
221.5
 30
0.0
 11
307.5
 21
221.0
 31
0.0
  0
ARC
  8
0
  6
CONTINUOUS
 62
     1
 10
309.5
 20
232.0
 30
0.0
 40
0.5
 50
0.0
 51
90.0
  0
LINE
  8
0
  6
CONTINUOUS
 62
     1
 10
310.0
 20
215.0
 30
0.0
 11
310.0
 21
232.0
 31
0.0
  0
LINE
  8
0
  6
CONTINUOUS
 62
     1
 10
309.5
 20
232.5
 30
0.0
 11
308.5
 21
232.5
 31
0.0
  0
ARC
  8
0
  6
CONTINUOUS
 62
     1
 10
309.5
 20
215.0
 30
0.0
 40
0.5
 50
270.0
 51
0.0
  0
LINE
  8
0
  6
CONTINUOUS
 62
     1
 10
308.5
 20
214.5
 30
0.0
 11
309.5
 21
214.5
 31
0.0
  0
LINE
  8
0
  6
CONTINUOUS
 62
     1
 10
309.3
 20
220.0
 30
0.0
 11
309.0
 21
220.5
 31
0.0
  0
LINE
  8
0
  6
CONTINUOUS
 62
     1
 10
309.0
 20
220.5
 30
0.0
 11
309.0
 21
226.5
 31
0.0
  0
LINE
  8
0
  6
CONTINUOUS
 62
     1
 10
309.3
 20
220.0
 30
0.0
 11
309.3
 21
227.0
 31
0.0
  0
LINE
  8
0
  6
CONTINUOUS
 62
     1
 10
309.3
 20
227.0
 30
0.0
 11
309.0
 21
226.5
 31
0.0
  0
ARC
  8
0
  6
CONTINUOUS
 62
     1
 10
295.5
 20
232.0
 30
0.0
 40
0.5
 50
90.0
 51
180.0
  0
LINE
  8
0
  6
CONTINUOUS
 62
     1
 10
295.0
 20
215.0
 30
0.0
 11
295.0
 21
232.0
 31
0.0
  0
LINE
  8
0
  6
CONTINUOUS
 62
     1
 10
295.5
 20
232.5
 30
0.0
 11
296.5
 21
232.5
 31
0.0
  0
ARC
  8
0
  6
CONTINUOUS
 62
     1
 10
295.5
 20
215.0
 30
0.0
 40
0.5
 50
180.0
 51
270.0
  0
LINE
  8
0
  6
CONTINUOUS
 62
     1
 10
296.5
 20
214.5
 30
0.0
 11
295.5
 21
214.5
 31
0.0
  0
LINE
  8
0
  6
CONTINUOUS
 62
     1
 10
295.7
 20
220.0
 30
0.0
 11
296.0
 21
220.5
 31
0.0
  0
LINE
  8
0
  6
CONTINUOUS
 62
     1
 10
296.0
 20
220.5
 30
0.0
 11
296.0
 21
226.5
 31
0.0
  0
LINE
  8
0
  6
CONTINUOUS
 62
     1
 10
295.7
 20
220.0
 30
0.0
 11
295.7
 21
227.0
 31
0.0
  0
LINE
  8
0
  6
CONTINUOUS
 62
     1
 10
295.7
 20
227.0
 30
0.0
 11
296.0
 21
226.5
 31
0.0
  0
LINE
  8
0
  6
CONTINUOUS
 62
     1
 10
311.5
 20
232.5
 30
0.0
 11
317.5
 21
232.5
 31
0.0
  0
LINE
  8
0
  6
CONTINUOUS
 62
     1
 10
317.5
 20
214.5
 30
0.0
 11
311.5
 21
214.5
 31
0.0
  0
LINE
  8
0
  6
CONTINUOUS
 62
     1
 10
315.5
 20
214.5
 30
0.0
 11
313.5
 21
214.5
 31
0.0
  0
LINE
  8
0
  6
CONTINUOUS
 62
     1
 10
313.5
 20
232.5
 30
0.0
 11
315.5
 21
232.5
 31
0.0
  0
LINE
  8
0
  6
CONTINUOUS
 62
     1
 10
317.5
 20
232.5
 30
0.0
 11
323.5
 21
232.5
 31
0.0
  0
LINE
  8
0
  6
CONTINUOUS
 62
     1
 10
323.5
 20
214.5
 30
0.0
 11
317.5
 21
214.5
 31
0.0
  0
LINE
  8
0
  6
CONTINUOUS
 62
     1
 10
321.5
 20
214.5
 30
0.0
 11
319.5
 21
214.5
 31
0.0
  0
LINE
  8
0
  6
CONTINUOUS
 62
     1
 10
319.5
 20
232.5
 30
0.0
 11
321.5
 21
232.5
 31
0.0
  0
ARC
  8
0
  6
CONTINUOUS
 62
     1
 10
324.5
 20
232.0
 30
0.0
 40
0.5
 50
0.0
 51
90.0
  0
LINE
  8
0
  6
CONTINUOUS
 62
     1
 10
325.0
 20
215.0
 30
0.0
 11
325.0
 21
232.0
 31
0.0
  0
LINE
  8
0
  6
CONTINUOUS
 62
     1
 10
324.5
 20
232.5
 30
0.0
 11
323.5
 21
232.5
 31
0.0
  0
ARC
  8
0
  6
CONTINUOUS
 62
     1
 10
324.5
 20
215.0
 30
0.0
 40
0.5
 50
270.0
 51
0.0
  0
LINE
  8
0
  6
CONTINUOUS
 62
     1
 10
323.5
 20
214.5
 30
0.0
 11
324.5
 21
214.5
 31
0.0
  0
LINE
  8
0
  6
CONTINUOUS
 62
     1
 10
324.3
 20
220.0
 30
0.0
 11
324.0
 21
220.5
 31
0.0
  0
LINE
  8
0
  6
CONTINUOUS
 62
     1
 10
324.0
 20
220.5
 30
0.0
 11
324.0
 21
226.5
 31
0.0
  0
LINE
  8
0
  6
CONTINUOUS
 62
     1
 10
324.3
 20
220.0
 30
0.0
 11
324.3
 21
227.0
 31
0.0
  0
LINE
  8
0
  6
CONTINUOUS
 62
     1
 10
324.3
 20
227.0
 30
0.0
 11
324.0
 21
226.5
 31
0.0
  0
ARC
  8
0
  6
CONTINUOUS
 62
     1
 10
310.5
 20
232.0
 30
0.0
 40
0.5
 50
90.0
 51
180.0
  0
LINE
  8
0
  6
CONTINUOUS
 62
     1
 10
310.5
 20
232.5
 30
0.0
 11
311.5
 21
232.5
 31
0.0
  0
ARC
  8
0
  6
CONTINUOUS
 62
     1
 10
310.5
 20
215.0
 30
0.0
 40
0.5
 50
180.0
 51
270.0
  0
LINE
  8
0
  6
CONTINUOUS
 62
     1
 10
311.5
 20
214.5
 30
0.0
 11
310.5
 21
214.5
 31
0.0
  0
LINE
  8
0
  6
CONTINUOUS
 62
     1
 10
310.7
 20
220.0
 30
0.0
 11
311.0
 21
220.5
 31
0.0
  0
LINE
  8
0
  6
CONTINUOUS
 62
     1
 10
311.0
 20
220.5
 30
0.0
 11
311.0
 21
226.5
 31
0.0
  0
LINE
  8
0
  6
CONTINUOUS
 62
     1
 10
310.7
 20
220.0
 30
0.0
 11
310.7
 21
227.0
 31
0.0
  0
LINE
  8
0
  6
CONTINUOUS
 62
     1
 10
310.7
 20
227.0
 30
0.0
 11
311.0
 21
226.5
 31
0.0
  0
LINE
  8
0
  6
CONTINUOUS
 62
     1
 10
294.0
 20
238.0
 30
0.0
 11
326.0
 21
238.0
 31
0.0
  0
LINE
  8
0
  6
CONTINUOUS
 62
     1
 10
326.0
 20
238.0
 30
0.0
 11
326.0
 21
233.0
 31
0.0
  0
LINE
  8
0
  6
CONTINUOUS
 62
     1
 10
326.0
 20
233.0
 30
0.0
 11
294.0
 21
233.0
 31
0.0
  0
LINE
  8
0
  6
CONTINUOUS
 62
     1
 10
294.0
 20
233.0
 30
0.0
 11
294.0
 21
238.0
 31
0.0
  0
CIRCLE
  8
0
  6
CONTINUOUS
 62
     1
 10
296.5
 20
184.0
 30
0.0
 40
3.5
  0
LINE
  8
0
  6
CONTINUOUS
 62
     1
 10
294.5
 20
207.5
 30
0.0
 11
326.0
 21
207.5
 31
0.0
  0
LINE
  8
0
  6
CONTINUOUS
 62
     1
 10
326.0
 20
207.5
 30
0.0
 11
326.0
 21
204.0
 31
0.0
  0
LINE
  8
0
  6
CONTINUOUS
 62
     1
 10
326.0
 20
204.0
 30
0.0
 11
294.5
 21
204.0
 31
0.0
  0
LINE
  8
0
  6
CONTINUOUS
 62
     1
 10
294.5
 20
204.0
 30
0.0
 11
294.5
 21
207.5
 31
0.0
  0
LINE
  8
0
  6
CONTINUOUS
 62
     1
 10
294.5
 20
203.5
 30
0.0
 11
326.0
 21
203.5
 31
0.0
  0
LINE
  8
0
  6
CONTINUOUS
 62
     1
 10
326.0
 20
203.5
 30
0.0
 11
326.0
 21
200.0
 31
0.0
  0
LINE
  8
0
  6
CONTINUOUS
 62
     1
 10
326.0
 20
200.0
 30
0.0
 11
294.5
 21
200.0
 31
0.0
  0
LINE
  8
0
  6
CONTINUOUS
 62
     1
 10
294.5
 20
200.0
 30
0.0
 11
294.5
 21
203.5
 31
0.0
  0
LINE
  8
0
  6
LTYPE0
 62
     2
 10
60.0
 20
71.0
 30
0.0
 11
60.0
 21
131.0
 31
0.0
  0
LINE
  8
0
  6
LTYPE0
 62
     2
 10
80.0
 20
126.0
 30
0.0
 11
80.0
 21
26.0
 31
0.0
  0
LINE
  8
0
  6
LTYPE0
 62
     2
 10
113.0
 20
78.0
 30
0.0
 11
48.0
 21
78.0
 31
0.0
  0
LINE
  8
0
  6
LTYPE0
 62
     2
 10
145.0
 20
78.0
 30
0.0
 11
195.0
 21
78.0
 31
0.0
  0
TEXT
  8
0
  6
CONTINUOUS
 62
     2
 10
78.0
 20
137.0
 30
0.0
 40
3.0
  1
５
 50
0.0
 41
0.666
 51
0.0
  7
KANJI0
  0
TEXT
  8
0
  6
CONTINUOUS
 62
     2
 10
80.0
 20
137.0
 30
0.0
 40
3.0
  1
０
 50
0.0
 41
0.666
 51
0.0
  7
KANJI0
  0
LINE
  8
0
  6
CONTINUOUS
 62
     2
 10
105.0
 20
118.0
 30
0.0
 11
105.0
 21
138.0
 31
0.0
  0
LINE
  8
0
  6
CONTINUOUS
 62
     2
 10
55.0
 20
117.0
 30
0.0
 11
55.0
 21
138.0
 31
0.0
  0
LINE
  8
0
  6
CONTINUOUS
 62
     2
 10
55.0
 20
136.0
 30
0.0
 11
105.0
 21
136.0
 31
0.0
  0
LINE
  8
0
  6
CONTINUOUS
 62
     2
 10
56.9319
 20
136.5176
 30
0.0
 11
55.0
 21
136.0
 31
0.0
  0
LINE
  8
0
  6
CONTINUOUS
 62
     2
 10
55.0
 20
136.0
 30
0.0
 11
56.9319
 21
135.4824
 31
0.0
  0
LINE
  8
0
  6
CONTINUOUS
 62
     2
 10
103.0681
 20
135.4824
 30
0.0
 11
105.0
 21
136.0
 31
0.0
  0
LINE
  8
0
  6
CONTINUOUS
 62
     2
 10
105.0
 20
136.0
 30
0.0
 11
103.0681
 21
136.5176
 31
0.0
  0
LINE
  8
0
  6
CONTINUOUS
 62
     2
 10
101.0
 20
107.0
 30
0.0
 11
117.0
 21
124.0
 31
0.0
  0
LINE
  8
0
  6
CONTINUOUS
 62
     2
 10
101.9482
 20
108.761
 30
0.0
 11
101.0
 21
107.0
 31
0.0
  0
LINE
  8
0
  6
CONTINUOUS
 62
     2
 10
101.0
 20
107.0
 30
0.0
 11
102.7016
 21
108.0509
 31
0.0
  0
TEXT
  8
0
  6
CONTINUOUS
 62
     2
 10
125.0
 20
97.0
 30
0.0
 40
3.0
  1
４
 50
0.0
 41
0.666
 51
0.0
  7
KANJI0
  0
TEXT
  8
0
  6
CONTINUOUS
 62
     2
 10
127.0
 20
97.0
 30
0.0
 40
3.0
  1
．
 50
0.0
 41
0.666
 51
0.0
  7
KANJI0
  0
TEXT
  8
0
  6
CONTINUOUS
 62
     2
 10
129.0
 20
97.0
 30
0.0
 40
3.0
  1
５
 50
0.0
 41
0.666
 51
0.0
  7
KANJI0
  0
TEXT
  8
0
  6
CONTINUOUS
 62
     2
 10
132.0
 20
97.0
 30
0.0
 40
3.0
  1
穴
 50
0.0
 41
1.0
 51
0.0
  7
KANJI2
  0
TEXT
  8
0
  6
CONTINUOUS
 62
     2
 10
119.0
 20
97.0
 30
0.0
 40
3.0
  1
２
 50
0.0
 41
0.666
 51
0.0
  7
KANJI0
  0
TEXT
  8
0
  6
CONTINUOUS
 62
     2
 10
121.0
 20
97.0
 30
0.0
 40
3.0
  1
－
 50
0.0
 41
0.666
 51
0.0
  7
KANJI0
  0
TEXT
  8
0
  6
CONTINUOUS
 62
     2
 10
123.0
 20
97.0
 30
0.0
 40
3.0
  1
φ
 50
0.0
 41
0.666
 51
0.0
  7
KANJI0
  0
LINE
  8
0
  6
CONTINUOUS
 62
     2
 10
117.0
 20
96.0
 30
0.0
 11
138.0
 21
96.0
 31
0.0
  0
LINE
  8
0
  6
CONTINUOUS
 62
     2
 10
102.0
 20
80.0
 30
0.0
 11
117.0
 21
96.0
 31
0.0
  0
LINE
  8
0
  6
CONTINUOUS
 62
     2
 10
102.9451
 20
81.7626
 30
0.0
 11
102.0
 21
80.0
 31
0.0
  0
LINE
  8
0
  6
CONTINUOUS
 62
     2
 10
102.0
 20
80.0
 30
0.0
 11
103.6998
 21
81.0539
 31
0.0
  0
LINE
  8
0
  6
CONTINUOUS
 62
     2
 10
60.0
 20
129.0
 30
0.0
 11
100.0
 21
129.0
 31
0.0
  0
LINE
  8
0
  6
CONTINUOUS
 62
     2
 10
61.9319
 20
129.5176
 30
0.0
 11
60.0
 21
129.0
 31
0.0
  0
LINE
  8
0
  6
CONTINUOUS
 62
     2
 10
60.0
 20
129.0
 30
0.0
 11
61.9319
 21
128.4824
 31
0.0
  0
LINE
  8
0
  6
CONTINUOUS
 62
     2
 10
98.0681
 20
128.4824
 30
0.0
 11
100.0
 21
129.0
 31
0.0
  0
LINE
  8
0
  6
CONTINUOUS
 62
     2
 10
100.0
 20
129.0
 30
0.0
 11
98.0681
 21
129.5176
 31
0.0
  0
TEXT
  8
0
  6
CONTINUOUS
 62
     2
 10
78.0
 20
130.0
 30
0.0
 40
3.0
  1
４
 50
0.0
 41
0.666
 51
0.0
  7
KANJI0
  0
TEXT
  8
0
  6
CONTINUOUS
 62
     2
 10
80.0
 20
130.0
 30
0.0
 40
3.0
  1
０
 50
0.0
 41
0.666
 51
0.0
  7
KANJI0
  0
TEXT
  8
0
  6
CONTINUOUS
 62
     2
 10
82.0
 20
131.5
 30
0.0
 40
1.5
  1
＋
 50
0.0
 41
1.0
 51
0.0
  7
KANJI3
  0
TEXT
  8
0
  6
CONTINUOUS
 62
     2
 10
83.5
 20
131.0
 30
0.0
 40
2.0
  1
０
 50
0.0
 41
0.75
 51
0.0
  7
KANJI1
  0
TEXT
  8
0
  6
CONTINUOUS
 62
     2
 10
85.0
 20
131.0
 30
0.0
 40
2.0
  1
．
 50
0.0
 41
0.75
 51
0.0
  7
KANJI1
  0
TEXT
  8
0
  6
CONTINUOUS
 62
     2
 10
86.5
 20
131.0
 30
0.0
 40
2.0
  1
２
 50
0.0
 41
0.75
 51
0.0
  7
KANJI1
  0
TEXT
  8
0
  6
CONTINUOUS
 62
     2
 10
82.0
 20
130.5
 30
0.0
 40
1.5
  1
－
 50
0.0
 41
1.0
 51
0.0
  7
KANJI3
  0
LINE
  8
0
  6
CONTINUOUS
 62
     1
 10
165.0
 20
82.3
 30
0.0
 11
169.0
 21
82.3
 31
0.0
  0
LINE
  8
0
  6
CONTINUOUS
 62
     1
 10
169.0
 20
73.7
 30
0.0
 11
169.0
 21
82.3
 31
0.0
  0
LINE
  8
0
  6
CONTINUOUS
 62
     1
 10
165.0
 20
73.7
 30
0.0
 11
169.0
 21
73.7
 31
0.0
  0
LINE
  8
0
  6
CONTINUOUS
 62
     1
 10
163.2
 20
98.3
 30
0.0
 11
163.8
 21
98.0
 31
0.0
  0
ARC
  8
0
  6
CONTINUOUS
 62
     1
 10
161.0
 20
96.0
 30
0.0
 40
1.0
 50
150.0
 51
330.0
  0
LINE
  8
0
  6
CONTINUOUS
 62
     1
 10
161.9
 20
95.5
 30
0.0
 11
163.2
 21
98.3
 31
0.0
  0
LINE
  8
0
  6
CONTINUOUS
 62
     1
 10
165.0
 20
107.0
 30
0.0
 11
160.0
 21
96.5
 31
0.0
  0
LINE
  8
0
  6
CONTINUOUS
 62
     1
 10
163.2
 20
57.7
 30
0.0
 11
163.8
 21
58.0
 31
0.0
  0
LINE
  8
0
  6
CONTINUOUS
 62
     1
 10
160.134
 20
59.5
 30
0.0
 11
160.0937
 21
59.5774
 31
0.0
  0
LINE
  8
0
  6
CONTINUOUS
 62
     1
 10
160.0937
 20
59.5774
 30
0.0
 11
160.0603
 21
59.658
 31
0.0
  0
LINE
  8
0
  6
CONTINUOUS
 62
     1
 10
160.0603
 20
59.658
 30
0.0
 11
160.0341
 21
59.7412
 31
0.0
  0
LINE
  8
0
  6
CONTINUOUS
 62
     1
 10
160.0341
 20
59.7412
 30
0.0
 11
160.0152
 21
59.8264
 31
0.0
  0
LINE
  8
0
  6
CONTINUOUS
 62
     1
 10
160.0152
 20
59.8264
 30
0.0
 11
160.0038
 21
59.9128
 31
0.0
  0
LINE
  8
0
  6
CONTINUOUS
 62
     1
 10
160.0038
 20
59.9128
 30
0.0
 11
160.0
 21
60.0
 31
0.0
  0
LINE
  8
0
  6
CONTINUOUS
 62
     1
 10
160.0
 20
60.0
 30
0.0
 11
160.0038
 21
60.0872
 31
0.0
  0
LINE
  8
0
  6
CONTINUOUS
 62
     1
 10
160.0038
 20
60.0872
 30
0.0
 11
160.0152
 21
60.1736
 31
0.0
  0
LINE
  8
0
  6
CONTINUOUS
 62
     1
 10
160.0152
 20
60.1736
 30
0.0
 11
160.0341
 21
60.2588
 31
0.0
  0
LINE
  8
0
  6
CONTINUOUS
 62
     1
 10
160.0341
 20
60.2588
 30
0.0
 11
160.0603
 21
60.342
 31
0.0
  0
LINE
  8
0
  6
CONTINUOUS
 62
     1
 10
160.0603
 20
60.342
 30
0.0
 11
160.0937
 21
60.4226
 31
0.0
  0
LINE
  8
0
  6
CONTINUOUS
 62
     1
 10
160.0937
 20
60.4226
 30
0.0
 11
160.134
 21
60.5
 31
0.0
  0
LINE
  8
0
  6
CONTINUOUS
 62
     1
 10
160.134
 20
60.5
 30
0.0
 11
160.1808
 21
60.5736
 31
0.0
  0
LINE
  8
0
  6
CONTINUOUS
 62
     1
 10
160.1808
 20
60.5736
 30
0.0
 11
160.234
 21
60.6428
 31
0.0
  0
LINE
  8
0
  6
CONTINUOUS
 62
     1
 10
160.234
 20
60.6428
 30
0.0
 11
160.2929
 21
60.7071
 31
0.0
  0
LINE
  8
0
  6
CONTINUOUS
 62
     1
 10
160.2929
 20
60.7071
 30
0.0
 11
160.3572
 21
60.766
 31
0.0
  0
LINE
  8
0
  6
CONTINUOUS
 62
     1
 10
160.3572
 20
60.766
 30
0.0
 11
160.4264
 21
60.8192
 31
0.0
  0
LINE
  8
0
  6
CONTINUOUS
 62
     1
 10
160.4264
 20
60.8192
 30
0.0
 11
160.5
 21
60.866
 31
0.0
  0
LINE
  8
0
  6
CONTINUOUS
 62
     1
 10
160.5
 20
60.866
 30
0.0
 11
160.5774
 21
60.9063
 31
0.0
  0
LINE
  8
0
  6
CONTINUOUS
 62
     1
 10
160.5774
 20
60.9063
 30
0.0
 11
160.658
 21
60.9397
 31
0.0
  0
LINE
  8
0
  6
CONTINUOUS
 62
     1
 10
160.658
 20
60.9397
 30
0.0
 11
160.7412
 21
60.9659
 31
0.0
  0
LINE
  8
0
  6
CONTINUOUS
 62
     1
 10
160.7412
 20
60.9659
 30
0.0
 11
160.8264
 21
60.9848
 31
0.0
  0
LINE
  8
0
  6
CONTINUOUS
 62
     1
 10
160.8264
 20
60.9848
 30
0.0
 11
160.9128
 21
60.9962
 31
0.0
  0
LINE
  8
0
  6
CONTINUOUS
 62
     1
 10
160.9128
 20
60.9962
 30
0.0
 11
161.0
 21
61.0
 31
0.0
  0
LINE
  8
0
  6
CONTINUOUS
 62
     1
 10
161.0
 20
61.0
 30
0.0
 11
161.0872
 21
60.9962
 31
0.0
  0
LINE
  8
0
  6
CONTINUOUS
 62
     1
 10
161.0872
 20
60.9962
 30
0.0
 11
161.1736
 21
60.9848
 31
0.0
  0
LINE
  8
0
  6
CONTINUOUS
 62
     1
 10
161.1736
 20
60.9848
 30
0.0
 11
161.2588
 21
60.9659
 31
0.0
  0
LINE
  8
0
  6
CONTINUOUS
 62
     1
 10
161.2588
 20
60.9659
 30
0.0
 11
161.342
 21
60.9397
 31
0.0
  0
LINE
  8
0
  6
CONTINUOUS
 62
     1
 10
161.342
 20
60.9397
 30
0.0
 11
161.4226
 21
60.9063
 31
0.0
  0
LINE
  8
0
  6
CONTINUOUS
 62
     1
 10
161.4226
 20
60.9063
 30
0.0
 11
161.5
 21
60.866
 31
0.0
  0
LINE
  8
0
  6
CONTINUOUS
 62
     1
 10
161.5
 20
60.866
 30
0.0
 11
161.5736
 21
60.8192
 31
0.0
  0
LINE
  8
0
  6
CONTINUOUS
 62
     1
 10
161.5736
 20
60.8192
 30
0.0
 11
161.6428
 21
60.766
 31
0.0
  0
LINE
  8
0
  6
CONTINUOUS
 62
     1
 10
161.6428
 20
60.766
 30
0.0
 11
161.7071
 21
60.7071
 31
0.0
  0
LINE
  8
0
  6
CONTINUOUS
 62
     1
 10
161.7071
 20
60.7071
 30
0.0
 11
161.766
 21
60.6428
 31
0.0
  0
LINE
  8
0
  6
CONTINUOUS
 62
     1
 10
161.766
 20
60.6428
 30
0.0
 11
161.8192
 21
60.5736
 31
0.0
  0
LINE
  8
0
  6
CONTINUOUS
 62
     1
 10
161.8192
 20
60.5736
 30
0.0
 11
161.866
 21
60.5
 31
0.0
  0
LINE
  8
0
  6
CONTINUOUS
 62
     1
 10
161.9
 20
60.5
 30
0.0
 11
163.2
 21
57.7
 31
0.0
  0
LINE
  8
0
  6
CONTINUOUS
 62
     1
 10
165.0
 20
49.0
 30
0.0
 11
160.0
 21
59.5
 31
0.0
  0
LINE
  8
0
  6
CONTINUOUS
 62
     1
 10
165.0
 20
116.5
 30
0.0
 11
166.5
 21
118.0
 31
0.0
  0
LINE
  8
0
  6
CONTINUOUS
 62
     1
 10
193.5
 20
118.0
 30
0.0
 11
166.5
 21
118.0
 31
0.0
  0
LINE
  8
0
  6
CONTINUOUS
 62
     1
 10
193.5
 20
116.0
 30
0.0
 11
193.5
 21
118.0
 31
0.0
  0
LINE
  8
0
  6
CONTINUOUS
 62
     1
 10
193.5
 20
95.7
 30
0.0
 11
193.5
 21
116.0
 31
0.0
  0
LINE
  8
0
  6
CONTINUOUS
 62
     1
 10
191.0
 20
95.7
 30
0.0
 11
191.0
 21
93.7
 31
0.0
  0
LINE
  8
0
  6
CONTINUOUS
 62
     1
 10
191.0
 20
93.7
 30
0.0
 11
191.5
 21
93.7
 31
0.0
  0
LINE
  8
0
  6
CONTINUOUS
 62
     1
 10
191.5
 20
93.7
 30
0.0
 11
193.5
 21
95.7
 31
0.0
  0
LINE
  8
0
  6
CONTINUOUS
 62
     1
 10
193.5
 20
87.0
 30
0.0
 11
189.5
 21
87.0
 31
0.0
  0
LINE
  8
0
  6
CONTINUOUS
 62
     1
 10
189.5
 20
83.0
 30
0.0
 11
193.5
 21
83.0
 31
0.0
  0
LINE
  8
0
  6
CONTINUOUS
 62
     1
 10
193.5
 20
95.7
 30
0.0
 11
189.5
 21
95.7
 31
0.0
  0
LINE
  8
0
  6
CONTINUOUS
 62
     1
 10
193.5
 20
83.0
 30
0.0
 11
193.5
 21
87.0
 31
0.0
  0
LINE
  8
0
  6
CONTINUOUS
 62
     1
 10
191.0
 20
62.3
 30
0.0
 11
191.5
 21
62.3
 31
0.0
  0
LINE
  8
0
  6
CONTINUOUS
 62
     1
 10
191.5
 20
62.3
 30
0.0
 11
193.5
 21
60.3
 31
0.0
  0
LINE
  8
0
  6
CONTINUOUS
 62
     1
 10
193.5
 20
60.3
 30
0.0
 11
189.5
 21
60.3
 31
0.0
  0
LINE
  8
0
  6
CONTINUOUS
 62
     1
 10
193.5
 20
40.0
 30
0.0
 11
193.5
 21
60.3
 31
0.0
  0
LINE
  8
0
  6
CONTINUOUS
 62
     1
 10
189.5
 20
116.0
 30
0.0
 11
189.5
 21
40.0
 31
0.0
  0
LINE
  8
0
  6
CONTINUOUS
 62
     1
 10
191.0
 20
60.3
 30
0.0
 11
191.0
 21
62.3
 31
0.0
  0
LINE
  8
0
  6
CONTINUOUS
 62
     1
 10
190.0
 20
36.0
 30
0.0
 11
193.5
 21
36.0
 31
0.0
  0
LINE
  8
0
  6
CONTINUOUS
 62
     1
 10
193.5
 20
36.0
 30
0.0
 11
193.5
 21
38.0
 31
0.0
  0
LINE
  8
0
  6
CONTINUOUS
 62
     1
 10
190.0
 20
36.0
 30
0.0
 11
190.0
 21
34.0
 31
0.0
  0
LINE
  8
0
  6
CONTINUOUS
 62
     1
 10
190.0
 20
34.0
 30
0.0
 11
193.5
 21
34.0
 31
0.0
  0
LINE
  8
0
  6
CONTINUOUS
 62
     1
 10
193.5
 20
34.0
 30
0.0
 11
193.5
 21
36.0
 31
0.0
  0
LINE
  8
0
  6
CONTINUOUS
 62
     1
 10
190.0
 20
38.0
 30
0.0
 11
190.0
 21
36.0
 31
0.0
  0
LINE
  8
0
  6
CONTINUOUS
 62
     1
 10
190.0
 20
39.5
 30
0.0
 11
193.5
 21
39.5
 31
0.0
  0
LINE
  8
0
  6
CONTINUOUS
 62
     1
 10
189.5
 20
73.0
 30
0.0
 11
193.5
 21
73.0
 31
0.0
  0
LINE
  8
0
  6
CONTINUOUS
 62
     1
 10
193.5
 20
69.0
 30
0.0
 11
189.5
 21
69.0
 31
0.0
  0
LINE
  8
0
  6
CONTINUOUS
 62
     1
 10
193.5
 20
73.0
 30
0.0
 11
193.5
 21
69.0
 31
0.0
  0
LINE
  8
0
  6
CONTINUOUS
 62
     1
 10
165.0
 20
101.5
 30
0.0
 11
166.5
 21
103.0
 31
0.0
  0
LINE
  8
0
  6
CONTINUOUS
 62
     1
 10
166.5
 20
103.0
 30
0.0
 11
175.0
 21
103.0
 31
0.0
  0
LINE
  8
0
  6
CONTINUOUS
 62
     1
 10
175.0
 20
114.5
 30
0.0
 11
175.0
 21
103.0
 31
0.0
  0
LINE
  8
0
  6
CONTINUOUS
 62
     1
 10
175.0
 20
114.5
 30
0.0
 11
176.5
 21
116.0
 31
0.0
  0
LINE
  8
0
  6
CONTINUOUS
 62
     1
 10
176.5
 20
116.0
 30
0.0
 11
193.5
 21
116.0
 31
0.0
  0
LINE
  8
0
  6
CONTINUOUS
 62
     1
 10
165.0
 20
39.5
 30
0.0
 11
166.5
 21
38.0
 31
0.0
  0
LINE
  8
0
  6
CONTINUOUS
 62
     1
 10
190.0
 20
39.5
 30
0.0
 11
190.0
 21
38.0
 31
0.0
  0
LINE
  8
0
  6
CONTINUOUS
 62
     1
 10
193.5
 20
40.0
 30
0.0
 11
193.5
 21
38.0
 31
0.0
  0
LINE
  8
0
  6
CONTINUOUS
 62
     1
 10
165.0
 20
54.5
 30
0.0
 11
166.5
 21
53.0
 31
0.0
  0
LINE
  8
0
  6
CONTINUOUS
 62
     1
 10
166.5
 20
53.0
 30
0.0
 11
175.0
 21
53.0
 31
0.0
  0
LINE
  8
0
  6
CONTINUOUS
 62
     1
 10
175.0
 20
41.5
 30
0.0
 11
175.0
 21
53.0
 31
0.0
  0
LINE
  8
0
  6
CONTINUOUS
 62
     1
 10
175.0
 20
41.5
 30
0.0
 11
176.5
 21
40.0
 31
0.0
  0
LINE
  8
0
  6
CONTINUOUS
 62
     1
 10
176.5
 20
40.0
 30
0.0
 11
193.5
 21
40.0
 31
0.0
  0
LINE
  8
0
  6
CONTINUOUS
 62
     1
 10
190.0
 20
40.0
 30
0.0
 11
190.0
 21
39.5
 31
0.0
  0
LINE
  8
0
  6
CONTINUOUS
 62
     1
 10
193.5
 20
38.0
 30
0.0
 11
166.4
 21
38.0
 31
0.0
  0
LINE
  8
0
  6
CONTINUOUS
 62
     1
 10
160.0
 20
92.5
 30
0.0
 11
165.0
 21
92.5
 31
0.0
  0
LINE
  8
0
  6
CONTINUOUS
 62
     1
 10
165.0
 20
92.5
 30
0.0
 11
165.0
 21
63.5
 31
0.0
  0
LINE
  8
0
  6
CONTINUOUS
 62
     1
 10
165.0
 20
63.5
 30
0.0
 11
160.0
 21
63.5
 31
0.0
  0
LINE
  8
0
  6
CONTINUOUS
 62
     1
 10
160.0
 20
63.5
 30
0.0
 11
160.0
 21
92.5
 31
0.0
  0
LINE
  8
0
  6
CONTINUOUS
 62
     1
 10
163.8
 20
60.3
 30
0.0
 11
165.0
 21
60.3
 31
0.0
  0
LINE
  8
0
  6
CONTINUOUS
 62
     1
 10
165.0
 20
55.8
 30
0.0
 11
163.8
 21
55.8
 31
0.0
  0
LINE
  8
0
  6
CONTINUOUS
 62
     1
 10
163.8
 20
55.8
 30
0.0
 11
163.8
 21
60.3
 31
0.0
  0
LINE
  8
0
  6
CONTINUOUS
 62
     1
 10
165.0
 20
55.8
 30
0.0
 11
165.0
 21
39.5
 31
0.0
  0
LINE
  8
0
  6
CONTINUOUS
 62
     1
 10
165.0
 20
60.3
 30
0.0
 11
165.0
 21
95.7
 31
0.0
  0
LINE
  8
0
  6
CONTINUOUS
 62
     1
 10
163.8
 20
100.2
 30
0.0
 11
165.0
 21
100.2
 31
0.0
  0
LINE
  8
0
  6
CONTINUOUS
 62
     1
 10
165.0
 20
95.7
 30
0.0
 11
163.8
 21
95.7
 31
0.0
  0
LINE
  8
0
  6
CONTINUOUS
 62
     1
 10
163.8
 20
95.7
 30
0.0
 11
163.8
 21
100.2
 31
0.0
  0
LINE
  8
0
  6
CONTINUOUS
 62
     1
 10
165.0
 20
116.5
 30
0.0
 11
165.0
 21
100.2
 31
0.0
  0
LINE
  8
0
  6
CONTINUOUS
 62
     2
 10
169.0
 20
129.0
 30
0.0
 11
160.0
 21
129.0
 31
0.0
  0
CIRCLE
  8
0
  6
CONTINUOUS
 62
     2
 10
165.0
 20
129.0
 30
0.0
 40
0.5
  0
CIRCLE
  8
0
  6
CONTINUOUS
 62
     2
 10
165.0
 20
129.0
 30
0.0
 40
0.4
  0
CIRCLE
  8
0
  6
CONTINUOUS
 62
     2
 10
165.0
 20
129.0
 30
0.0
 40
0.2
  0
TEXT
  8
0
  6
CONTINUOUS
 62
     2
 10
166.0
 20
130.0
 30
0.0
 40
3.0
  1
４
 50
0.0
 41
0.666
 51
0.0
  7
KANJI0
  0
TEXT
  8
0
  6
CONTINUOUS
 62
     2
 10
161.9
 20
130.0
 30
0.0
 40
3.0
  1
５
 50
0.0
 41
0.666
 51
0.0
  7
KANJI0
  0
LINE
  8
0
  6
CONTINUOUS
 62
     2
 10
160.0
 20
129.0
 30
0.0
 11
156.0
 21
129.0
 31
0.0
  0
LINE
  8
0
  6
CONTINUOUS
 62
     2
 10
158.0681
 20
128.4824
 30
0.0
 11
160.0
 21
129.0
 31
0.0
  0
LINE
  8
0
  6
CONTINUOUS
 62
     2
 10
160.0
 20
129.0
 30
0.0
 11
158.0681
 21
129.5176
 31
0.0
  0
LINE
  8
0
  6
CONTINUOUS
 62
     2
 10
169.0
 20
129.0
 30
0.0
 11
173.0
 21
129.0
 31
0.0
  0
LINE
  8
0
  6
CONTINUOUS
 62
     2
 10
170.9319
 20
129.5176
 30
0.0
 11
169.0
 21
129.0
 31
0.0
  0
LINE
  8
0
  6
CONTINUOUS
 62
     2
 10
169.0
 20
129.0
 30
0.0
 11
170.9319
 21
128.4824
 31
0.0
  0
LINE
  8
0
  6
CONTINUOUS
 62
     2
 10
165.0
 20
119.0
 30
0.0
 11
165.0
 21
131.0
 31
0.0
  0
LINE
  8
0
  6
CONTINUOUS
 62
     2
 10
160.0
 20
94.0
 30
0.0
 11
160.0
 21
138.0
 31
0.0
  0
LINE
  8
0
  6
CONTINUOUS
 62
     2
 10
169.0
 20
84.5
 30
0.0
 11
169.0
 21
131.0
 31
0.0
  0
LINE
  8
0
  6
CONTINUOUS
 62
     2
 10
189.5
 20
129.0
 30
0.0
 11
193.5
 21
129.0
 31
0.0
  0
LINE
  8
0
  6
CONTINUOUS
 62
     2
 10
189.5
 20
129.0
 30
0.0
 11
185.5
 21
129.0
 31
0.0
  0
LINE
  8
0
  6
CONTINUOUS
 62
     2
 10
187.5681
 20
128.4824
 30
0.0
 11
189.5
 21
129.0
 31
0.0
  0
LINE
  8
0
  6
CONTINUOUS
 62
     2
 10
189.5
 20
129.0
 30
0.0
 11
187.5681
 21
129.5176
 31
0.0
  0
LINE
  8
0
  6
CONTINUOUS
 62
     2
 10
189.5
 20
119.0
 30
0.0
 11
189.5
 21
131.0
 31
0.0
  0
TEXT
  8
0
  6
CONTINUOUS
 62
     2
 10
190.6
 20
130.0
 30
0.0
 40
3.0
  1
４
 50
0.0
 41
0.666
 51
0.0
  7
KANJI0
  0
LINE
  8
0
  6
CONTINUOUS
 62
     2
 10
193.5
 20
129.0
 30
0.0
 11
197.5
 21
129.0
 31
0.0
  0
LINE
  8
0
  6
CONTINUOUS
 62
     2
 10
195.4319
 20
129.5176
 30
0.0
 11
193.5
 21
129.0
 31
0.0
  0
LINE
  8
0
  6
CONTINUOUS
 62
     2
 10
193.5
 20
129.0
 30
0.0
 11
195.4319
 21
128.4824
 31
0.0
  0
LINE
  8
0
  6
CONTINUOUS
 62
     2
 10
193.5
 20
119.0
 30
0.0
 11
193.5
 21
138.0
 31
0.0
  0
TEXT
  8
0
  6
CONTINUOUS
 62
     2
 10
175.0
 20
137.0
 30
0.0
 40
3.0
  1
３
 50
0.0
 41
0.666
 51
0.0
  7
KANJI0
  0
TEXT
  8
0
  6
CONTINUOUS
 62
     2
 10
177.0
 20
137.0
 30
0.0
 40
3.0
  1
３
 50
0.0
 41
0.666
 51
0.0
  7
KANJI0
  0
LINE
  8
0
  6
CONTINUOUS
 62
     2
 10
193.5
 20
136.0
 30
0.0
 11
160.0
 21
136.0
 31
0.0
  0
LINE
  8
0
  6
CONTINUOUS
 62
     2
 10
191.5681
 20
135.4824
 30
0.0
 11
193.5
 21
136.0
 31
0.0
  0
LINE
  8
0
  6
CONTINUOUS
 62
     2
 10
193.5
 20
136.0
 30
0.0
 11
191.5681
 21
136.5176
 31
0.0
  0
LINE
  8
0
  6
CONTINUOUS
 62
     2
 10
161.9319
 20
136.5176
 30
0.0
 11
160.0
 21
136.0
 31
0.0
  0
LINE
  8
0
  6
CONTINUOUS
 62
     2
 10
160.0
 20
136.0
 30
0.0
 11
161.9319
 21
135.4824
 31
0.0
  0
TEXT
  8
0
  6
CONTINUOUS
 62
     2
 10
214.0
 20
76.0
 30
0.0
 40
3.0
  1
５
 50
90.0
 41
0.666
 51
0.0
  7
KANJI0
  0
TEXT
  8
0
  6
CONTINUOUS
 62
     2
 10
214.0
 20
78.0
 30
0.0
 40
3.0
  1
．
 50
90.0
 41
0.666
 51
0.0
  7
KANJI0
  0
TEXT
  8
0
  6
CONTINUOUS
 62
     2
 10
214.0
 20
80.0
 30
0.0
 40
3.0
  1
４
 50
90.0
 41
0.666
 51
0.0
  7
KANJI0
  0
LINE
  8
0
  6
CONTINUOUS
 62
     2
 10
215.0
 20
60.3
 30
0.0
 11
215.0
 21
95.7
 31
0.0
  0
LINE
  8
0
  6
CONTINUOUS
 62
     2
 10
214.4824
 20
62.2319
 30
0.0
 11
215.0
 21
60.3
 31
0.0
  0
LINE
  8
0
  6
CONTINUOUS
 62
     2
 10
215.0
 20
60.3
 30
0.0
 11
215.5176
 21
62.2319
 31
0.0
  0
LINE
  8
0
  6
CONTINUOUS
 62
     2
 10
215.5176
 20
93.7681
 30
0.0
 11
215.0
 21
95.7
 31
0.0
  0
LINE
  8
0
  6
CONTINUOUS
 62
     2
 10
215.0
 20
95.7
 30
0.0
 11
214.4824
 21
93.7681
 31
0.0
  0
TEXT
  8
0
  6
CONTINUOUS
 62
     2
 10
214.0
 20
74.0
 30
0.0
 40
3.0
  1
３
 50
90.0
 41
0.666
 51
0.0
  7
KANJI0
  0
LINE
  8
0
  6
CONTINUOUS
 62
     2
 10
195.5
 20
95.7
 30
0.0
 11
217.0
 21
95.7
 31
0.0
  0
LINE
  8
0
  6
CONTINUOUS
 62
     2
 10
195.5
 20
60.3
 30
0.0
 11
217.0
 21
60.3
 31
0.0
  0
LINE
  8
0
  6
LTYPE0
 62
     2
 10
100.0
 20
71.0
 30
0.0
 11
100.0
 21
131.0
 31
0.0
  0
LINE
  8
0
  6
CONTINUOUS
 62
     1
 10
33.0
 20
153.0
 30
0.0
 11
331.0
 21
153.0
 31
0.0
  0
LINE
  8
0
  6
CONTINUOUS
 62
     2
 10
45.0
 20
118.0
 30
0.0
 11
45.0
 21
38.0
 31
0.0
  0
LINE
  8
0
  6
CONTINUOUS
 62
     2
 10
45.5176
 20
116.0681
 30
0.0
 11
45.0
 21
118.0
 31
0.0
  0
LINE
  8
0
  6
CONTINUOUS
 62
     2
 10
45.0
 20
118.0
 30
0.0
 11
44.4824
 21
116.0681
 31
0.0
  0
LINE
  8
0
  6
CONTINUOUS
 62
     2
 10
44.4824
 20
39.9319
 30
0.0
 11
45.0
 21
38.0
 31
0.0
  0
LINE
  8
0
  6
CONTINUOUS
 62
     2
 10
45.0
 20
38.0
 30
0.0
 11
45.5176
 21
39.9319
 31
0.0
  0
LINE
  8
0
  6
CONTINUOUS
 62
     2
 10
45.0
 20
34.0
 30
0.0
 11
45.0
 21
30.0
 31
0.0
  0
LINE
  8
0
  6
CONTINUOUS
 62
     2
 10
45.5176
 20
32.0681
 30
0.0
 11
45.0
 21
34.0
 31
0.0
  0
LINE
  8
0
  6
CONTINUOUS
 62
     2
 10
45.0
 20
34.0
 30
0.0
 11
44.4824
 21
32.0681
 31
0.0
  0
LINE
  8
0
  6
CONTINUOUS
 62
     2
 10
45.0
 20
38.0
 30
0.0
 11
45.0
 21
33.0
 31
0.0
  0
TEXT
  8
0
  6
CONTINUOUS
 62
     2
 10
44.0
 20
35.0
 30
0.0
 40
3.0
  1
４
 50
90.0
 41
0.666
 51
0.0
  7
KANJI0
  0
LINE
  8
0
  6
CONTINUOUS
 62
     2
 10
74.0
 20
118.0
 30
0.0
 11
43.0
 21
118.0
 31
0.0
  0
LINE
  8
0
  6
CONTINUOUS
 62
     2
 10
43.0
 20
38.0
 30
0.0
 11
66.0
 21
38.0
 31
0.0
  0
LINE
  8
0
  6
CONTINUOUS
 62
     2
 10
43.0
 20
34.0
 30
0.0
 11
75.0
 21
34.0
 31
0.0
  0
LINE
  8
0
  6
CONTINUOUS
 62
     1
 10
230.0
 20
153.0
 30
0.0
 11
230.0
 21
48.0
 31
0.0
  0
TEXT
  8
0
  6
CONTINUOUS
 62
     2
 10
340.0
 20
175.0
 30
0.0
 40
3.0
  1
調
 50
0.0
 41
0.666666667
 51
0.0
  7
KANJI4
  0
TEXT
  8
0
  6
CONTINUOUS
 62
     2
 10
342.0
 20
175.0
 30
0.0
 40
3.0
  1
整
 50
0.0
 41
0.666666667
 51
0.0
  7
KANJI4
  0
TEXT
  8
0
  6
CONTINUOUS
 62
     2
 10
344.0
 20
175.0
 30
0.0
 40
3.0
  1
器
 50
0.0
 41
0.666666667
 51
0.0
  7
KANJI4
  0
TEXT
  8
0
  6
CONTINUOUS
 62
     2
 10
329.0
 20
161.0
 30
0.0
 40
3.0
  1
Ｌ
 50
0.0
 41
0.666666667
 51
0.0
  7
KANJI4
  0
TEXT
  8
0
  6
CONTINUOUS
 62
     2
 10
331.0
 20
161.0
 30
0.0
 40
3.0
  1
Ｅ
 50
0.0
 41
0.666666667
 51
0.0
  7
KANJI4
  0
TEXT
  8
0
  6
CONTINUOUS
 62
     2
 10
333.0
 20
161.0
 30
0.0
 40
3.0
  1
Ｄ
 50
0.0
 41
0.666666667
 51
0.0
  7
KANJI4
  0
TEXT
  8
0
  6
CONTINUOUS
 62
     2
 10
44.0
 20
76.0
 30
0.0
 40
3.0
  1
８
 50
90.0
 41
0.666666667
 51
0.0
  7
KANJI4
  0
TEXT
  8
0
  6
CONTINUOUS
 62
     2
 10
44.0
 20
78.0
 30
0.0
 40
3.0
  1
０
 50
90.0
 41
0.666666667
 51
0.0
  7
KANJI4
  0
LINE
  8
0
  6
CONTINUOUS
 62
     1
 10
57.6
 20
116.0
 30
0.0
 11
55.0
 21
116.0
 31
0.0
  0
LINE
  8
0
  6
CONTINUOUS
 62
     1
 10
57.6
 20
100.0
 30
0.0
 11
65.4
 21
100.0
 31
0.0
  0
LINE
  8
0
  6
CONTINUOUS
 62
     1
 10
65.4
 20
100.0
 30
0.0
 11
65.4
 21
116.0
 31
0.0
  0
LINE
  8
0
  6
CONTINUOUS
 62
     1
 10
65.4
 20
116.0
 30
0.0
 11
68.0
 21
116.0
 31
0.0
  0
LINE
  8
0
  6
CONTINUOUS
 62
     1
 10
68.0
 20
116.0
 30
0.0
 11
68.0
 21
100.0
 31
0.0
  0
LINE
  8
0
  6
CONTINUOUS
 62
     1
 10
68.0
 20
100.0
 30
0.0
 11
75.8
 21
100.0
 31
0.0
  0
LINE
  8
0
  6
CONTINUOUS
 62
     1
 10
75.8
 20
100.0
 30
0.0
 11
75.8
 21
118.0
 31
0.0
  0
LINE
  8
0
  6
CONTINUOUS
 62
     1
 10
75.8
 20
118.0
 30
0.0
 11
78.25
 21
118.0
 31
0.0
  0
LINE
  8
0
  6
CONTINUOUS
 62
     1
 10
57.6
 20
116.0
 30
0.0
 11
65.4
 21
116.0
 31
0.0
  0
LINE
  8
0
  6
CONTINUOUS
 62
     1
 10
68.0
 20
116.0
 30
0.0
 11
75.8
 21
116.0
 31
0.0
  0
LINE
  8
0
  6
CONTINUOUS
 62
     1
 10
57.6
 20
111.4
 30
0.0
 11
65.4
 21
111.4
 31
0.0
  0
LINE
  8
0
  6
CONTINUOUS
 62
     1
 10
68.0
 20
111.4
 30
0.0
 11
75.8
 21
111.4
 31
0.0
  0
LINE
  8
0
  6
CONTINUOUS
 62
     1
 10
75.8
 20
111.4
 30
0.0
 11
75.8
 21
110.4
 31
0.0
  0
LINE
  8
0
  6
CONTINUOUS
 62
     1
 10
75.8
 20
110.4
 30
0.0
 11
68.0
 21
110.4
 31
0.0
  0
LINE
  8
0
  6
CONTINUOUS
 62
     1
 10
65.4
 20
110.4
 30
0.0
 11
57.6
 21
110.4
 31
0.0
  0
LINE
  8
0
  6
CONTINUOUS
 62
     1
 10
57.6
 20
109.4
 30
0.0
 11
65.4
 21
109.4
 31
0.0
  0
LINE
  8
0
  6
CONTINUOUS
 62
     1
 10
68.0
 20
109.4
 30
0.0
 11
75.8
 21
109.4
 31
0.0
  0
LINE
  8
0
  6
CONTINUOUS
 62
     1
 10
75.8
 20
108.9
 30
0.0
 11
68.0
 21
108.9
 31
0.0
  0
LINE
  8
0
  6
CONTINUOUS
 62
     1
 10
65.4
 20
108.9
 30
0.0
 11
57.6
 21
108.9
 31
0.0
  0
CIRCLE
  8
0
  6
CONTINUOUS
 62
     1
 10
61.5
 20
104.5
 30
0.0
 40
2.75
  0
LINE
  8
0
  6
CONTINUOUS
 62
     1
 10
57.924943545
 20
101.500171447
 30
0.0
 11
64.499828553
 21
100.924943545
 31
0.0
  0
LINE
  8
0
  6
CONTINUOUS
 62
     1
 10
64.499828553
 20
100.924943545
 30
0.0
 11
65.075056455
 21
107.499828553
 31
0.0
  0
LINE
  8
0
  6
CONTINUOUS
 62
     1
 10
65.075056455
 20
107.499828553
 30
0.0
 11
58.500171447
 21
108.075056455
 31
0.0
  0
LINE
  8
0
  6
CONTINUOUS
 62
     1
 10
58.500171447
 20
108.075056455
 30
0.0
 11
57.924943545
 21
101.500171447
 31
0.0
  0
LINE
  8
0
  6
CONTINUOUS
 62
     1
 10
61.4
 20
107.8
 30
0.0
 11
61.3
 21
107.2
 31
0.0
  0
LINE
  8
0
  6
CONTINUOUS
 62
     1
 10
62.2
 20
107.7
 30
0.0
 11
62.2
 21
107.1
 31
0.0
  0
LINE
  8
0
  6
CONTINUOUS
 62
     1
 10
60.7
 20
101.85
 30
0.0
 11
60.7
 21
101.25
 31
0.0
  0
LINE
  8
0
  6
CONTINUOUS
 62
     1
 10
61.6
 20
101.75
 30
0.0
 11
61.4
 21
101.15
 31
0.0
  0
LINE
  8
0
  6
CONTINUOUS
 62
     1
 10
58.76254883
 20
104.237586026
 30
0.0
 11
59.912320347
 21
104.136994052
 31
0.0
  0
LINE
  8
0
  6
CONTINUOUS
 62
     1
 10
60.522261556
 20
101.929683379
 30
0.0
 11
60.639551511
 21
103.2703137
 31
0.0
  0
ARC
  8
0
  6
CONTINUOUS
 62
     1
 10
59.842595752
 20
103.340038294
 30
0.0
 40
0.8
 50
355.0
 51
85.0
  0
LINE
  8
0
  6
CONTINUOUS
 62
     1
 10
62.133843558
 20
103.139580085
 30
0.0
 11
62.016553603
 21
101.798949764
 31
0.0
  0
LINE
  8
0
  6
CONTINUOUS
 62
     1
 10
63.000523911
 20
103.86681125
 30
0.0
 11
64.150295427
 21
103.766219276
 31
0.0
  0
ARC
  8
0
  6
CONTINUOUS
 62
     1
 10
62.930799316
 20
103.069855491
 30
0.0
 40
0.8
 50
85.0
 51
175.0
  0
LINE
  8
0
  6
CONTINUOUS
 62
     1
 10
58.849704573
 20
105.233780724
 30
0.0
 11
59.999476089
 21
105.13318875
 31
0.0
  0
ARC
  8
0
  6
CONTINUOUS
 62
     1
 10
60.069200684
 20
105.930144509
 30
0.0
 40
0.8
 50
265.0
 51
355.0
  0
LINE
  8
0
  6
CONTINUOUS
 62
     1
 10
63.087679653
 20
104.863005948
 30
0.0
 11
64.23745117
 21
104.762413974
 31
0.0
  0
ARC
  8
0
  6
CONTINUOUS
 62
     1
 10
63.157404248
 20
105.659961706
 30
0.0
 40
0.8
 50
175.0
 51
265.0
  0
LINE
  8
0
  6
CONTINUOUS
 62
     1
 10
60.983446397
 20
107.201050236
 30
0.0
 11
60.866156442
 21
105.860419915
 31
0.0
  0
LINE
  8
0
  6
CONTINUOUS
 62
     1
 10
62.360448489
 20
105.7296863
 30
0.0
 11
62.477738444
 21
107.070316621
 31
0.0
  0
CIRCLE
  8
0
  6
CONTINUOUS
 62
     1
 10
71.9
 20
104.5
 30
0.0
 40
2.75
  0
LINE
  8
0
  6
CONTINUOUS
 62
     1
 10
68.324943545
 20
101.500171447
 30
0.0
 11
74.899828553
 21
100.924943545
 31
0.0
  0
LINE
  8
0
  6
CONTINUOUS
 62
     1
 10
74.899828553
 20
100.924943545
 30
0.0
 11
75.475056455
 21
107.499828553
 31
0.0
  0
LINE
  8
0
  6
CONTINUOUS
 62
     1
 10
75.475056455
 20
107.499828553
 30
0.0
 11
68.900171447
 21
108.075056455
 31
0.0
  0
LINE
  8
0
  6
CONTINUOUS
 62
     1
 10
68.900171447
 20
108.075056455
 30
0.0
 11
68.324943545
 21
101.500171447
 31
0.0
  0
LINE
  8
0
  6
CONTINUOUS
 62
     1
 10
71.8
 20
107.8
 30
0.0
 11
71.7
 21
107.2
 31
0.0
  0
LINE
  8
0
  6
CONTINUOUS
 62
     1
 10
72.6
 20
107.7
 30
0.0
 11
72.6
 21
107.1
 31
0.0
  0
LINE
  8
0
  6
CONTINUOUS
 62
     1
 10
71.1
 20
101.85
 30
0.0
 11
71.1
 21
101.25
 31
0.0
  0
LINE
  8
0
  6
CONTINUOUS
 62
     1
 10
72.0
 20
101.75
 30
0.0
 11
71.8
 21
101.15
 31
0.0
  0
LINE
  8
0
  6
CONTINUOUS
 62
     1
 10
69.16254883
 20
104.237586026
 30
0.0
 11
70.312320347
 21
104.136994052
 31
0.0
  0
LINE
  8
0
  6
CONTINUOUS
 62
     1
 10
70.922261556
 20
101.929683379
 30
0.0
 11
71.039551511
 21
103.2703137
 31
0.0
  0
ARC
  8
0
  6
CONTINUOUS
 62
     1
 10
70.242595752
 20
103.340038294
 30
0.0
 40
0.8
 50
355.0
 51
85.0
  0
LINE
  8
0
  6
CONTINUOUS
 62
     1
 10
72.533843558
 20
103.139580085
 30
0.0
 11
72.416553603
 21
101.798949764
 31
0.0
  0
LINE
  8
0
  6
CONTINUOUS
 62
     1
 10
73.400523911
 20
103.86681125
 30
0.0
 11
74.550295427
 21
103.766219276
 31
0.0
  0
ARC
  8
0
  6
CONTINUOUS
 62
     1
 10
73.330799316
 20
103.069855491
 30
0.0
 40
0.8
 50
85.0
 51
175.0
  0
LINE
  8
0
  6
CONTINUOUS
 62
     1
 10
69.249704573
 20
105.233780724
 30
0.0
 11
70.399476089
 21
105.13318875
 31
0.0
  0
ARC
  8
0
  6
CONTINUOUS
 62
     1
 10
70.469200684
 20
105.930144509
 30
0.0
 40
0.8
 50
265.0
 51
355.0
  0
LINE
  8
0
  6
CONTINUOUS
 62
     1
 10
73.487679653
 20
104.863005948
 30
0.0
 11
74.63745117
 21
104.762413974
 31
0.0
  0
ARC
  8
0
  6
CONTINUOUS
 62
     1
 10
73.557404248
 20
105.659961706
 30
0.0
 40
0.8
 50
175.0
 51
265.0
  0
LINE
  8
0
  6
CONTINUOUS
 62
     1
 10
71.383446397
 20
107.201050236
 30
0.0
 11
71.266156442
 21
105.860419915
 31
0.0
  0
LINE
  8
0
  6
CONTINUOUS
 62
     1
 10
72.760448489
 20
105.7296863
 30
0.0
 11
72.877738444
 21
107.070316621
 31
0.0
  0
LINE
  8
0
  6
CONTINUOUS
 62
     1
 10
56.473231278
 20
91.939061774
 30
0.0
 11
58.323231278
 21
91.939061774
 31
0.0
  0
LINE
  8
0
  6
CONTINUOUS
 62
     1
 10
58.323231278
 20
91.939061774
 30
0.0
 11
58.323231278
 21
95.619061774
 31
0.0
  0
LINE
  8
0
  6
CONTINUOUS
 62
     1
 10
58.323231278
 20
95.619061774
 30
0.0
 11
56.473231278
 21
95.619061774
 31
0.0
  0
LINE
  8
0
  6
CONTINUOUS
 62
     1
 10
56.473231278
 20
95.619061774
 30
0.0
 11
56.473231278
 21
91.939061774
 31
0.0
  0
LINE
  8
0
  6
CONTINUOUS
 62
     1
 10
102.4
 20
116.0
 30
0.0
 11
105.0
 21
116.0
 31
0.0
  0
LINE
  8
0
  6
CONTINUOUS
 62
     1
 10
102.4
 20
116.0
 30
0.0
 11
102.4
 21
100.0
 31
0.0
  0
LINE
  8
0
  6
CONTINUOUS
 62
     1
 10
102.4
 20
100.0
 30
0.0
 11
94.6
 21
100.0
 31
0.0
  0
LINE
  8
0
  6
CONTINUOUS
 62
     1
 10
94.6
 20
100.0
 30
0.0
 11
94.6
 21
116.0
 31
0.0
  0
LINE
  8
0
  6
CONTINUOUS
 62
     1
 10
94.6
 20
116.0
 30
0.0
 11
92.0
 21
116.0
 31
0.0
  0
LINE
  8
0
  6
CONTINUOUS
 62
     1
 10
92.0
 20
116.0
 30
0.0
 11
92.0
 21
100.0
 31
0.0
  0
LINE
  8
0
  6
CONTINUOUS
 62
     1
 10
92.0
 20
100.0
 30
0.0
 11
84.2
 21
100.0
 31
0.0
  0
LINE
  8
0
  6
CONTINUOUS
 62
     1
 10
84.2
 20
100.0
 30
0.0
 11
84.2
 21
118.0
 31
0.0
  0
LINE
  8
0
  6
CONTINUOUS
 62
     1
 10
84.2
 20
118.0
 30
0.0
 11
81.75
 21
118.0
 31
0.0
  0
LINE
  8
0
  6
CONTINUOUS
 62
     1
 10
102.4
 20
116.0
 30
0.0
 11
94.6
 21
116.0
 31
0.0
  0
LINE
  8
0
  6
CONTINUOUS
 62
     1
 10
92.0
 20
116.0
 30
0.0
 11
84.2
 21
116.0
 31
0.0
  0
LINE
  8
0
  6
CONTINUOUS
 62
     1
 10
102.4
 20
111.4
 30
0.0
 11
94.6
 21
111.4
 31
0.0
  0
LINE
  8
0
  6
CONTINUOUS
 62
     1
 10
92.0
 20
111.4
 30
0.0
 11
84.2
 21
111.4
 31
0.0
  0
LINE
  8
0
  6
CONTINUOUS
 62
     1
 10
84.2
 20
111.4
 30
0.0
 11
84.2
 21
110.4
 31
0.0
  0
LINE
  8
0
  6
CONTINUOUS
 62
     1
 10
84.2
 20
110.4
 30
0.0
 11
92.0
 21
110.4
 31
0.0
  0
LINE
  8
0
  6
CONTINUOUS
 62
     1
 10
94.6
 20
110.4
 30
0.0
 11
102.4
 21
110.4
 31
0.0
  0
LINE
  8
0
  6
CONTINUOUS
 62
     1
 10
102.4
 20
109.4
 30
0.0
 11
94.6
 21
109.4
 31
0.0
  0
LINE
  8
0
  6
CONTINUOUS
 62
     1
 10
92.0
 20
109.4
 30
0.0
 11
84.2
 21
109.4
 31
0.0
  0
LINE
  8
0
  6
CONTINUOUS
 62
     1
 10
84.2
 20
108.9
 30
0.0
 11
92.0
 21
108.9
 31
0.0
  0
LINE
  8
0
  6
CONTINUOUS
 62
     1
 10
94.6
 20
108.9
 30
0.0
 11
102.4
 21
108.9
 31
0.0
  0
CIRCLE
  8
0
  6
CONTINUOUS
 62
     1
 10
98.5
 20
104.5
 30
0.0
 40
2.75
  0
LINE
  8
0
  6
CONTINUOUS
 62
     1
 10
102.075056455
 20
101.500171447
 30
0.0
 11
95.500171447
 21
100.924943545
 31
0.0
  0
LINE
  8
0
  6
CONTINUOUS
 62
     1
 10
95.500171447
 20
100.924943545
 30
0.0
 11
94.924943545
 21
107.499828553
 31
0.0
  0
LINE
  8
0
  6
CONTINUOUS
 62
     1
 10
94.924943545
 20
107.499828553
 30
0.0
 11
101.499828553
 21
108.075056455
 31
0.0
  0
LINE
  8
0
  6
CONTINUOUS
 62
     1
 10
101.499828553
 20
108.075056455
 30
0.0
 11
102.075056455
 21
101.500171447
 31
0.0
  0
LINE
  8
0
  6
CONTINUOUS
 62
     1
 10
98.6
 20
107.8
 30
0.0
 11
98.7
 21
107.2
 31
0.0
  0
LINE
  8
0
  6
CONTINUOUS
 62
     1
 10
97.8
 20
107.7
 30
0.0
 11
97.8
 21
107.1
 31
0.0
  0
LINE
  8
0
  6
CONTINUOUS
 62
     1
 10
99.3
 20
101.85
 30
0.0
 11
99.3
 21
101.25
 31
0.0
  0
LINE
  8
0
  6
CONTINUOUS
 62
     1
 10
98.4
 20
101.75
 30
0.0
 11
98.6
 21
101.15
 31
0.0
  0
LINE
  8
0
  6
CONTINUOUS
 62
     1
 10
101.23745117
 20
104.237586026
 30
0.0
 11
100.087679653
 21
104.136994052
 31
0.0
  0
LINE
  8
0
  6
CONTINUOUS
 62
     1
 10
99.477738444
 20
101.929683379
 30
0.0
 11
99.360448489
 21
103.2703137
 31
0.0
  0
ARC
  8
0
  6
CONTINUOUS
 62
     1
 10
100.157404248
 20
103.340038294
 30
0.0
 40
0.8
 50
95.0
 51
185.0
  0
LINE
  8
0
  6
CONTINUOUS
 62
     1
 10
97.866156442
 20
103.139580085
 30
0.0
 11
97.983446397
 21
101.798949764
 31
0.0
  0
LINE
  8
0
  6
CONTINUOUS
 62
     1
 10
96.999476089
 20
103.86681125
 30
0.0
 11
95.849704573
 21
103.766219276
 31
0.0
  0
ARC
  8
0
  6
CONTINUOUS
 62
     1
 10
97.069200684
 20
103.069855491
 30
0.0
 40
0.8
 50
5.0
 51
95.0
  0
LINE
  8
0
  6
CONTINUOUS
 62
     1
 10
101.150295427
 20
105.233780724
 30
0.0
 11
100.000523911
 21
105.13318875
 31
0.0
  0
ARC
  8
0
  6
CONTINUOUS
 62
     1
 10
99.930799316
 20
105.930144509
 30
0.0
 40
0.8
 50
185.0
 51
275.0
  0
LINE
  8
0
  6
CONTINUOUS
 62
     1
 10
96.912320347
 20
104.863005948
 30
0.0
 11
95.76254883
 21
104.762413974
 31
0.0
  0
ARC
  8
0
  6
CONTINUOUS
 62
     1
 10
96.842595752
 20
105.659961706
 30
0.0
 40
0.8
 50
275.0
 51
5.0
  0
LINE
  8
0
  6
CONTINUOUS
 62
     1
 10
99.016553603
 20
107.201050236
 30
0.0
 11
99.133843558
 21
105.860419915
 31
0.0
  0
LINE
  8
0
  6
CONTINUOUS
 62
     1
 10
97.639551511
 20
105.7296863
 30
0.0
 11
97.522261556
 21
107.070316621
 31
0.0
  0
CIRCLE
  8
0
  6
CONTINUOUS
 62
     1
 10
88.1
 20
104.5
 30
0.0
 40
2.75
  0
LINE
  8
0
  6
CONTINUOUS
 62
     1
 10
91.675056455
 20
101.500171447
 30
0.0
 11
85.100171447
 21
100.924943545
 31
0.0
  0
LINE
  8
0
  6
CONTINUOUS
 62
     1
 10
85.100171447
 20
100.924943545
 30
0.0
 11
84.524943545
 21
107.499828553
 31
0.0
  0
LINE
  8
0
  6
CONTINUOUS
 62
     1
 10
84.524943545
 20
107.499828553
 30
0.0
 11
91.099828553
 21
108.075056455
 31
0.0
  0
LINE
  8
0
  6
CONTINUOUS
 62
     1
 10
91.099828553
 20
108.075056455
 30
0.0
 11
91.675056455
 21
101.500171447
 31
0.0
  0
LINE
  8
0
  6
CONTINUOUS
 62
     1
 10
88.2
 20
107.8
 30
0.0
 11
88.3
 21
107.2
 31
0.0
  0
LINE
  8
0
  6
CONTINUOUS
 62
     1
 10
87.4
 20
107.7
 30
0.0
 11
87.4
 21
107.1
 31
0.0
  0
LINE
  8
0
  6
CONTINUOUS
 62
     1
 10
88.9
 20
101.85
 30
0.0
 11
88.9
 21
101.25
 31
0.0
  0
LINE
  8
0
  6
CONTINUOUS
 62
     1
 10
88.0
 20
101.75
 30
0.0
 11
88.2
 21
101.15
 31
0.0
  0
LINE
  8
0
  6
CONTINUOUS
 62
     1
 10
90.83745117
 20
104.237586026
 30
0.0
 11
89.687679653
 21
104.136994052
 31
0.0
  0
LINE
  8
0
  6
CONTINUOUS
 62
     1
 10
89.077738444
 20
101.929683379
 30
0.0
 11
88.960448489
 21
103.2703137
 31
0.0
  0
ARC
  8
0
  6
CONTINUOUS
 62
     1
 10
89.757404248
 20
103.340038294
 30
0.0
 40
0.8
 50
95.0
 51
185.0
  0
LINE
  8
0
  6
CONTINUOUS
 62
     1
 10
87.466156442
 20
103.139580085
 30
0.0
 11
87.583446397
 21
101.798949764
 31
0.0
  0
LINE
  8
0
  6
CONTINUOUS
 62
     1
 10
86.599476089
 20
103.86681125
 30
0.0
 11
85.449704573
 21
103.766219276
 31
0.0
  0
ARC
  8
0
  6
CONTINUOUS
 62
     1
 10
86.669200684
 20
103.069855491
 30
0.0
 40
0.8
 50
5.0
 51
95.0
  0
LINE
  8
0
  6
CONTINUOUS
 62
     1
 10
90.750295427
 20
105.233780724
 30
0.0
 11
89.600523911
 21
105.13318875
 31
0.0
  0
ARC
  8
0
  6
CONTINUOUS
 62
     1
 10
89.530799316
 20
105.930144509
 30
0.0
 40
0.8
 50
185.0
 51
275.0
  0
LINE
  8
0
  6
CONTINUOUS
 62
     1
 10
86.512320347
 20
104.863005948
 30
0.0
 11
85.36254883
 21
104.762413974
 31
0.0
  0
ARC
  8
0
  6
CONTINUOUS
 62
     1
 10
86.442595752
 20
105.659961706
 30
0.0
 40
0.8
 50
275.0
 51
5.0
  0
LINE
  8
0
  6
CONTINUOUS
 62
     1
 10
88.616553603
 20
107.201050236
 30
0.0
 11
88.733843558
 21
105.860419915
 31
0.0
  0
LINE
  8
0
  6
CONTINUOUS
 62
     1
 10
87.239551511
 20
105.7296863
 30
0.0
 11
87.122261556
 21
107.070316621
 31
0.0
  0
LINE
  8
0
  6
CONTINUOUS
 62
     1
 10
78.25
 20
118.0
 30
0.0
 11
81.75
 21
118.0
 31
0.0
  0
LINE
  8
0
  6
CONTINUOUS
 62
     1
 10
78.25
 20
107.5
 30
0.0
 11
81.75
 21
107.6
 31
0.0
  0
LINE
  8
0
  6
CONTINUOUS
 62
     1
 10
78.25
 20
105.4
 30
0.0
 11
81.75
 21
105.4
 31
0.0
  0
LINE
  8
0
  6
CONTINUOUS
 62
     1
 10
78.25
 20
115.8
 30
0.0
 11
81.75
 21
115.8
 31
0.0
  0
LINE
  8
0
  6
CONTINUOUS
 62
     1
 10
57.6
 20
40.0
 30
0.0
 11
55.0
 21
40.0
 31
0.0
  0
LINE
  8
0
  6
CONTINUOUS
 62
     1
 10
57.6
 20
40.0
 30
0.0
 11
57.6
 21
56.0
 31
0.0
  0
LINE
  8
0
  6
CONTINUOUS
 62
     1
 10
57.6
 20
56.0
 30
0.0
 11
65.4
 21
56.0
 31
0.0
  0
LINE
  8
0
  6
CONTINUOUS
 62
     1
 10
65.4
 20
56.0
 30
0.0
 11
65.4
 21
40.0
 31
0.0
  0
LINE
  8
0
  6
CONTINUOUS
 62
     1
 10
65.4
 20
40.0
 30
0.0
 11
68.0
 21
40.0
 31
0.0
  0
LINE
  8
0
  6
CONTINUOUS
 62
     1
 10
68.0
 20
40.0
 30
0.0
 11
68.0
 21
56.0
 31
0.0
  0
LINE
  8
0
  6
CONTINUOUS
 62
     1
 10
68.0
 20
56.0
 30
0.0
 11
75.8
 21
56.0
 31
0.0
  0
LINE
  8
0
  6
CONTINUOUS
 62
     1
 10
75.8
 20
56.0
 30
0.0
 11
75.8
 21
38.0
 31
0.0
  0
LINE
  8
0
  6
CONTINUOUS
 62
     1
 10
75.8
 20
38.0
 30
0.0
 11
78.25
 21
38.0
 31
0.0
  0
LINE
  8
0
  6
CONTINUOUS
 62
     1
 10
57.6
 20
40.0
 30
0.0
 11
65.4
 21
40.0
 31
0.0
  0
LINE
  8
0
  6
CONTINUOUS
 62
     1
 10
68.0
 20
40.0
 30
0.0
 11
75.8
 21
40.0
 31
0.0
  0
LINE
  8
0
  6
CONTINUOUS
 62
     1
 10
57.6
 20
44.6
 30
0.0
 11
65.4
 21
44.6
 31
0.0
  0
LINE
  8
0
  6
CONTINUOUS
 62
     1
 10
68.0
 20
44.6
 30
0.0
 11
75.8
 21
44.6
 31
0.0
  0
LINE
  8
0
  6
CONTINUOUS
 62
     1
 10
75.8
 20
44.6
 30
0.0
 11
75.8
 21
45.6
 31
0.0
  0
LINE
  8
0
  6
CONTINUOUS
 62
     1
 10
75.8
 20
45.6
 30
0.0
 11
68.0
 21
45.6
 31
0.0
  0
LINE
  8
0
  6
CONTINUOUS
 62
     1
 10
65.4
 20
45.6
 30
0.0
 11
57.6
 21
45.6
 31
0.0
  0
LINE
  8
0
  6
CONTINUOUS
 62
     1
 10
57.6
 20
46.6
 30
0.0
 11
65.4
 21
46.6
 31
0.0
  0
LINE
  8
0
  6
CONTINUOUS
 62
     1
 10
68.0
 20
46.6
 30
0.0
 11
75.8
 21
46.6
 31
0.0
  0
LINE
  8
0
  6
CONTINUOUS
 62
     1
 10
75.8
 20
47.1
 30
0.0
 11
68.0
 21
47.1
 31
0.0
  0
LINE
  8
0
  6
CONTINUOUS
 62
     1
 10
65.4
 20
47.1
 30
0.0
 11
57.6
 21
47.1
 31
0.0
  0
CIRCLE
  8
0
  6
CONTINUOUS
 62
     1
 10
61.5
 20
51.5
 30
0.0
 40
2.75
  0
LINE
  8
0
  6
CONTINUOUS
 62
     1
 10
57.924943545
 20
54.499828553
 30
0.0
 11
64.499828553
 21
55.075056455
 31
0.0
  0
LINE
  8
0
  6
CONTINUOUS
 62
     1
 10
64.499828553
 20
55.075056455
 30
0.0
 11
65.075056455
 21
48.500171447
 31
0.0
  0
LINE
  8
0
  6
CONTINUOUS
 62
     1
 10
65.075056455
 20
48.500171447
 30
0.0
 11
58.500171447
 21
47.924943545
 31
0.0
  0
LINE
  8
0
  6
CONTINUOUS
 62
     1
 10
58.500171447
 20
47.924943545
 30
0.0
 11
57.924943545
 21
54.499828553
 31
0.0
  0
LINE
  8
0
  6
CONTINUOUS
 62
     1
 10
61.4
 20
48.2
 30
0.0
 11
61.3
 21
48.8
 31
0.0
  0
LINE
  8
0
  6
CONTINUOUS
 62
     1
 10
62.2
 20
48.3
 30
0.0
 11
62.2
 21
48.9
 31
0.0
  0
LINE
  8
0
  6
CONTINUOUS
 62
     1
 10
60.7
 20
54.15
 30
0.0
 11
60.7
 21
54.75
 31
0.0
  0
LINE
  8
0
  6
CONTINUOUS
 62
     1
 10
61.6
 20
54.25
 30
0.0
 11
61.4
 21
54.85
 31
0.0
  0
LINE
  8
0
  6
CONTINUOUS
 62
     1
 10
58.76254883
 20
51.762413974
 30
0.0
 11
59.912320347
 21
51.863005948
 31
0.0
  0
LINE
  8
0
  6
CONTINUOUS
 62
     1
 10
60.522261556
 20
54.070316621
 30
0.0
 11
60.639551511
 21
52.7296863
 31
0.0
  0
ARC
  8
0
  6
CONTINUOUS
 62
     1
 10
59.842595752
 20
52.659961706
 30
0.0
 40
0.8
 50
275.0
 51
5.0
  0
LINE
  8
0
  6
CONTINUOUS
 62
     1
 10
62.133843558
 20
52.860419915
 30
0.0
 11
62.016553603
 21
54.201050236
 31
0.0
  0
LINE
  8
0
  6
CONTINUOUS
 62
     1
 10
63.000523911
 20
52.13318875
 30
0.0
 11
64.150295427
 21
52.233780724
 31
0.0
  0
ARC
  8
0
  6
CONTINUOUS
 62
     1
 10
62.930799316
 20
52.930144509
 30
0.0
 40
0.8
 50
185.0
 51
275.0
  0
LINE
  8
0
  6
CONTINUOUS
 62
     1
 10
58.849704573
 20
50.766219276
 30
0.0
 11
59.999476089
 21
50.86681125
 31
0.0
  0
ARC
  8
0
  6
CONTINUOUS
 62
     1
 10
60.069200684
 20
50.069855491
 30
0.0
 40
0.8
 50
5.0
 51
95.0
  0
LINE
  8
0
  6
CONTINUOUS
 62
     1
 10
63.087679653
 20
51.136994052
 30
0.0
 11
64.23745117
 21
51.237586026
 31
0.0
  0
ARC
  8
0
  6
CONTINUOUS
 62
     1
 10
63.157404248
 20
50.340038294
 30
0.0
 40
0.8
 50
95.0
 51
185.0
  0
LINE
  8
0
  6
CONTINUOUS
 62
     1
 10
60.983446397
 20
48.798949764
 30
0.0
 11
60.866156442
 21
50.139580085
 31
0.0
  0
LINE
  8
0
  6
CONTINUOUS
 62
     1
 10
62.360448489
 20
50.2703137
 30
0.0
 11
62.477738444
 21
48.929683379
 31
0.0
  0
CIRCLE
  8
0
  6
CONTINUOUS
 62
     1
 10
71.9
 20
51.5
 30
0.0
 40
2.75
  0
LINE
  8
0
  6
CONTINUOUS
 62
     1
 10
68.324943545
 20
54.499828553
 30
0.0
 11
74.899828553
 21
55.075056455
 31
0.0
  0
LINE
  8
0
  6
CONTINUOUS
 62
     1
 10
74.899828553
 20
55.075056455
 30
0.0
 11
75.475056455
 21
48.500171447
 31
0.0
  0
LINE
  8
0
  6
CONTINUOUS
 62
     1
 10
75.475056455
 20
48.500171447
 30
0.0
 11
68.900171447
 21
47.924943545
 31
0.0
  0
LINE
  8
0
  6
CONTINUOUS
 62
     1
 10
68.900171447
 20
47.924943545
 30
0.0
 11
68.324943545
 21
54.499828553
 31
0.0
  0
LINE
  8
0
  6
CONTINUOUS
 62
     1
 10
71.8
 20
48.2
 30
0.0
 11
71.7
 21
48.8
 31
0.0
  0
LINE
  8
0
  6
CONTINUOUS
 62
     1
 10
72.6
 20
48.3
 30
0.0
 11
72.6
 21
48.9
 31
0.0
  0
LINE
  8
0
  6
CONTINUOUS
 62
     1
 10
71.1
 20
54.15
 30
0.0
 11
71.1
 21
54.75
 31
0.0
  0
LINE
  8
0
  6
CONTINUOUS
 62
     1
 10
72.0
 20
54.25
 30
0.0
 11
71.8
 21
54.85
 31
0.0
  0
LINE
  8
0
  6
CONTINUOUS
 62
     1
 10
69.16254883
 20
51.762413974
 30
0.0
 11
70.312320347
 21
51.863005948
 31
0.0
  0
LINE
  8
0
  6
CONTINUOUS
 62
     1
 10
70.922261556
 20
54.070316621
 30
0.0
 11
71.039551511
 21
52.7296863
 31
0.0
  0
ARC
  8
0
  6
CONTINUOUS
 62
     1
 10
70.242595752
 20
52.659961706
 30
0.0
 40
0.8
 50
275.0
 51
5.0
  0
LINE
  8
0
  6
CONTINUOUS
 62
     1
 10
72.533843558
 20
52.860419915
 30
0.0
 11
72.416553603
 21
54.201050236
 31
0.0
  0
LINE
  8
0
  6
CONTINUOUS
 62
     1
 10
73.400523911
 20
52.13318875
 30
0.0
 11
74.550295427
 21
52.233780724
 31
0.0
  0
ARC
  8
0
  6
CONTINUOUS
 62
     1
 10
73.330799316
 20
52.930144509
 30
0.0
 40
0.8
 50
185.0
 51
275.0
  0
LINE
  8
0
  6
CONTINUOUS
 62
     1
 10
69.249704573
 20
50.766219276
 30
0.0
 11
70.399476089
 21
50.86681125
 31
0.0
  0
ARC
  8
0
  6
CONTINUOUS
 62
     1
 10
70.469200684
 20
50.069855491
 30
0.0
 40
0.8
 50
5.0
 51
95.0
  0
LINE
  8
0
  6
CONTINUOUS
 62
     1
 10
73.487679653
 20
51.136994052
 30
0.0
 11
74.63745117
 21
51.237586026
 31
0.0
  0
ARC
  8
0
  6
CONTINUOUS
 62
     1
 10
73.557404248
 20
50.340038294
 30
0.0
 40
0.8
 50
95.0
 51
185.0
  0
LINE
  8
0
  6
CONTINUOUS
 62
     1
 10
71.383446397
 20
48.798949764
 30
0.0
 11
71.266156442
 21
50.139580085
 31
0.0
  0
LINE
  8
0
  6
CONTINUOUS
 62
     1
 10
72.760448489
 20
50.2703137
 30
0.0
 11
72.877738444
 21
48.929683379
 31
0.0
  0
LINE
  8
0
  6
CONTINUOUS
 62
     1
 10
56.473231278
 20
64.060938226
 30
0.0
 11
58.323231278
 21
64.060938226
 31
0.0
  0
LINE
  8
0
  6
CONTINUOUS
 62
     1
 10
58.323231278
 20
64.060938226
 30
0.0
 11
58.323231278
 21
60.380938226
 31
0.0
  0
LINE
  8
0
  6
CONTINUOUS
 62
     1
 10
58.323231278
 20
60.380938226
 30
0.0
 11
56.473231278
 21
60.380938226
 31
0.0
  0
LINE
  8
0
  6
CONTINUOUS
 62
     1
 10
56.473231278
 20
60.380938226
 30
0.0
 11
56.473231278
 21
64.060938226
 31
0.0
  0
LINE
  8
0
  6
CONTINUOUS
 62
     1
 10
102.4
 20
40.0
 30
0.0
 11
105.0
 21
40.0
 31
0.0
  0
LINE
  8
0
  6
CONTINUOUS
 62
     1
 10
102.4
 20
40.0
 30
0.0
 11
102.4
 21
56.0
 31
0.0
  0
LINE
  8
0
  6
CONTINUOUS
 62
     1
 10
102.4
 20
56.0
 30
0.0
 11
94.6
 21
56.0
 31
0.0
  0
LINE
  8
0
  6
CONTINUOUS
 62
     1
 10
94.6
 20
56.0
 30
0.0
 11
94.6
 21
40.0
 31
0.0
  0
LINE
  8
0
  6
CONTINUOUS
 62
     1
 10
94.6
 20
40.0
 30
0.0
 11
92.0
 21
40.0
 31
0.0
  0
LINE
  8
0
  6
CONTINUOUS
 62
     1
 10
92.0
 20
40.0
 30
0.0
 11
92.0
 21
56.0
 31
0.0
  0
LINE
  8
0
  6
CONTINUOUS
 62
     1
 10
92.0
 20
56.0
 30
0.0
 11
84.2
 21
56.0
 31
0.0
  0
LINE
  8
0
  6
CONTINUOUS
 62
     1
 10
84.2
 20
56.0
 30
0.0
 11
84.2
 21
38.0
 31
0.0
  0
LINE
  8
0
  6
CONTINUOUS
 62
     1
 10
84.2
 20
38.0
 30
0.0
 11
81.75
 21
38.0
 31
0.0
  0
LINE
  8
0
  6
CONTINUOUS
 62
     1
 10
102.4
 20
40.0
 30
0.0
 11
94.6
 21
40.0
 31
0.0
  0
LINE
  8
0
  6
CONTINUOUS
 62
     1
 10
92.0
 20
40.0
 30
0.0
 11
84.2
 21
40.0
 31
0.0
  0
LINE
  8
0
  6
CONTINUOUS
 62
     1
 10
102.4
 20
44.6
 30
0.0
 11
94.6
 21
44.6
 31
0.0
  0
LINE
  8
0
  6
CONTINUOUS
 62
     1
 10
92.0
 20
44.6
 30
0.0
 11
84.2
 21
44.6
 31
0.0
  0
LINE
  8
0
  6
CONTINUOUS
 62
     1
 10
84.2
 20
44.6
 30
0.0
 11
84.2
 21
45.6
 31
0.0
  0
LINE
  8
0
  6
CONTINUOUS
 62
     1
 10
84.2
 20
45.6
 30
0.0
 11
92.0
 21
45.6
 31
0.0
  0
LINE
  8
0
  6
CONTINUOUS
 62
     1
 10
94.6
 20
45.6
 30
0.0
 11
102.4
 21
45.6
 31
0.0
  0
LINE
  8
0
  6
CONTINUOUS
 62
     1
 10
102.4
 20
46.6
 30
0.0
 11
94.6
 21
46.6
 31
0.0
  0
LINE
  8
0
  6
CONTINUOUS
 62
     1
 10
92.0
 20
46.6
 30
0.0
 11
84.2
 21
46.6
 31
0.0
  0
LINE
  8
0
  6
CONTINUOUS
 62
     1
 10
84.2
 20
47.1
 30
0.0
 11
92.0
 21
47.1
 31
0.0
  0
LINE
  8
0
  6
CONTINUOUS
 62
     1
 10
94.6
 20
47.1
 30
0.0
 11
102.4
 21
47.1
 31
0.0
  0
CIRCLE
  8
0
  6
CONTINUOUS
 62
     1
 10
98.5
 20
51.5
 30
0.0
 40
2.75
  0
LINE
  8
0
  6
CONTINUOUS
 62
     1
 10
102.075056455
 20
54.499828553
 30
0.0
 11
95.500171447
 21
55.075056455
 31
0.0
  0
LINE
  8
0
  6
CONTINUOUS
 62
     1
 10
95.500171447
 20
55.075056455
 30
0.0
 11
94.924943545
 21
48.500171447
 31
0.0
  0
LINE
  8
0
  6
CONTINUOUS
 62
     1
 10
94.924943545
 20
48.500171447
 30
0.0
 11
101.499828553
 21
47.924943545
 31
0.0
  0
LINE
  8
0
  6
CONTINUOUS
 62
     1
 10
101.499828553
 20
47.924943545
 30
0.0
 11
102.075056455
 21
54.499828553
 31
0.0
  0
LINE
  8
0
  6
CONTINUOUS
 62
     1
 10
98.6
 20
48.2
 30
0.0
 11
98.7
 21
48.8
 31
0.0
  0
LINE
  8
0
  6
CONTINUOUS
 62
     1
 10
97.8
 20
48.3
 30
0.0
 11
97.8
 21
48.9
 31
0.0
  0
LINE
  8
0
  6
CONTINUOUS
 62
     1
 10
99.3
 20
54.15
 30
0.0
 11
99.3
 21
54.75
 31
0.0
  0
LINE
  8
0
  6
CONTINUOUS
 62
     1
 10
98.4
 20
54.25
 30
0.0
 11
98.6
 21
54.85
 31
0.0
  0
LINE
  8
0
  6
CONTINUOUS
 62
     1
 10
101.23745117
 20
51.762413974
 30
0.0
 11
100.087679653
 21
51.863005948
 31
0.0
  0
LINE
  8
0
  6
CONTINUOUS
 62
     1
 10
99.477738444
 20
54.070316621
 30
0.0
 11
99.360448489
 21
52.7296863
 31
0.0
  0
ARC
  8
0
  6
CONTINUOUS
 62
     1
 10
100.157404248
 20
52.659961706
 30
0.0
 40
0.8
 50
175.0
 51
265.0
  0
LINE
  8
0
  6
CONTINUOUS
 62
     1
 10
97.866156442
 20
52.860419915
 30
0.0
 11
97.983446397
 21
54.201050236
 31
0.0
  0
LINE
  8
0
  6
CONTINUOUS
 62
     1
 10
96.999476089
 20
52.13318875
 30
0.0
 11
95.849704573
 21
52.233780724
 31
0.0
  0
ARC
  8
0
  6
CONTINUOUS
 62
     1
 10
97.069200684
 20
52.930144509
 30
0.0
 40
0.8
 50
265.0
 51
355.0
  0
LINE
  8
0
  6
CONTINUOUS
 62
     1
 10
101.150295427
 20
50.766219276
 30
0.0
 11
100.000523911
 21
50.86681125
 31
0.0
  0
ARC
  8
0
  6
CONTINUOUS
 62
     1
 10
99.930799316
 20
50.069855491
 30
0.0
 40
0.8
 50
85.0
 51
175.0
  0
LINE
  8
0
  6
CONTINUOUS
 62
     1
 10
96.912320347
 20
51.136994052
 30
0.0
 11
95.76254883
 21
51.237586026
 31
0.0
  0
ARC
  8
0
  6
CONTINUOUS
 62
     1
 10
96.842595752
 20
50.340038294
 30
0.0
 40
0.8
 50
355.0
 51
85.0
  0
LINE
  8
0
  6
CONTINUOUS
 62
     1
 10
99.016553603
 20
48.798949764
 30
0.0
 11
99.133843558
 21
50.139580085
 31
0.0
  0
LINE
  8
0
  6
CONTINUOUS
 62
     1
 10
97.639551511
 20
50.2703137
 30
0.0
 11
97.522261556
 21
48.929683379
 31
0.0
  0
CIRCLE
  8
0
  6
CONTINUOUS
 62
     1
 10
88.1
 20
51.5
 30
0.0
 40
2.75
  0
LINE
  8
0
  6
CONTINUOUS
 62
     1
 10
91.675056455
 20
54.499828553
 30
0.0
 11
85.100171447
 21
55.075056455
 31
0.0
  0
LINE
  8
0
  6
CONTINUOUS
 62
     1
 10
85.100171447
 20
55.075056455
 30
0.0
 11
84.524943545
 21
48.500171447
 31
0.0
  0
LINE
  8
0
  6
CONTINUOUS
 62
     1
 10
84.524943545
 20
48.500171447
 30
0.0
 11
91.099828553
 21
47.924943545
 31
0.0
  0
LINE
  8
0
  6
CONTINUOUS
 62
     1
 10
91.099828553
 20
47.924943545
 30
0.0
 11
91.675056455
 21
54.499828553
 31
0.0
  0
LINE
  8
0
  6
CONTINUOUS
 62
     1
 10
88.2
 20
48.2
 30
0.0
 11
88.3
 21
48.8
 31
0.0
  0
LINE
  8
0
  6
CONTINUOUS
 62
     1
 10
87.4
 20
48.3
 30
0.0
 11
87.4
 21
48.9
 31
0.0
  0
LINE
  8
0
  6
CONTINUOUS
 62
     1
 10
88.9
 20
54.15
 30
0.0
 11
88.9
 21
54.75
 31
0.0
  0
LINE
  8
0
  6
CONTINUOUS
 62
     1
 10
88.0
 20
54.25
 30
0.0
 11
88.2
 21
54.85
 31
0.0
  0
LINE
  8
0
  6
CONTINUOUS
 62
     1
 10
90.83745117
 20
51.762413974
 30
0.0
 11
89.687679653
 21
51.863005948
 31
0.0
  0
LINE
  8
0
  6
CONTINUOUS
 62
     1
 10
89.077738444
 20
54.070316621
 30
0.0
 11
88.960448489
 21
52.7296863
 31
0.0
  0
ARC
  8
0
  6
CONTINUOUS
 62
     1
 10
89.757404248
 20
52.659961706
 30
0.0
 40
0.8
 50
175.0
 51
265.0
  0
LINE
  8
0
  6
CONTINUOUS
 62
     1
 10
87.466156442
 20
52.860419915
 30
0.0
 11
87.583446397
 21
54.201050236
 31
0.0
  0
LINE
  8
0
  6
CONTINUOUS
 62
     1
 10
86.599476089
 20
52.13318875
 30
0.0
 11
85.449704573
 21
52.233780724
 31
0.0
  0
ARC
  8
0
  6
CONTINUOUS
 62
     1
 10
86.669200684
 20
52.930144509
 30
0.0
 40
0.8
 50
265.0
 51
355.0
  0
LINE
  8
0
  6
CONTINUOUS
 62
     1
 10
90.750295427
 20
50.766219276
 30
0.0
 11
89.600523911
 21
50.86681125
 31
0.0
  0
ARC
  8
0
  6
CONTINUOUS
 62
     1
 10
89.530799316
 20
50.069855491
 30
0.0
 40
0.8
 50
85.0
 51
175.0
  0
LINE
  8
0
  6
CONTINUOUS
 62
     1
 10
86.512320347
 20
51.136994052
 30
0.0
 11
85.36254883
 21
51.237586026
 31
0.0
  0
ARC
  8
0
  6
CONTINUOUS
 62
     1
 10
86.442595752
 20
50.340038294
 30
0.0
 40
0.8
 50
355.0
 51
85.0
  0
LINE
  8
0
  6
CONTINUOUS
 62
     1
 10
88.616553603
 20
48.798949764
 30
0.0
 11
88.733843558
 21
50.139580085
 31
0.0
  0
LINE
  8
0
  6
CONTINUOUS
 62
     1
 10
87.239551511
 20
50.2703137
 30
0.0
 11
87.122261556
 21
48.929683379
 31
0.0
  0
LINE
  8
0
  6
CONTINUOUS
 62
     1
 10
101.676768722
 20
60.380938226
 30
0.0
 11
103.526768722
 21
60.380938226
 31
0.0
  0
LINE
  8
0
  6
CONTINUOUS
 62
     1
 10
78.25
 20
38.0
 30
0.0
 11
81.75
 21
38.0
 31
0.0
  0
LINE
  8
0
  6
CONTINUOUS
 62
     1
 10
78.25
 20
48.5
 30
0.0
 11
81.75
 21
48.4
 31
0.0
  0
LINE
  8
0
  6
CONTINUOUS
 62
     1
 10
78.25
 20
50.6
 30
0.0
 11
81.75
 21
50.6
 31
0.0
  0
LINE
  8
0
  6
CONTINUOUS
 62
     1
 10
78.25
 20
40.2
 30
0.0
 11
81.75
 21
40.2
 31
0.0
  0
CIRCLE
  8
0
  6
CONTINUOUS
 62
     1
 10
60.0
 20
78.0
 30
0.0
 40
2.25
  0
LINE
  8
0
  6
CONTINUOUS
 62
     1
 10
66.0
 20
40.0
 30
0.0
 11
66.0
 21
39.5
 31
0.0
  0
LINE
  8
0
  6
CONTINUOUS
 62
     1
 10
66.0
 20
39.5
 30
0.0
 11
67.5
 21
38.0
 31
0.0
  0
LINE
  8
0
  6
CONTINUOUS
 62
     1
 10
67.5
 20
38.0
 30
0.0
 11
74.5
 21
38.0
 31
0.0
  0
LINE
  8
0
  6
CONTINUOUS
 62
     1
 10
74.5
 20
38.0
 30
0.0
 11
74.5
 21
36.0
 31
0.0
  0
LINE
  8
0
  6
CONTINUOUS
 62
     1
 10
74.5
 20
36.0
 30
0.0
 11
77.5
 21
34.0
 31
0.0
  0
LINE
  8
0
  6
CONTINUOUS
 62
     1
 10
77.5
 20
34.0
 30
0.0
 11
82.5
 21
34.0
 31
0.0
  0
LINE
  8
0
  6
CONTINUOUS
 62
     1
 10
82.5
 20
34.0
 30
0.0
 11
85.5
 21
36.0
 31
0.0
  0
LINE
  8
0
  6
CONTINUOUS
 62
     1
 10
85.5
 20
36.0
 30
0.0
 11
85.5
 21
38.0
 31
0.0
  0
LINE
  8
0
  6
CONTINUOUS
 62
     1
 10
85.5
 20
38.0
 30
0.0
 11
92.5
 21
38.0
 31
0.0
  0
LINE
  8
0
  6
CONTINUOUS
 62
     1
 10
92.5
 20
38.0
 30
0.0
 11
94.0
 21
39.5
 31
0.0
  0
LINE
  8
0
  6
CONTINUOUS
 62
     1
 10
94.0
 20
39.5
 30
0.0
 11
94.0
 21
40.0
 31
0.0
  0
LINE
  8
0
  6
CONTINUOUS
 62
     1
 10
76.5
 20
38.0
 30
0.0
 11
76.5
 21
37.0
 31
0.0
  0
LINE
  8
0
  6
CONTINUOUS
 62
     1
 10
76.5
 20
37.0
 30
0.0
 11
78.0
 21
37.0
 31
0.0
  0
LINE
  8
0
  6
CONTINUOUS
 62
     1
 10
82.0
 20
37.0
 30
0.0
 11
83.5
 21
37.0
 31
0.0
  0
LINE
  8
0
  6
CONTINUOUS
 62
     1
 10
83.5
 20
37.0
 30
0.0
 11
83.5
 21
38.0
 31
0.0
  0
ARC
  8
0
  6
CONTINUOUS
 62
     1
 10
80.0
 20
37.0
 30
0.0
 40
2.0
 50
180.0
 51
0.0
  0
LINE
  8
0
  6
CONTINUOUS
 62
     1
 10
57.6
 20
41.5
 30
0.0
 11
55.0
 21
41.5
 31
0.0
  0
LINE
  8
0
  6
CONTINUOUS
 62
     1
 10
102.4
 20
41.5
 30
0.0
 11
105.0
 21
41.5
 31
0.0
  0
LINE
  8
0
  6
CONTINUOUS
 62
     1
 10
75.8
 20
39.5
 30
0.0
 11
78.25
 21
39.5
 31
0.0
  0
LINE
  8
0
  6
CONTINUOUS
 62
     1
 10
81.75
 20
39.5
 30
0.0
 11
84.25
 21
39.5
 31
0.0
  0
LINE
  8
0
  6
CONTINUOUS
 62
     1
 10
57.6
 20
114.5
 30
0.0
 11
55.0
 21
114.5
 31
0.0
  0
LINE
  8
0
  6
CONTINUOUS
 62
     1
 10
75.8
 20
116.5
 30
0.0
 11
78.25
 21
116.5
 31
0.0
  0
LINE
  8
0
  6
CONTINUOUS
 62
     1
 10
81.75
 20
116.5
 30
0.0
 11
84.25
 21
116.5
 31
0.0
  0
LINE
  8
0
  6
CONTINUOUS
 62
     1
 10
92.0
 20
114.5
 30
0.0
 11
94.6
 21
114.5
 31
0.0
  0
LINE
  8
0
  6
CONTINUOUS
 62
     1
 10
102.4
 20
114.5
 30
0.0
 11
105.0
 21
114.5
 31
0.0
  0
LINE
  8
0
  6
CONTINUOUS
 62
     1
 10
57.6
 20
56.0
 30
0.0
 11
65.4
 21
56.0
 31
0.0
  0
LINE
  8
0
  6
CONTINUOUS
 62
     1
 10
58.500171447
 20
63.924943545
 30
0.0
 11
57.924943545
 21
70.499828553
 31
0.0
  0
LINE
  8
0
  6
CONTINUOUS
 62
     1
 10
61.4
 20
64.2
 30
0.0
 11
61.3
 21
64.8
 31
0.0
  0
LINE
  8
0
  6
CONTINUOUS
 62
     1
 10
62.2
 20
64.3
 30
0.0
 11
62.2
 21
64.9
 31
0.0
  0
LINE
  8
0
  6
CONTINUOUS
 62
     1
 10
60.7
 20
70.15
 30
0.0
 11
60.7
 21
70.75
 31
0.0
  0
LINE
  8
0
  6
CONTINUOUS
 62
     1
 10
61.6
 20
70.25
 30
0.0
 11
61.4
 21
70.85
 31
0.0
  0
LINE
  8
0
  6
CONTINUOUS
 62
     1
 10
58.76254883
 20
67.762413974
 30
0.0
 11
59.912320347
 21
67.863005948
 31
0.0
  0
LINE
  8
0
  6
CONTINUOUS
 62
     1
 10
60.522261556
 20
70.070316621
 30
0.0
 11
60.639551511
 21
68.7296863
 31
0.0
  0
ARC
  8
0
  6
CONTINUOUS
 62
     1
 10
59.842595752
 20
68.659961706
 30
0.0
 40
0.8
 50
275.0
 51
5.0
  0
LINE
  8
0
  6
CONTINUOUS
 62
     1
 10
62.133843558
 20
68.860419915
 30
0.0
 11
62.016553603
 21
70.201050236
 31
0.0
  0
ARC
  8
0
  6
CONTINUOUS
 62
     1
 10
62.930799316
 20
68.930144509
 30
0.0
 40
0.8
 50
185.0
 51
275.0
  0
LINE
  8
0
  6
CONTINUOUS
 62
     1
 10
58.849704573
 20
66.766219276
 30
0.0
 11
59.999476089
 21
66.86681125
 31
0.0
  0
ARC
  8
0
  6
CONTINUOUS
 62
     1
 10
60.069200684
 20
66.069855491
 30
0.0
 40
0.8
 50
5.0
 51
95.0
  0
LINE
  8
0
  6
CONTINUOUS
 62
     1
 10
60.983446397
 20
64.798949764
 30
0.0
 11
60.866156442
 21
66.139580085
 31
0.0
  0
LINE
  8
0
  6
CONTINUOUS
 62
     1
 10
62.360448489
 20
66.2703137
 30
0.0
 11
62.477738444
 21
64.929683379
 31
0.0
  0
LINE
  8
0
  6
CONTINUOUS
 62
     1
 10
94.6
 20
56.0
 30
0.0
 11
102.4
 21
56.0
 31
0.0
  0
LINE
  8
0
  6
CONTINUOUS
 62
     1
 10
102.4
 20
100.0
 30
0.0
 11
94.6
 21
100.0
 31
0.0
  0
LINE
  8
0
  6
CONTINUOUS
 62
     1
 10
58.323231278
 20
60.6
 30
0.0
 11
65.4
 21
60.6
 31
0.0
  0
LINE
  8
0
  6
CONTINUOUS
 62
     1
 10
57.6
 20
64.060938226
 30
0.0
 11
57.6
 21
72.0
 31
0.0
  0
LINE
  8
0
  6
CONTINUOUS
 62
     1
 10
57.6
 20
56.0
 30
0.0
 11
57.6
 21
60.380938226
 31
0.0
  0
LINE
  8
0
  6
CONTINUOUS
 62
     1
 10
102.4
 20
60.380938226
 30
0.0
 11
102.4
 21
56.0
 31
0.0
  0
LINE
  8
0
  6
CONTINUOUS
 62
     1
 10
94.6
 20
60.6
 30
0.0
 11
101.676768722
 21
60.6
 31
0.0
  0
LINE
  8
0
  6
CONTINUOUS
 62
     1
 10
55.0
 20
52.4
 30
0.0
 11
57.6
 21
52.4
 31
0.0
  0
LINE
  8
0
  6
CONTINUOUS
 62
     1
 10
65.4
 20
52.4
 30
0.0
 11
68.0
 21
52.4
 31
0.0
  0
LINE
  8
0
  6
CONTINUOUS
 62
     1
 10
75.8
 20
52.4
 30
0.0
 11
78.25
 21
52.4
 31
0.0
  0
LINE
  8
0
  6
CONTINUOUS
 62
     1
 10
81.75
 20
52.4
 30
0.0
 11
84.2
 21
52.4
 31
0.0
  0
LINE
  8
0
  6
CONTINUOUS
 62
     1
 10
92.0
 20
52.4
 30
0.0
 11
94.6
 21
52.4
 31
0.0
  0
LINE
  8
0
  6
CONTINUOUS
 62
     1
 10
102.4
 20
52.4
 30
0.0
 11
105.0
 21
52.4
 31
0.0
  0
LINE
  8
0
  6
CONTINUOUS
 62
     1
 10
57.6
 20
64.4
 30
0.0
 11
55.0
 21
64.4
 31
0.0
  0
LINE
  8
0
  6
CONTINUOUS
 62
     1
 10
58.5
 20
56.0
 30
0.0
 11
57.6
 21
56.0
 31
0.0
  0
LINE
  8
0
  6
CONTINUOUS
 62
     1
 10
55.0
 20
103.6
 30
0.0
 11
57.6
 21
103.6
 31
0.0
  0
LINE
  8
0
  6
CONTINUOUS
 62
     1
 10
65.4
 20
103.6
 30
0.0
 11
68.0
 21
103.6
 31
0.0
  0
LINE
  8
0
  6
CONTINUOUS
 62
     1
 10
75.8
 20
103.6
 30
0.0
 11
78.25
 21
103.6
 31
0.0
  0
LINE
  8
0
  6
CONTINUOUS
 62
     1
 10
81.75
 20
103.6
 30
0.0
 11
84.2
 21
103.6
 31
0.0
  0
LINE
  8
0
  6
CONTINUOUS
 62
     1
 10
92.0
 20
103.6
 30
0.0
 11
94.6
 21
103.6
 31
0.0
  0
LINE
  8
0
  6
CONTINUOUS
 62
     1
 10
102.4
 20
103.6
 30
0.0
 11
105.0
 21
103.6
 31
0.0
  0
LINE
  8
0
  6
CONTINUOUS
 62
     1
 10
57.6
 20
91.6
 30
0.0
 11
55.0
 21
91.6
 31
0.0
  0
LINE
  8
0
  6
CONTINUOUS
 62
     1
 10
57.6
 20
91.939061774
 30
0.0
 11
57.6
 21
91.6
 31
0.0
  0
LINE
  8
0
  6
CONTINUOUS
 62
     1
 10
57.6
 20
116.0
 30
0.0
 11
57.6
 21
95.619061774
 31
0.0
  0
LINE
  8
0
  6
CONTINUOUS
 62
     1
 10
55.0
 20
116.0
 30
0.0
 11
55.0
 21
40.0
 31
0.0
  0
LINE
  8
0
  6
CONTINUOUS
 62
     1
 10
84.2
 20
78.0
 30
0.0
 11
84.1
 21
78.7
 31
0.0
  0
LINE
  8
0
  6
CONTINUOUS
 62
     1
 10
84.1
 20
78.7
 30
0.0
 11
83.9
 21
79.4
 31
0.0
  0
LINE
  8
0
  6
CONTINUOUS
 62
     1
 10
83.9
 20
79.4
 30
0.0
 11
83.6
 21
80.1
 31
0.0
  0
LINE
  8
0
  6
CONTINUOUS
 62
     1
 10
83.6
 20
80.1
 30
0.0
 11
83.2
 21
80.7
 31
0.0
  0
LINE
  8
0
  6
CONTINUOUS
 62
     1
 10
83.2
 20
80.7
 30
0.0
 11
82.7
 21
81.2
 31
0.0
  0
LINE
  8
0
  6
CONTINUOUS
 62
     1
 10
81.4
 20
81.9
 30
0.0
 11
80.7
 21
82.1
 31
0.0
  0
LINE
  8
0
  6
CONTINUOUS
 62
     1
 10
80.7
 20
82.1
 30
0.0
 11
80.0
 21
82.2
 31
0.0
  0
LINE
  8
0
  6
CONTINUOUS
 62
     1
 10
80.0
 20
82.2
 30
0.0
 11
79.3
 21
82.1
 31
0.0
  0
LINE
  8
0
  6
CONTINUOUS
 62
     1
 10
79.3
 20
82.1
 30
0.0
 11
78.6
 21
81.9
 31
0.0
  0
LINE
  8
0
  6
CONTINUOUS
 62
     1
 10
76.1
 20
79.4
 30
0.0
 11
75.9
 21
78.7
 31
0.0
  0
LINE
  8
0
  6
CONTINUOUS
 62
     1
 10
75.9
 20
78.7
 30
0.0
 11
75.8
 21
78.0
 31
0.0
  0
LINE
  8
0
  6
CONTINUOUS
 62
     1
 10
75.8
 20
78.0
 30
0.0
 11
75.9
 21
77.3
 31
0.0
  0
LINE
  8
0
  6
CONTINUOUS
 62
     1
 10
75.9
 20
77.3
 30
0.0
 11
76.1
 21
76.6
 31
0.0
  0
LINE
  8
0
  6
CONTINUOUS
 62
     1
 10
76.1
 20
76.6
 30
0.0
 11
76.4
 21
75.9
 31
0.0
  0
LINE
  8
0
  6
CONTINUOUS
 62
     1
 10
76.4
 20
75.9
 30
0.0
 11
76.8
 21
75.3
 31
0.0
  0
LINE
  8
0
  6
CONTINUOUS
 62
     1
 10
77.3
 20
74.8
 30
0.0
 11
77.9
 21
74.4
 31
0.0
  0
LINE
  8
0
  6
CONTINUOUS
 62
     1
 10
82.1
 20
74.4
 30
0.0
 11
82.7
 21
74.8
 31
0.0
  0
LINE
  8
0
  6
CONTINUOUS
 62
     1
 10
82.7
 20
74.8
 30
0.0
 11
83.2
 21
75.3
 31
0.0
  0
LINE
  8
0
  6
CONTINUOUS
 62
     1
 10
83.2
 20
75.3
 30
0.0
 11
83.6
 21
75.9
 31
0.0
  0
LINE
  8
0
  6
CONTINUOUS
 62
     1
 10
83.6
 20
75.9
 30
0.0
 11
83.9
 21
76.6
 31
0.0
  0
LINE
  8
0
  6
CONTINUOUS
 62
     1
 10
83.9
 20
76.6
 30
0.0
 11
84.1
 21
77.3
 31
0.0
  0
LINE
  8
0
  6
CONTINUOUS
 62
     1
 10
84.1
 20
77.3
 30
0.0
 11
84.2
 21
77.9
 31
0.0
  0
ARC
  8
0
  6
CONTINUOUS
 62
     1
 10
80.0
 20
73.8
 30
0.0
 40
1.3
 50
166.0
 51
0.0
  0
ARC
  8
0
  6
CONTINUOUS
 62
     1
 10
80.0
 20
73.8
 30
0.0
 40
1.3
 50
0.0
 51
13.0
  0
LINE
  8
0
  6
CONTINUOUS
 62
     1
 10
76.8
 20
75.3
 30
0.0
 11
77.3
 21
74.8
 31
0.0
  0
LINE
  8
0
  6
CONTINUOUS
 62
     1
 10
81.4
 20
74.1
 30
0.0
 11
82.1
 21
74.4
 31
0.0
  0
LINE
  8
0
  6
CONTINUOUS
 62
     1
 10
81.3
 20
74.1
 30
0.0
 11
81.4
 21
74.1
 31
0.0
  0
LINE
  8
0
  6
CONTINUOUS
 62
     1
 10
77.9
 20
74.4
 30
0.0
 11
78.6
 21
74.1
 31
0.0
  0
LINE
  8
0
  6
CONTINUOUS
 62
     1
 10
78.6
 20
74.1
 30
0.0
 11
78.7
 21
74.1
 31
0.0
  0
LINE
  8
0
  6
CONTINUOUS
 62
     1
 10
82.7
 20
81.2
 30
0.0
 11
82.1
 21
81.6
 31
0.0
  0
LINE
  8
0
  6
CONTINUOUS
 62
     1
 10
82.1
 20
81.6
 30
0.0
 11
81.4
 21
81.9
 31
0.0
  0
CIRCLE
  8
0
  6
CONTINUOUS
 62
     1
 10
80.0
 20
78.0
 30
0.0
 40
5.5
  0
LINE
  8
0
  6
CONTINUOUS
 62
     1
 10
78.6
 20
81.9
 30
0.0
 11
77.9
 21
81.6
 31
0.0
  0
LINE
  8
0
  6
CONTINUOUS
 62
     1
 10
77.9
 20
81.6
 30
0.0
 11
77.3
 21
81.2
 31
0.0
  0
LINE
  8
0
  6
CONTINUOUS
 62
     1
 10
77.3
 20
81.2
 30
0.0
 11
76.8
 21
80.7
 31
0.0
  0
LINE
  8
0
  6
CONTINUOUS
 62
     1
 10
76.8
 20
80.7
 30
0.0
 11
76.4
 21
80.1
 31
0.0
  0
LINE
  8
0
  6
CONTINUOUS
 62
     1
 10
76.4
 20
80.1
 30
0.0
 11
76.1
 21
79.4
 31
0.0
  0
CIRCLE
  8
0
  6
CONTINUOUS
 62
     1
 10
80.0
 20
78.0
 30
0.0
 40
14.5
  0
LINE
  8
0
  6
CONTINUOUS
 62
     1
 10
78.25
 20
118.0
 30
0.0
 11
78.25
 21
94.4
 31
0.0
  0
LINE
  8
0
  6
CONTINUOUS
 62
     1
 10
78.25
 20
94.4
 30
0.0
 11
80.0
 21
94.4
 31
0.0
  0
LINE
  8
0
  6
CONTINUOUS
 62
     1
 10
81.75
 20
118.0
 30
0.0
 11
81.75
 21
94.4
 31
0.0
  0
LINE
  8
0
  6
CONTINUOUS
 62
     1
 10
81.75
 20
94.4
 30
0.0
 11
80.0
 21
94.4
 31
0.0
  0
LINE
  8
0
  6
CONTINUOUS
 62
     1
 10
103.526768722
 20
91.939061774
 30
0.0
 11
101.676768722
 21
91.939061774
 31
0.0
  0
LINE
  8
0
  6
CONTINUOUS
 62
     1
 10
101.676768722
 20
91.939061774
 30
0.0
 11
101.676768722
 21
95.619061774
 31
0.0
  0
LINE
  8
0
  6
CONTINUOUS
 62
     1
 10
101.676768722
 20
95.619061774
 30
0.0
 11
103.526768722
 21
95.619061774
 31
0.0
  0
LINE
  8
0
  6
CONTINUOUS
 62
     1
 10
103.526768722
 20
95.619061774
 30
0.0
 11
103.526768722
 21
91.939061774
 31
0.0
  0
LINE
  8
0
  6
CONTINUOUS
 62
     1
 10
78.25
 20
38.0
 30
0.0
 11
78.25
 21
61.6
 31
0.0
  0
LINE
  8
0
  6
CONTINUOUS
 62
     1
 10
78.25
 20
61.6
 30
0.0
 11
80.0
 21
61.6
 31
0.0
  0
LINE
  8
0
  6
CONTINUOUS
 62
     1
 10
81.75
 20
38.0
 30
0.0
 11
81.75
 21
61.6
 31
0.0
  0
LINE
  8
0
  6
CONTINUOUS
 62
     1
 10
81.75
 20
61.6
 30
0.0
 11
80.0
 21
61.6
 31
0.0
  0
LINE
  8
0
  6
CONTINUOUS
 62
     1
 10
103.526768722
 20
64.060938226
 30
0.0
 11
101.676768722
 21
64.060938226
 31
0.0
  0
LINE
  8
0
  6
CONTINUOUS
 62
     1
 10
101.676768722
 20
64.060938226
 30
0.0
 11
101.676768722
 21
60.380938226
 31
0.0
  0
LINE
  8
0
  6
CONTINUOUS
 62
     1
 10
103.526768722
 20
60.380938226
 30
0.0
 11
103.526768722
 21
64.060938226
 31
0.0
  0
LINE
  8
0
  6
CONTINUOUS
 62
     1
 10
63.0
 20
73.75
 30
0.0
 11
55.0
 21
73.75
 31
0.0
  0
ARC
  8
0
  6
CONTINUOUS
 62
     1
 10
63.0
 20
74.75
 30
0.0
 40
1.0
 50
270.0
 51
360.0
  0
LINE
  8
0
  6
CONTINUOUS
 62
     1
 10
55.0
 20
82.25
 30
0.0
 11
63.0
 21
82.25
 31
0.0
  0
LINE
  8
0
  6
CONTINUOUS
 62
     1
 10
64.0
 20
81.25
 30
0.0
 11
64.0
 21
74.75
 31
0.0
  0
ARC
  8
0
  6
CONTINUOUS
 62
     1
 10
63.0
 20
81.25
 30
0.0
 40
1.0
 50
0.0
 51
90.0
  0
LINE
  8
0
  6
CONTINUOUS
 62
     1
 10
97.0
 20
73.75
 30
0.0
 11
105.0
 21
73.75
 31
0.0
  0
ARC
  8
0
  6
CONTINUOUS
 62
     1
 10
97.0
 20
74.75
 30
0.0
 40
1.0
 50
180.0
 51
270.0
  0
LINE
  8
0
  6
CONTINUOUS
 62
     1
 10
105.0
 20
82.25
 30
0.0
 11
97.0
 21
82.25
 31
0.0
  0
LINE
  8
0
  6
CONTINUOUS
 62
     1
 10
96.0
 20
81.25
 30
0.0
 11
96.0
 21
74.75
 31
0.0
  0
ARC
  8
0
  6
CONTINUOUS
 62
     1
 10
97.0
 20
81.25
 30
0.0
 40
1.0
 50
90.0
 51
180.0
  0
CIRCLE
  8
0
  6
CONTINUOUS
 62
     1
 10
100.0
 20
78.0
 30
0.0
 40
2.25
  0
LINE
  8
0
  6
CONTINUOUS
 62
     1
 10
57.6
 20
72.0
 30
0.0
 11
65.4
 21
72.0
 31
0.0
  0
LINE
  8
0
  6
CONTINUOUS
 62
     1
 10
65.4
 20
72.0
 30
0.0
 11
65.4
 21
56.0
 31
0.0
  0
CIRCLE
  8
0
  6
CONTINUOUS
 62
     1
 10
61.5
 20
67.5
 30
0.0
 40
2.75
  0
LINE
  8
0
  6
CONTINUOUS
 62
     1
 10
57.924943545
 20
70.499828553
 30
0.0
 11
64.499828553
 21
71.075056455
 31
0.0
  0
LINE
  8
0
  6
CONTINUOUS
 62
     1
 10
64.499828553
 20
71.075056455
 30
0.0
 11
65.075056455
 21
64.500171447
 31
0.0
  0
LINE
  8
0
  6
CONTINUOUS
 62
     1
 10
65.075056455
 20
64.500171447
 30
0.0
 11
58.500171447
 21
63.924943545
 31
0.0
  0
LINE
  8
0
  6
CONTINUOUS
 62
     1
 10
63.000523911
 20
68.13318875
 30
0.0
 11
64.150295427
 21
68.233780724
 31
0.0
  0
LINE
  8
0
  6
CONTINUOUS
 62
     1
 10
63.087679653
 20
67.136994052
 30
0.0
 11
64.23745117
 21
67.237586026
 31
0.0
  0
ARC
  8
0
  6
CONTINUOUS
 62
     1
 10
63.157404248
 20
66.340038294
 30
0.0
 40
0.8
 50
95.0
 51
185.0
  0
LINE
  8
0
  6
CONTINUOUS
 62
     1
 10
94.6
 20
56.0
 30
0.0
 11
94.6
 21
72.0
 31
0.0
  0
LINE
  8
0
  6
CONTINUOUS
 62
     1
 10
94.6
 20
72.0
 30
0.0
 11
102.4
 21
72.0
 31
0.0
  0
CIRCLE
  8
0
  6
CONTINUOUS
 62
     1
 10
98.5
 20
67.5
 30
0.0
 40
2.75
  0
LINE
  8
0
  6
CONTINUOUS
 62
     1
 10
94.924943545
 20
70.499828553
 30
0.0
 11
101.499828553
 21
71.075056455
 31
0.0
  0
LINE
  8
0
  6
CONTINUOUS
 62
     1
 10
101.499828553
 20
71.075056455
 30
0.0
 11
102.075056455
 21
64.500171447
 31
0.0
  0
LINE
  8
0
  6
CONTINUOUS
 62
     1
 10
102.075056455
 20
64.500171447
 30
0.0
 11
95.500171447
 21
63.924943545
 31
0.0
  0
LINE
  8
0
  6
CONTINUOUS
 62
     1
 10
95.500171447
 20
63.924943545
 30
0.0
 11
94.924943545
 21
70.499828553
 31
0.0
  0
LINE
  8
0
  6
CONTINUOUS
 62
     1
 10
98.4
 20
64.2
 30
0.0
 11
98.3
 21
64.8
 31
0.0
  0
LINE
  8
0
  6
CONTINUOUS
 62
     1
 10
99.2
 20
64.3
 30
0.0
 11
99.2
 21
64.9
 31
0.0
  0
LINE
  8
0
  6
CONTINUOUS
 62
     1
 10
97.7
 20
70.15
 30
0.0
 11
97.7
 21
70.75
 31
0.0
  0
LINE
  8
0
  6
CONTINUOUS
 62
     1
 10
98.6
 20
70.25
 30
0.0
 11
98.4
 21
70.85
 31
0.0
  0
LINE
  8
0
  6
CONTINUOUS
 62
     1
 10
95.76254883
 20
67.762413974
 30
0.0
 11
96.912320347
 21
67.863005948
 31
0.0
  0
LINE
  8
0
  6
CONTINUOUS
 62
     1
 10
97.522261556
 20
70.070316621
 30
0.0
 11
97.639551511
 21
68.7296863
 31
0.0
  0
ARC
  8
0
  6
CONTINUOUS
 62
     1
 10
96.842595752
 20
68.659961706
 30
0.0
 40
0.8
 50
275.0
 51
5.0
  0
LINE
  8
0
  6
CONTINUOUS
 62
     1
 10
99.133843558
 20
68.860419915
 30
0.0
 11
99.016553603
 21
70.201050236
 31
0.0
  0
LINE
  8
0
  6
CONTINUOUS
 62
     1
 10
100.000523911
 20
68.13318875
 30
0.0
 11
101.150295427
 21
68.233780724
 31
0.0
  0
ARC
  8
0
  6
CONTINUOUS
 62
     1
 10
99.930799316
 20
68.930144509
 30
0.0
 40
0.8
 50
185.0
 51
275.0
  0
LINE
  8
0
  6
CONTINUOUS
 62
     1
 10
95.849704573
 20
66.766219276
 30
0.0
 11
96.999476089
 21
66.86681125
 31
0.0
  0
ARC
  8
0
  6
CONTINUOUS
 62
     1
 10
97.069200684
 20
66.069855491
 30
0.0
 40
0.8
 50
5.0
 51
95.0
  0
LINE
  8
0
  6
CONTINUOUS
 62
     1
 10
100.087679653
 20
67.136994052
 30
0.0
 11
101.23745117
 21
67.237586026
 31
0.0
  0
ARC
  8
0
  6
CONTINUOUS
 62
     1
 10
100.157404248
 20
66.340038294
 30
0.0
 40
0.8
 50
95.0
 51
185.0
  0
LINE
  8
0
  6
CONTINUOUS
 62
     1
 10
97.983446397
 20
64.798949764
 30
0.0
 11
97.866156442
 21
66.139580085
 31
0.0
  0
LINE
  8
0
  6
CONTINUOUS
 62
     1
 10
99.360448489
 20
66.2703137
 30
0.0
 11
99.477738444
 21
64.929683379
 31
0.0
  0
LINE
  8
0
  6
CONTINUOUS
 62
     1
 10
102.4
 20
84.0
 30
0.0
 11
94.6
 21
84.0
 31
0.0
  0
LINE
  8
0
  6
CONTINUOUS
 62
     1
 10
94.6
 20
84.0
 30
0.0
 11
94.6
 21
100.0
 31
0.0
  0
CIRCLE
  8
0
  6
CONTINUOUS
 62
     1
 10
98.5
 20
88.5
 30
0.0
 40
2.75
  0
LINE
  8
0
  6
CONTINUOUS
 62
     1
 10
102.075056455
 20
85.500171447
 30
0.0
 11
95.500171447
 21
84.924943545
 31
0.0
  0
LINE
  8
0
  6
CONTINUOUS
 62
     1
 10
95.500171447
 20
84.924943545
 30
0.0
 11
94.924943545
 21
91.499828553
 31
0.0
  0
LINE
  8
0
  6
CONTINUOUS
 62
     1
 10
94.924943545
 20
91.499828553
 30
0.0
 11
101.499828553
 21
92.075056455
 31
0.0
  0
LINE
  8
0
  6
CONTINUOUS
 62
     1
 10
101.499828553
 20
92.075056455
 30
0.0
 11
102.075056455
 21
85.500171447
 31
0.0
  0
LINE
  8
0
  6
CONTINUOUS
 62
     1
 10
98.6
 20
91.8
 30
0.0
 11
98.7
 21
91.2
 31
0.0
  0
LINE
  8
0
  6
CONTINUOUS
 62
     1
 10
97.8
 20
91.7
 30
0.0
 11
97.8
 21
91.1
 31
0.0
  0
LINE
  8
0
  6
CONTINUOUS
 62
     1
 10
99.3
 20
85.85
 30
0.0
 11
99.3
 21
85.25
 31
0.0
  0
LINE
  8
0
  6
CONTINUOUS
 62
     1
 10
98.4
 20
85.75
 30
0.0
 11
98.6
 21
85.15
 31
0.0
  0
LINE
  8
0
  6
CONTINUOUS
 62
     1
 10
101.23745117
 20
88.237586026
 30
0.0
 11
100.087679653
 21
88.136994052
 31
0.0
  0
LINE
  8
0
  6
CONTINUOUS
 62
     1
 10
99.477738444
 20
85.929683379
 30
0.0
 11
99.360448489
 21
87.2703137
 31
0.0
  0
ARC
  8
0
  6
CONTINUOUS
 62
     1
 10
100.157404248
 20
87.340038294
 30
0.0
 40
0.8
 50
95.0
 51
185.0
  0
LINE
  8
0
  6
CONTINUOUS
 62
     1
 10
97.866156442
 20
87.139580085
 30
0.0
 11
97.983446397
 21
85.798949764
 31
0.0
  0
LINE
  8
0
  6
CONTINUOUS
 62
     1
 10
96.999476089
 20
87.86681125
 30
0.0
 11
95.849704573
 21
87.766219276
 31
0.0
  0
ARC
  8
0
  6
CONTINUOUS
 62
     1
 10
97.069200684
 20
87.069855491
 30
0.0
 40
0.8
 50
5.0
 51
95.0
  0
LINE
  8
0
  6
CONTINUOUS
 62
     1
 10
101.150295427
 20
89.233780724
 30
0.0
 11
100.000523911
 21
89.13318875
 31
0.0
  0
ARC
  8
0
  6
CONTINUOUS
 62
     1
 10
99.930799316
 20
89.930144509
 30
0.0
 40
0.8
 50
185.0
 51
275.0
  0
LINE
  8
0
  6
CONTINUOUS
 62
     1
 10
96.912320347
 20
88.863005948
 30
0.0
 11
95.76254883
 21
88.762413974
 31
0.0
  0
ARC
  8
0
  6
CONTINUOUS
 62
     1
 10
96.842595752
 20
89.659961706
 30
0.0
 40
0.8
 50
275.0
 51
5.0
  0
LINE
  8
0
  6
CONTINUOUS
 62
     1
 10
99.016553603
 20
91.201050236
 30
0.0
 11
99.133843558
 21
89.860419915
 31
0.0
  0
LINE
  8
0
  6
CONTINUOUS
 62
     1
 10
97.639551511
 20
89.7296863
 30
0.0
 11
97.522261556
 21
91.070316621
 31
0.0
  0
LINE
  8
0
  6
CONTINUOUS
 62
     1
 10
65.4
 20
63.1
 30
0.0
 11
58.323231278
 21
63.1
 31
0.0
  0
LINE
  8
0
  6
CONTINUOUS
 62
     1
 10
58.323231278
 20
62.6
 30
0.0
 11
65.4
 21
62.6
 31
0.0
  0
LINE
  8
0
  6
CONTINUOUS
 62
     1
 10
65.4
 20
61.6
 30
0.0
 11
58.323231278
 21
61.6
 31
0.0
  0
LINE
  8
0
  6
CONTINUOUS
 62
     1
 10
102.4
 20
72.0
 30
0.0
 11
102.4
 21
64.060938226
 31
0.0
  0
LINE
  8
0
  6
CONTINUOUS
 62
     1
 10
101.676768722
 20
61.6
 30
0.0
 11
94.6
 21
61.6
 31
0.0
  0
LINE
  8
0
  6
CONTINUOUS
 62
     1
 10
94.6
 20
62.6
 30
0.0
 11
101.676768722
 21
62.6
 31
0.0
  0
LINE
  8
0
  6
CONTINUOUS
 62
     1
 10
101.676768722
 20
63.1
 30
0.0
 11
94.6
 21
63.1
 31
0.0
  0
LINE
  8
0
  6
CONTINUOUS
 62
     1
 10
102.4
 20
91.939061774
 30
0.0
 11
102.4
 21
84.0
 31
0.0
  0
LINE
  8
0
  6
CONTINUOUS
 62
     1
 10
102.4
 20
100.0
 30
0.0
 11
102.4
 21
95.619061774
 31
0.0
  0
LINE
  8
0
  6
CONTINUOUS
 62
     1
 10
94.6
 20
92.9
 30
0.0
 11
101.676768722
 21
92.9
 31
0.0
  0
LINE
  8
0
  6
CONTINUOUS
 62
     1
 10
101.676768722
 20
93.4
 30
0.0
 11
94.6
 21
93.4
 31
0.0
  0
LINE
  8
0
  6
CONTINUOUS
 62
     1
 10
94.6
 20
94.4
 30
0.0
 11
101.676768722
 21
94.4
 31
0.0
  0
LINE
  8
0
  6
CONTINUOUS
 62
     1
 10
101.676768722
 20
95.4
 30
0.0
 11
94.6
 21
95.4
 31
0.0
  0
LINE
  8
0
  6
CONTINUOUS
 62
     1
 10
105.0
 20
64.4
 30
0.0
 11
102.4
 21
64.4
 31
0.0
  0
LINE
  8
0
  6
CONTINUOUS
 62
     1
 10
105.0
 20
91.6
 30
0.0
 11
102.4
 21
91.6
 31
0.0
  0
LINE
  8
0
  6
CONTINUOUS
 62
     1
 10
105.0
 20
40.0
 30
0.0
 11
105.0
 21
116.0
 31
0.0
  0
LINE
  8
0
  6
CONTINUOUS
 62
     2
 10
57.3
 20
108.9
 30
0.0
 11
55.35
 21
108.25
 31
0.0
  0
LINE
  8
0
  6
CONTINUOUS
 62
     2
 10
55.35
 20
108.25
 30
0.0
 11
55.35
 21
109.42
 31
0.0
  0
LINE
  8
0
  6
CONTINUOUS
 62
     2
 10
55.35
 20
109.42
 30
0.0
 11
57.3
 21
108.9
 31
0.0
  0
LINE
  8
0
  6
CONTINUOUS
 62
     2
 10
67.7
 20
108.9
 30
0.0
 11
65.75
 21
108.25
 31
0.0
  0
LINE
  8
0
  6
CONTINUOUS
 62
     2
 10
65.75
 20
108.25
 30
0.0
 11
65.75
 21
109.42
 31
0.0
  0
LINE
  8
0
  6
CONTINUOUS
 62
     2
 10
65.75
 20
109.42
 30
0.0
 11
67.7
 21
108.9
 31
0.0
  0
LINE
  8
0
  6
CONTINUOUS
 62
     2
 10
92.3
 20
108.9
 30
0.0
 11
94.25
 21
108.25
 31
0.0
  0
LINE
  8
0
  6
CONTINUOUS
 62
     2
 10
94.25
 20
108.25
 30
0.0
 11
94.25
 21
109.42
 31
0.0
  0
LINE
  8
0
  6
CONTINUOUS
 62
     2
 10
94.25
 20
109.42
 30
0.0
 11
92.3
 21
108.9
 31
0.0
  0
LINE
  8
0
  6
CONTINUOUS
 62
     2
 10
102.7
 20
108.9
 30
0.0
 11
104.65
 21
108.25
 31
0.0
  0
LINE
  8
0
  6
CONTINUOUS
 62
     2
 10
104.65
 20
108.25
 30
0.0
 11
104.65
 21
109.42
 31
0.0
  0
LINE
  8
0
  6
CONTINUOUS
 62
     2
 10
104.65
 20
109.42
 30
0.0
 11
102.7
 21
108.9
 31
0.0
  0
LINE
  8
0
  6
CONTINUOUS
 62
     2
 10
57.3
 20
47.1
 30
0.0
 11
55.35
 21
47.75
 31
0.0
  0
LINE
  8
0
  6
CONTINUOUS
 62
     2
 10
55.35
 20
47.75
 30
0.0
 11
55.35
 21
46.58
 31
0.0
  0
LINE
  8
0
  6
CONTINUOUS
 62
     2
 10
55.35
 20
46.58
 30
0.0
 11
57.3
 21
47.1
 31
0.0
  0
LINE
  8
0
  6
CONTINUOUS
 62
     2
 10
67.7
 20
47.1
 30
0.0
 11
65.75
 21
47.75
 31
0.0
  0
LINE
  8
0
  6
CONTINUOUS
 62
     2
 10
65.75
 20
47.75
 30
0.0
 11
65.75
 21
46.58
 31
0.0
  0
LINE
  8
0
  6
CONTINUOUS
 62
     2
 10
65.75
 20
46.58
 30
0.0
 11
67.7
 21
47.1
 31
0.0
  0
LINE
  8
0
  6
CONTINUOUS
 62
     2
 10
92.3
 20
47.1
 30
0.0
 11
94.25
 21
47.75
 31
0.0
  0
LINE
  8
0
  6
CONTINUOUS
 62
     2
 10
94.25
 20
47.75
 30
0.0
 11
94.25
 21
46.58
 31
0.0
  0
LINE
  8
0
  6
CONTINUOUS
 62
     2
 10
94.25
 20
46.58
 30
0.0
 11
92.3
 21
47.1
 31
0.0
  0
LINE
  8
0
  6
CONTINUOUS
 62
     2
 10
102.7
 20
47.1
 30
0.0
 11
104.65
 21
47.75
 31
0.0
  0
LINE
  8
0
  6
CONTINUOUS
 62
     2
 10
104.65
 20
47.75
 30
0.0
 11
104.65
 21
46.58
 31
0.0
  0
LINE
  8
0
  6
CONTINUOUS
 62
     2
 10
104.65
 20
46.58
 30
0.0
 11
102.7
 21
47.1
 31
0.0
  0
LINE
  8
0
  6
CONTINUOUS
 62
     1
 10
65.4
 20
114.5
 30
0.0
 11
68.0
 21
114.5
 31
0.0
  0
TEXT
  8
0
  6
CONTINUOUS
 62
     2
 10
55.3
 20
110.5
 30
0.25
 40
2.5
  1
８
 50
0.0
 41
0.8
 51
0.0
  7
KANJI5
  0
TEXT
  8
0
  6
CONTINUOUS
 62
     2
 10
65.7
 20
110.5
 30
0.25
 40
2.5
  1
７
 50
0.0
 41
0.8
 51
0.0
  7
KANJI5
  0
TEXT
  8
0
  6
CONTINUOUS
 62
     2
 10
92.3
 20
110.5
 30
0.25
 40
2.5
  1
６
 50
0.0
 41
0.8
 51
0.0
  7
KANJI5
  0
TEXT
  8
0
  6
CONTINUOUS
 62
     2
 10
102.7
 20
110.5
 30
0.25
 40
2.5
  1
５
 50
0.0
 41
0.8
 51
0.0
  7
KANJI5
  0
TEXT
  8
0
  6
CONTINUOUS
 62
     2
 10
92.3
 20
43.0
 30
0.25
 40
2.5
  1
１
 50
0.0
 41
0.8
 51
0.0
  7
KANJI5
  0
TEXT
  8
0
  6
CONTINUOUS
 62
     2
 10
102.7
 20
43.0
 30
0.25
 40
2.5
  1
２
 50
0.0
 41
0.8
 51
0.0
  7
KANJI5
  0
TEXT
  8
0
  6
CONTINUOUS
 62
     2
 10
55.3
 20
43.0
 30
0.0
 40
2.5
  1
１０
 50
0.0
 41
0.4
 51
0.0
  7
KANJI6
  0
TEXT
  8
0
  6
CONTINUOUS
 62
     2
 10
65.7
 20
43.0
 30
0.0
 40
2.5
  1
１１
 50
0.0
 41
0.4
 51
0.0
  7
KANJI6
  0
TEXT
  8
0
  6
CONTINUOUS
 62
     1
 10
69.0
 20
57.0
 30
0.0
 40
3.0
  1
１１
 50
0.0
 41
0.9
 51
0.0
  7
KANJI7
  0
TEXT
  8
0
  6
CONTINUOUS
 62
     1
 10
86.5
 20
57.0
 30
0.0
 40
3.0
  1
１
 50
0.0
 41
0.9
 51
0.0
  7
KANJI7
  0
TEXT
  8
0
  6
CONTINUOUS
 62
     1
 10
70.3
 20
96.0
 30
0.0
 40
3.0
  1
７
 50
0.0
 41
0.9
 51
0.0
  7
KANJI7
  0
TEXT
  8
0
  6
CONTINUOUS
 62
     1
 10
86.5
 20
96.0
 30
0.0
 40
3.0
  1
６
 50
0.0
 41
0.9
 51
0.0
  7
KANJI7
  0
TEXT
  8
0
  6
CONTINUOUS
 62
     2
 10
102.7
 20
87.3
 30
0.25
 40
2.5
  1
４
 50
0.0
 41
0.8
 51
0.0
  7
KANJI5
  0
TEXT
  8
0
  6
CONTINUOUS
 62
     2
 10
102.7
 20
66.3
 30
0.25
 40
2.5
  1
３
 50
0.0
 41
0.8
 51
0.0
  7
KANJI5
  0
TEXT
  8
0
  6
CONTINUOUS
 62
     1
 10
120.0
 20
26.0
 30
0.5
 40
5.0
  1
ソケット
 50
0.0
 41
0.9
 51
0.0
  7
KANJI8
  0
LINE
  8
0
  6
CONTINUOUS
 62
     1
 10
120.0
 20
25.0
 30
0.0
 11
140.0
 21
25.0
 31
0.0
  0
TEXT
  8
0
  6
CONTINUOUS
 62
     1
 10
245.0
 20
135.0
 30
0.4
 40
4.0
  1
ソケットに本体を取付けた状態（１／２）
 50
0.0
 41
0.9
 51
0.0
  7
KANJI9
  0
LINE
  8
0
  6
CONTINUOUS
 62
     5
 10
293.677521448
 20
178.557803468
 30
0.0
 11
293.1
 21
178.557803468
 31
0.0
  0
LINE
  8
0
  6
CONTINUOUS
 62
     5
 10
293.1
 20
178.442196532
 30
0.0
 11
293.677521448
 21
178.442196532
 31
0.0
  0
LINE
  8
0
  6
CONTINUOUS
 62
     5
 10
293.1
 20
178.442196532
 30
0.0
 11
294.942196532
 21
177.377343045
 31
0.0
  0
LINE
  8
0
  6
CONTINUOUS
 62
     5
 10
294.942196532
 20
179.622656955
 30
0.0
 11
293.1
 21
178.557803468
 31
0.0
  0
LINE
  8
0
  6
CONTINUOUS
 62
     5
 10
294.144380362
 20
178.827664112
 30
0.0
 11
293.677521448
 21
178.557803468
 31
0.0
  0
LINE
  8
0
  6
CONTINUOUS
 62
     5
 10
293.677521448
 20
178.442196532
 30
0.0
 11
294.144380362
 21
178.172335888
 31
0.0
  0
LINE
  8
0
  6
CONTINUOUS
 62
     5
 10
296.322478552
 20
178.557803468
 30
0.0
 11
296.9
 21
178.557803468
 31
0.0
  0
LINE
  8
0
  6
CONTINUOUS
 62
     5
 10
296.9
 20
178.442196532
 30
0.0
 11
296.322478552
 21
178.442196532
 31
0.0
  0
LINE
  8
0
  6
CONTINUOUS
 62
     5
 10
296.9
 20
178.442196532
 30
0.0
 11
295.057803468
 21
177.377343045
 31
0.0
  0
LINE
  8
0
  6
CONTINUOUS
 62
     5
 10
295.057803468
 20
179.622656955
 30
0.0
 11
296.9
 21
178.557803468
 31
0.0
  0
LINE
  8
0
  6
CONTINUOUS
 62
     5
 10
295.183074299
 20
178.772737008
 30
0.0
 11
295.471835023
 21
178.605823294
 31
0.0
  0
LINE
  8
0
  6
CONTINUOUS
 62
     5
 10
295.471835023
 20
178.394176706
 30
0.0
 11
295.183074299
 21
178.227262992
 31
0.0
  0
LINE
  8
0
  6
CONTINUOUS
 62
     5
 10
294.528164977
 20
178.394176706
 30
0.0
 11
294.816925701
 21
178.227262992
 31
0.0
  0
LINE
  8
0
  6
CONTINUOUS
 62
     5
 10
294.816925701
 20
178.772737008
 30
0.0
 11
294.528164977
 21
178.605823294
 31
0.0
  0
LINE
  8
0
  6
CONTINUOUS
 62
     5
 10
294.942196532
 20
177.711170472
 30
0.0
 11
294.942196532
 21
177.377343045
 31
0.0
  0
LINE
  8
0
  6
CONTINUOUS
 62
     5
 10
295.057803468
 20
177.711170472
 30
0.0
 11
295.057803468
 21
177.377343045
 31
0.0
  0
LINE
  8
0
  6
CONTINUOUS
 62
     5
 10
294.942196532
 20
179.288829528
 30
0.0
 11
294.942196532
 21
179.622656955
 31
0.0
  0
LINE
  8
0
  6
CONTINUOUS
 62
     5
 10
295.057803468
 20
179.288829528
 30
0.0
 11
295.057803468
 21
179.622656955
 31
0.0
  0
LINE
  8
0
  6
CONTINUOUS
 62
     5
 10
294.433141086
 20
178.994577825
 30
0.0
 11
294.816925701
 21
178.772737008
 31
0.0
  0
LINE
  8
0
  6
CONTINUOUS
 62
     5
 10
294.144380362
 20
178.827664112
 30
0.0
 11
294.528164977
 21
178.605823294
 31
0.0
  0
LINE
  8
0
  6
CONTINUOUS
 62
     5
 10
294.942196532
 20
179.288829528
 30
0.0
 11
294.433141086
 21
178.994577825
 31
0.0
  0
LINE
  8
0
  6
CONTINUOUS
 62
     5
 10
295.566858914
 20
178.994577825
 30
0.0
 11
295.183074299
 21
178.772737008
 31
0.0
  0
LINE
  8
0
  6
CONTINUOUS
 62
     5
 10
295.855619638
 20
178.827664112
 30
0.0
 11
295.471835023
 21
178.605823294
 31
0.0
  0
LINE
  8
0
  6
CONTINUOUS
 62
     5
 10
295.057803468
 20
179.288829528
 30
0.0
 11
295.566858914
 21
178.994577825
 31
0.0
  0
LINE
  8
0
  6
CONTINUOUS
 62
     5
 10
295.855619638
 20
178.827664112
 30
0.0
 11
296.322478552
 21
178.557803468
 31
0.0
  0
LINE
  8
0
  6
CONTINUOUS
 62
     5
 10
294.528164977
 20
178.394176706
 30
0.0
 11
294.144380362
 21
178.172335888
 31
0.0
  0
LINE
  8
0
  6
CONTINUOUS
 62
     5
 10
294.816925701
 20
178.227262992
 30
0.0
 11
294.433141086
 21
178.005422175
 31
0.0
  0
LINE
  8
0
  6
CONTINUOUS
 62
     5
 10
294.433141086
 20
178.005422175
 30
0.0
 11
294.942196532
 21
177.711170472
 31
0.0
  0
LINE
  8
0
  6
CONTINUOUS
 62
     5
 10
295.183074299
 20
178.227262992
 30
0.0
 11
295.566858914
 21
178.005422175
 31
0.0
  0
LINE
  8
0
  6
CONTINUOUS
 62
     5
 10
295.471835023
 20
178.394176706
 30
0.0
 11
295.855619638
 21
178.172335888
 31
0.0
  0
LINE
  8
0
  6
CONTINUOUS
 62
     5
 10
296.322478552
 20
178.442196532
 30
0.0
 11
295.855619638
 21
178.172335888
 31
0.0
  0
LINE
  8
0
  6
CONTINUOUS
 62
     5
 10
295.566858914
 20
178.005422175
 30
0.0
 11
295.057803468
 21
177.711170472
 31
0.0
  0
TEXT
  8
0
  6
CONTINUOUS
 62
     1
 10
298.0
 20
176.5
 30
-0.7
 40
3.0
  1
ＴＯＹＯ　　ＫＥＩＫＩ
 50
0.0
 41
1.0
 51
0.0
  7
KANJI10
  0
TEXT
  8
0
  6
CONTINUOUS
 62
     2
 10
304.0
 20
185.0
 30
0.0
 40
2.0
  1
Ｌ
 50
0.0
 41
0.75
 51
0.0
  7
KANJI1
  0
TEXT
  8
0
  6
CONTINUOUS
 62
     2
 10
314.5
 20
185.0
 30
0.0
 40
2.0
  1
Ｈ
 50
0.0
 41
0.75
 51
0.0
  7
KANJI1
  0
TEXT
  8
0
  6
CONTINUOUS
 62
     2
 10
301.5
 20
197.3
 30
0.0
 40
2.0
  1
％
 50
0.0
 41
1.0
 51
0.0
  7
KANJI11
  0
ARC
  8
0
  6
CONTINUOUS
 62
     1
 10
296.5
 20
194.0
 30
0.0
 40
4.5
 50
230.0
 51
140.0
  0
LINE
  8
0
  6
CONTINUOUS
 62
     1
 10
292.286755563
 20
197.535331853
 30
0.0
 11
293.052800006
 21
196.892544244
 31
0.0
  0
LINE
  8
0
  6
CONTINUOUS
 62
     1
 10
293.607455756
 20
190.552800006
 30
0.0
 11
292.964668147
 21
189.786755563
 31
0.0
  0
LINE
  8
0
  6
CONTINUOUS
 62
     1
 10
293.052800006
 20
196.892544244
 30
0.0
 11
294.86541558
 21
197.737780767
 31
0.0
  0
LINE
  8
0
  6
CONTINUOUS
 62
     1
 10
293.052800006
 20
196.892544244
 30
0.0
 11
294.199952879
 21
198.530848332
 31
0.0
  0
LINE
  8
0
  6
CONTINUOUS
 62
     1
 10
294.86541558
 20
197.737780767
 30
0.0
 11
294.199952879
 21
198.530848332
 31
0.0
  0
LINE
  8
0
  6
CONTINUOUS
 62
     1
 10
293.644753695
 20
197.389252366
 30
0.0
 11
294.214283414
 21
198.202625099
 31
0.0
  0
LINE
  8
0
  6
CONTINUOUS
 62
     1
 10
294.214283414
 20
198.202625099
 30
0.0
 11
294.544667267
 21
197.808888956
 31
0.0
  0
LINE
  8
0
  6
CONTINUOUS
 62
     1
 10
294.544667267
 20
197.808888956
 30
0.0
 11
293.644753695
 21
197.389252366
 31
0.0
  0
CIRCLE
  8
0
  6
CONTINUOUS
 62
     1
 10
323.5
 20
194.0
 30
0.0
 40
3.5
  0
TEXT
  8
0
  6
CONTINUOUS
 62
     2
 10
293.0
 20
188.0
 30
-0.2
 40
1.5
  1
０．５
 50
0.0
 41
0.666666667
 51
5.0
  7
KANJI12
  0
TEXT
  8
0
  6
CONTINUOUS
 62
     2
 10
292.4
 20
197.9
 30
0.0
 40
1.5
  1
５
 50
0.0
 41
0.666666667
 51
5.0
  7
KANJI13
  0
TEXT
  8
0
  6
CONTINUOUS
 62
     1
 10
300.0
 20
209.0
 30
0.0
 40
3.0
  1
Ｌ
 50
0.0
 41
0.666666667
 51
0.0
  7
KANJI4
  0
TEXT
  8
0
  6
CONTINUOUS
 62
     1
 10
318.0
 20
209.0
 30
0.0
 40
3.0
  1
Ｈ
 50
0.0
 41
0.666666667
 51
0.0
  7
KANJI4
  0
LINE
  8
0
  6
CONTINUOUS
 62
     1
 10
296.5
 20
220.0
 30
0.0
 11
296.5
 21
214.5
 31
0.0
  0
LINE
  8
0
  6
CONTINUOUS
 62
     1
 10
296.5
 20
232.5
 30
0.0
 11
296.5
 21
227.0
 31
0.0
  0
LINE
  8
0
  6
CONTINUOUS
 62
     1
 10
302.5
 20
227.0
 30
0.0
 11
302.5
 21
232.5
 31
0.0
  0
LINE
  8
0
  6
CONTINUOUS
 62
     1
 10
302.5
 20
214.5
 30
0.0
 11
302.5
 21
220.0
 31
0.0
  0
LINE
  8
0
  6
CONTINUOUS
 62
     1
 10
308.5
 20
220.0
 30
0.0
 11
308.5
 21
214.5
 31
0.0
  0
LINE
  8
0
  6
CONTINUOUS
 62
     1
 10
308.5
 20
232.5
 30
0.0
 11
308.5
 21
227.0
 31
0.0
  0
LINE
  8
0
  6
CONTINUOUS
 62
     1
 10
309.0
 20
226.5
 30
0.0
 11
296.0
 21
226.5
 31
0.0
  0
LINE
  8
0
  6
CONTINUOUS
 62
     1
 10
296.0
 20
220.5
 30
0.0
 11
309.0
 21
220.5
 31
0.0
  0
LINE
  8
0
  6
CONTINUOUS
 62
     1
 10
309.3
 20
227.0
 30
0.0
 11
295.7
 21
227.0
 31
0.0
  0
LINE
  8
0
  6
CONTINUOUS
 62
     1
 10
295.7
 20
220.0
 30
0.0
 11
309.3
 21
220.0
 31
0.0
  0
LINE
  8
0
  6
CONTINUOUS
 62
     1
 10
324.0
 20
226.5
 30
0.0
 11
311.0
 21
226.5
 31
0.0
  0
LINE
  8
0
  6
CONTINUOUS
 62
     1
 10
311.0
 20
220.5
 30
0.0
 11
324.0
 21
220.5
 31
0.0
  0
LINE
  8
0
  6
CONTINUOUS
 62
     1
 10
324.3
 20
227.0
 30
0.0
 11
310.7
 21
227.0
 31
0.0
  0
LINE
  8
0
  6
CONTINUOUS
 62
     1
 10
310.7
 20
220.0
 30
0.0
 11
324.3
 21
220.0
 31
0.0
  0
LINE
  8
0
  6
CONTINUOUS
 62
     2
 10
278.0
 20
230.0
 30
0.0
 11
257.0
 21
230.0
 31
0.0
  0
TEXT
  8
0
  6
CONTINUOUS
 62
     2
 10
257.3
 20
230.8
 30
0.3
 40
3.0
  1
Ｌ設定スイッチ
 50
0.0
 41
0.9
 51
0.0
  7
KANJI14
  0
LINE
  8
0
  6
CONTINUOUS
 62
     2
 10
297.5
 20
216.5
 30
0.0
 11
295.882864278
 21
218.406534043
 31
0.0
  0
LINE
  8
0
  6
CONTINUOUS
 62
     2
 10
297.5
 20
216.5
 30
0.0
 11
295.146252362
 21
217.342539053
 31
0.0
  0
LINE
  8
0
  6
CONTINUOUS
 62
     2
 10
297.5
 20
216.5
 30
0.0
 11
278.0
 21
230.0
 31
0.0
  0
TEXT
  8
0
  6
CONTINUOUS
 62
     3
 10
356.0
 20
15.0
 30
0.1
 40
6.0
  1
ＹＭＬ－６７８　Ａ
 50
0.0
 41
0.866666667
 51
0.0
  7
KANJI15
  0
LINE
  8
0
  6
LTYPE0
 62
     2
 10
45.0
 20
209.0
 30
0.0
 11
115.0
 21
209.0
 31
0.0
  0
LINE
  8
0
  6
LTYPE0
 62
     2
 10
80.0
 20
258.0
 30
0.0
 11
80.0
 21
158.0
 31
0.0
  0
LINE
  8
0
  6
CONTINUOUS
 62
     1
 10
102.5
 20
224.0
 30
0.0
 11
103.0
 21
224.0
 31
0.0
  0
LINE
  8
0
  6
CONTINUOUS
 62
     1
 10
102.5
 20
229.0
 30
0.0
 11
102.5
 21
224.0
 31
0.0
  0
LINE
  8
0
  6
CONTINUOUS
 62
     1
 10
102.5
 20
229.0
 30
0.0
 11
103.0
 21
229.0
 31
0.0
  0
LINE
  8
0
  6
CONTINUOUS
 62
     1
 10
57.5
 20
229.0
 30
0.0
 11
57.5
 21
224.0
 31
0.0
  0
LINE
  8
0
  6
CONTINUOUS
 62
     1
 10
57.0
 20
229.0
 30
0.0
 11
57.5
 21
229.0
 31
0.0
  0
LINE
  8
0
  6
CONTINUOUS
 62
     1
 10
57.0
 20
224.0
 30
0.0
 11
57.5
 21
224.0
 31
0.0
  0
LINE
  8
0
  6
CONTINUOUS
 62
     1
 10
55.0
 20
235.0
 30
0.0
 11
57.0
 21
235.0
 31
0.0
  0
LINE
  8
0
  6
CONTINUOUS
 62
     1
 10
59.0
 20
228.0
 30
0.0
 11
59.0
 21
237.0
 31
0.0
  0
LINE
  8
0
  6
CONTINUOUS
 62
     1
 10
59.0
 20
237.0
 30
0.0
 11
57.0
 21
237.0
 31
0.0
  0
POINT
  8
0
  6
CONTINUOUS
 62
     1
 10
57.0
 20
237.0
 30
0.0
  0
LINE
  8
0
  6
CONTINUOUS
 62
     1
 10
57.0
 20
237.0
 30
0.0
 11
57.0
 21
246.0
 31
0.0
  0
LINE
  8
0
  6
CONTINUOUS
 62
     1
 10
103.0
 20
246.0
 30
0.0
 11
103.0
 21
237.0
 31
0.0
  0
LINE
  8
0
  6
CONTINUOUS
 62
     1
 10
103.0
 20
237.0
 30
0.0
 11
101.0
 21
237.0
 31
0.0
  0
LINE
  8
0
  6
CONTINUOUS
 62
     1
 10
101.0
 20
237.0
 30
0.0
 11
101.0
 21
228.0
 31
0.0
  0
LINE
  8
0
  6
CONTINUOUS
 62
     1
 10
105.0
 20
235.0
 30
0.0
 11
103.0
 21
235.0
 31
0.0
  0
LINE
  8
0
  6
CONTINUOUS
 62
     1
 10
103.0
 20
235.0
 30
0.0
 11
103.0
 21
209.0
 31
0.0
  0
LINE
  8
0
  6
CONTINUOUS
 62
     1
 10
65.0
 20
246.0
 30
0.0
 11
65.0
 21
242.0
 31
0.0
  0
LINE
  8
0
  6
CONTINUOUS
 62
     1
 10
65.0
 20
242.0
 30
0.0
 11
57.0
 21
242.0
 31
0.0
  0
LINE
  8
0
  6
CONTINUOUS
 62
     1
 10
59.0
 20
226.0
 30
0.0
 11
101.0
 21
226.0
 31
0.0
  0
LINE
  8
0
  6
CONTINUOUS
 62
     1
 10
59.0
 20
228.0
 30
0.0
 11
101.0
 21
228.0
 31
0.0
  0
LINE
  8
0
  6
CONTINUOUS
 62
     1
 10
57.0
 20
242.0
 30
0.0
 11
65.0
 21
242.0
 31
0.0
  0
LINE
  8
0
  6
CONTINUOUS
 62
     1
 10
58.0
 20
245.0
 30
0.0
 11
64.0
 21
245.0
 31
0.0
  0
LINE
  8
0
  6
CONTINUOUS
 62
     1
 10
58.0
 20
242.0
 30
0.0
 11
58.0
 21
245.0
 31
0.0
  0
LINE
  8
0
  6
CONTINUOUS
 62
     1
 10
64.0
 20
242.0
 30
0.0
 11
64.0
 21
245.0
 31
0.0
  0
LINE
  8
0
  6
CONTINUOUS
 62
     1
 10
60.3
 20
244.0
 30
0.0
 11
60.3
 21
242.0
 31
0.0
  0
LINE
  8
0
  6
CONTINUOUS
 62
     1
 10
61.8
 20
244.0
 30
0.0
 11
61.8
 21
242.0
 31
0.0
  0
LINE
  8
0
  6
CONTINUOUS
 62
     1
 10
60.3
 20
244.0
 30
0.0
 11
61.8
 21
244.0
 31
0.0
  0
LINE
  8
0
  6
CONTINUOUS
 62
     1
 10
103.0
 20
242.0
 30
0.0
 11
95.0
 21
242.0
 31
0.0
  0
LINE
  8
0
  6
CONTINUOUS
 62
     1
 10
95.0
 20
242.0
 30
0.0
 11
95.0
 21
246.0
 31
0.0
  0
LINE
  8
0
  6
CONTINUOUS
 62
     1
 10
102.0
 20
245.0
 30
0.0
 11
96.0
 21
245.0
 31
0.0
  0
LINE
  8
0
  6
CONTINUOUS
 62
     1
 10
102.0
 20
242.0
 30
0.0
 11
102.0
 21
245.0
 31
0.0
  0
LINE
  8
0
  6
CONTINUOUS
 62
     1
 10
96.0
 20
242.0
 30
0.0
 11
96.0
 21
245.0
 31
0.0
  0
LINE
  8
0
  6
CONTINUOUS
 62
     1
 10
99.7
 20
244.0
 30
0.0
 11
99.7
 21
242.0
 31
0.0
  0
LINE
  8
0
  6
CONTINUOUS
 62
     1
 10
98.2
 20
244.0
 30
0.0
 11
98.2
 21
242.0
 31
0.0
  0
LINE
  8
0
  6
CONTINUOUS
 62
     1
 10
99.7
 20
244.0
 30
0.0
 11
98.2
 21
244.0
 31
0.0
  0
LINE
  8
0
  6
CONTINUOUS
 62
     1
 10
78.0
 20
248.0
 30
0.0
 11
78.0
 21
243.0
 31
0.0
  0
LINE
  8
0
  6
CONTINUOUS
 62
     1
 10
82.0
 20
243.0
 30
0.0
 11
82.0
 21
248.0
 31
0.0
  0
LINE
  8
0
  6
CONTINUOUS
 62
     1
 10
78.0
 20
243.0
 30
0.0
 11
82.0
 21
243.0
 31
0.0
  0
LINE
  8
0
  6
CONTINUOUS
 62
     1
 10
76.0
 20
246.0
 30
0.0
 11
57.0
 21
246.0
 31
0.0
  0
LINE
  8
0
  6
CONTINUOUS
 62
     1
 10
103.0
 20
246.0
 30
0.0
 11
84.0
 21
246.0
 31
0.0
  0
LINE
  8
0
  6
CONTINUOUS
 62
     1
 10
84.0
 20
241.0
 30
0.0
 11
76.0
 21
241.0
 31
0.0
  0
LINE
  8
0
  6
CONTINUOUS
 62
     1
 10
76.0
 20
241.0
 30
0.0
 11
76.0
 21
246.0
 31
0.0
  0
LINE
  8
0
  6
CONTINUOUS
 62
     1
 10
84.0
 20
246.0
 30
0.0
 11
84.0
 21
241.0
 31
0.0
  0
LINE
  8
0
  6
CONTINUOUS
 62
     1
 10
76.0
 20
241.0
 30
0.0
 11
76.0
 21
237.0
 31
0.0
  0
LINE
  8
0
  6
CONTINUOUS
 62
     1
 10
76.0
 20
237.0
 30
0.0
 11
84.0
 21
237.0
 31
0.0
  0
LINE
  8
0
  6
CONTINUOUS
 62
     1
 10
84.0
 20
237.0
 30
0.0
 11
84.0
 21
241.0
 31
0.0
  0
LINE
  8
0
  6
CONTINUOUS
 62
     1
 10
102.5
 20
189.0
 30
0.0
 11
103.0
 21
189.0
 31
0.0
  0
LINE
  8
0
  6
CONTINUOUS
 62
     1
 10
102.5
 20
194.0
 30
0.0
 11
102.5
 21
189.0
 31
0.0
  0
LINE
  8
0
  6
CONTINUOUS
 62
     1
 10
102.5
 20
194.0
 30
0.0
 11
103.0
 21
194.0
 31
0.0
  0
LINE
  8
0
  6
CONTINUOUS
 62
     1
 10
57.5
 20
194.0
 30
0.0
 11
57.5
 21
189.0
 31
0.0
  0
LINE
  8
0
  6
CONTINUOUS
 62
     1
 10
57.0
 20
194.0
 30
0.0
 11
57.5
 21
194.0
 31
0.0
  0
LINE
  8
0
  6
CONTINUOUS
 62
     1
 10
57.0
 20
189.0
 30
0.0
 11
57.5
 21
189.0
 31
0.0
  0
LINE
  8
0
  6
CONTINUOUS
 62
     1
 10
101.0
 20
226.0
 30
0.0
 11
101.0
 21
192.0
 31
0.0
  0
LINE
  8
0
  6
CONTINUOUS
 62
     1
 10
101.0
 20
192.0
 30
0.0
 11
59.0
 21
192.0
 31
0.0
  0
LINE
  8
0
  6
CONTINUOUS
 62
     1
 10
59.0
 20
190.0
 30
0.0
 11
101.0
 21
190.0
 31
0.0
  0
LINE
  8
0
  6
CONTINUOUS
 62
     1
 10
103.0
 20
176.0
 30
0.0
 11
95.0
 21
176.0
 31
0.0
  0
LINE
  8
0
  6
CONTINUOUS
 62
     1
 10
95.0
 20
176.0
 30
0.0
 11
95.0
 21
172.0
 31
0.0
  0
LINE
  8
0
  6
CONTINUOUS
 62
     1
 10
65.0
 20
176.0
 30
0.0
 11
65.0
 21
172.0
 31
0.0
  0
LINE
  8
0
  6
CONTINUOUS
 62
     1
 10
55.0
 20
248.0
 30
0.0
 11
105.0
 21
248.0
 31
0.0
  0
LINE
  8
0
  6
CONTINUOUS
 62
     1
 10
105.0
 20
248.0
 30
0.0
 11
105.0
 21
170.0
 31
0.0
  0
LINE
  8
0
  6
CONTINUOUS
 62
     1
 10
105.0
 20
170.0
 30
0.0
 11
55.0
 21
170.0
 31
0.0
  0
LINE
  8
0
  6
CONTINUOUS
 62
     1
 10
55.0
 20
170.0
 30
0.0
 11
55.0
 21
248.0
 31
0.0
  0
LINE
  8
0
  6
CONTINUOUS
 62
     1
 10
57.0
 20
235.0
 30
0.0
 11
57.0
 21
183.0
 31
0.0
  0
LINE
  8
0
  6
CONTINUOUS
 62
     1
 10
103.0
 20
183.0
 30
0.0
 11
103.0
 21
209.0
 31
0.0
  0
LINE
  8
0
  6
CONTINUOUS
 62
     1
 10
105.0
 20
183.0
 30
0.0
 11
103.0
 21
183.0
 31
0.0
  0
LINE
  8
0
  6
CONTINUOUS
 62
     1
 10
101.0
 20
181.0
 30
0.0
 11
103.0
 21
181.0
 31
0.0
  0
LINE
  8
0
  6
CONTINUOUS
 62
     1
 10
101.0
 20
190.0
 30
0.0
 11
101.0
 21
181.0
 31
0.0
  0
LINE
  8
0
  6
CONTINUOUS
 62
     1
 10
103.0
 20
181.0
 30
0.0
 11
103.0
 21
172.0
 31
0.0
  0
LINE
  8
0
  6
CONTINUOUS
 62
     1
 10
57.0
 20
183.0
 30
0.0
 11
55.0
 21
183.0
 31
0.0
  0
LINE
  8
0
  6
CONTINUOUS
 62
     1
 10
57.0
 20
172.0
 30
0.0
 11
57.0
 21
181.0
 31
0.0
  0
LINE
  8
0
  6
CONTINUOUS
 62
     1
 10
57.0
 20
181.0
 30
0.0
 11
59.0
 21
181.0
 31
0.0
  0
LINE
  8
0
  6
CONTINUOUS
 62
     1
 10
59.0
 20
181.0
 30
0.0
 11
59.0
 21
190.0
 31
0.0
  0
LINE
  8
0
  6
CONTINUOUS
 62
     1
 10
57.0
 20
176.0
 30
0.0
 11
65.0
 21
176.0
 31
0.0
  0
LINE
  8
0
  6
CONTINUOUS
 62
     1
 10
58.0
 20
173.0
 30
0.0
 11
64.0
 21
173.0
 31
0.0
  0
LINE
  8
0
  6
CONTINUOUS
 62
     1
 10
58.0
 20
176.0
 30
0.0
 11
58.0
 21
173.0
 31
0.0
  0
LINE
  8
0
  6
CONTINUOUS
 62
     1
 10
64.0
 20
176.0
 30
0.0
 11
64.0
 21
173.0
 31
0.0
  0
LINE
  8
0
  6
CONTINUOUS
 62
     1
 10
60.3
 20
174.0
 30
0.0
 11
60.3
 21
176.0
 31
0.0
  0
LINE
  8
0
  6
CONTINUOUS
 62
     1
 10
61.8
 20
174.0
 30
0.0
 11
61.8
 21
176.0
 31
0.0
  0
LINE
  8
0
  6
CONTINUOUS
 62
     1
 10
60.3
 20
174.0
 30
0.0
 11
61.8
 21
174.0
 31
0.0
  0
LINE
  8
0
  6
CONTINUOUS
 62
     1
 10
102.0
 20
173.0
 30
0.0
 11
96.0
 21
173.0
 31
0.0
  0
LINE
  8
0
  6
CONTINUOUS
 62
     1
 10
102.0
 20
176.0
 30
0.0
 11
102.0
 21
173.0
 31
0.0
  0
LINE
  8
0
  6
CONTINUOUS
 62
     1
 10
96.0
 20
176.0
 30
0.0
 11
96.0
 21
173.0
 31
0.0
  0
LINE
  8
0
  6
CONTINUOUS
 62
     1
 10
99.7
 20
174.0
 30
0.0
 11
99.7
 21
176.0
 31
0.0
  0
LINE
  8
0
  6
CONTINUOUS
 62
     1
 10
98.2
 20
174.0
 30
0.0
 11
98.2
 21
176.0
 31
0.0
  0
LINE
  8
0
  6
CONTINUOUS
 62
     1
 10
99.7
 20
174.0
 30
0.0
 11
98.2
 21
174.0
 31
0.0
  0
LINE
  8
0
  6
CONTINUOUS
 62
     1
 10
78.0
 20
170.0
 30
0.0
 11
78.0
 21
175.0
 31
0.0
  0
LINE
  8
0
  6
CONTINUOUS
 62
     1
 10
82.0
 20
175.0
 30
0.0
 11
82.0
 21
170.0
 31
0.0
  0
LINE
  8
0
  6
CONTINUOUS
 62
     1
 10
78.0
 20
175.0
 30
0.0
 11
82.0
 21
175.0
 31
0.0
  0
LINE
  8
0
  6
CONTINUOUS
 62
     1
 10
76.0
 20
172.0
 30
0.0
 11
57.0
 21
172.0
 31
0.0
  0
LINE
  8
0
  6
CONTINUOUS
 62
     1
 10
103.0
 20
172.0
 30
0.0
 11
84.0
 21
172.0
 31
0.0
  0
LINE
  8
0
  6
CONTINUOUS
 62
     1
 10
84.0
 20
177.0
 30
0.0
 11
76.0
 21
177.0
 31
0.0
  0
LINE
  8
0
  6
CONTINUOUS
 62
     1
 10
76.0
 20
177.0
 30
0.0
 11
76.0
 21
172.0
 31
0.0
  0
LINE
  8
0
  6
CONTINUOUS
 62
     1
 10
84.0
 20
172.0
 30
0.0
 11
84.0
 21
177.0
 31
0.0
  0
LINE
  8
0
  6
CONTINUOUS
 62
     1
 10
76.0
 20
177.0
 30
0.0
 11
76.0
 21
181.0
 31
0.0
  0
LINE
  8
0
  6
CONTINUOUS
 62
     1
 10
76.0
 20
181.0
 30
0.0
 11
84.0
 21
181.0
 31
0.0
  0
LINE
  8
0
  6
CONTINUOUS
 62
     1
 10
84.0
 20
181.0
 30
0.0
 11
84.0
 21
177.0
 31
0.0
  0
LINE
  8
0
  6
CONTINUOUS
 62
     1
 10
59.0
 20
226.0
 30
0.0
 11
59.0
 21
192.0
 31
0.0
  0
ARC
  8
0
  6
CONTINUOUS
 62
     1
 10
80.0
 20
205.0
 30
0.0
 40
1.0
 50
175.0
 51
0.0
  0
ARC
  8
0
  6
CONTINUOUS
 62
     1
 10
80.0
 20
205.0
 30
0.0
 40
1.0
 50
0.0
 51
5.0
  0
CIRCLE
  8
0
  6
CONTINUOUS
 62
     1
 10
80.0
 20
209.0
 30
0.0
 40
4.0
  0
CIRCLE
  8
0
  6
CONTINUOUS
 62
     1
 10
80.0
 20
209.0
 30
0.0
 40
15.0
  0
LINE
  8
0
  6
CONTINUOUS
 62
     1
 10
79.5
 20
204.1
 30
0.0
 11
79.5
 21
196.0
 31
0.0
  0
LINE
  8
0
  6
CONTINUOUS
 62
     1
 10
80.5
 20
204.1
 30
0.0
 11
80.5
 21
196.0
 31
0.0
  0
TEXT
  8
0
  6
CONTINUOUS
 62
     1
 10
88.0
 20
184.0
 30
0.999
 40
3.0
  1
洋
 50
0.0
 41
1.0
 51
0.0
  7
KANJI16
  0
TEXT
  8
0
  6
CONTINUOUS
 62
     1
 10
84.0
 20
184.0
 30
0.999
 40
3.0
  1
東
 50
0.0
 41
1.0
 51
0.0
  7
KANJI16
  0
TEXT
  8
0
  6
CONTINUOUS
 62
     1
 10
96.0
 20
184.0
 30
0.999
 40
3.0
  1
器
 50
0.0
 41
1.0
 51
0.0
  7
KANJI16
  0
TEXT
  8
0
  6
CONTINUOUS
 62
     1
 10
92.0
 20
184.0
 30
0.999
 40
3.0
  1
計
 50
0.0
 41
1.0
 51
0.0
  7
KANJI16
  0
LINE
  8
0
  6
LTYPE0
 62
     2
 10
264.0
 20
209.0
 30
0.0
 11
132.0
 21
209.0
 31
0.0
  0
LINE
  8
0
  6
CONTINUOUS
 62
     2
 10
250.0
 20
249.0
 30
0.0
 11
250.0
 21
268.0
 31
0.0
  0
LINE
  8
0
  6
CONTINUOUS
 62
     2
 10
150.0
 20
250.0
 30
0.0
 11
150.0
 21
260.0
 31
0.0
  0
TEXT
  8
0
  6
CONTINUOUS
 62
     2
 10
192.0
 20
267.0
 30
0.0
 40
3.0
  1
１
 50
0.0
 41
0.666
 51
0.0
  7
KANJI0
  0
TEXT
  8
0
  6
CONTINUOUS
 62
     2
 10
194.0
 20
267.0
 30
0.0
 40
3.0
  1
１
 50
0.0
 41
0.666
 51
0.0
  7
KANJI0
  0
TEXT
  8
0
  6
CONTINUOUS
 62
     2
 10
196.0
 20
267.0
 30
0.0
 40
3.0
  1
０
 50
0.0
 41
0.666
 51
0.0
  7
KANJI0
  0
TEXT
  8
0
  6
CONTINUOUS
 62
     2
 10
143.0
 20
259.0
 30
0.0
 40
3.0
  1
１
 50
0.0
 41
0.666
 51
0.0
  7
KANJI0
  0
TEXT
  8
0
  6
CONTINUOUS
 62
     2
 10
145.0
 20
259.0
 30
0.0
 40
3.0
  1
０
 50
0.0
 41
0.666
 51
0.0
  7
KANJI0
  0
LINE
  8
0
  6
CONTINUOUS
 62
     2
 10
140.0
 20
258.0
 30
0.0
 11
150.0
 21
258.0
 31
0.0
  0
LINE
  8
0
  6
CONTINUOUS
 62
     2
 10
141.9319
 20
258.5176
 30
0.0
 11
140.0
 21
258.0
 31
0.0
  0
LINE
  8
0
  6
CONTINUOUS
 62
     2
 10
140.0
 20
258.0
 30
0.0
 11
141.9319
 21
257.4824
 31
0.0
  0
LINE
  8
0
  6
CONTINUOUS
 62
     2
 10
148.0681
 20
257.4824
 30
0.0
 11
150.0
 21
258.0
 31
0.0
  0
LINE
  8
0
  6
CONTINUOUS
 62
     2
 10
150.0
 20
258.0
 30
0.0
 11
148.0681
 21
258.5176
 31
0.0
  0
TEXT
  8
0
  6
CONTINUOUS
 62
     2
 10
197.0
 20
259.0
 30
0.0
 40
3.0
  1
１
 50
0.0
 41
0.666
 51
0.0
  7
KANJI0
  0
TEXT
  8
0
  6
CONTINUOUS
 62
     2
 10
199.0
 20
259.0
 30
0.0
 40
3.0
  1
０
 50
0.0
 41
0.666
 51
0.0
  7
KANJI0
  0
TEXT
  8
0
  6
CONTINUOUS
 62
     2
 10
201.0
 20
259.0
 30
0.0
 40
3.0
  1
０
 50
0.0
 41
0.666
 51
0.0
  7
KANJI0
  0
LINE
  8
0
  6
CONTINUOUS
 62
     2
 10
150.0
 20
258.0
 30
0.0
 11
250.0
 21
258.0
 31
0.0
  0
LINE
  8
0
  6
CONTINUOUS
 62
     2
 10
151.9319
 20
258.5176
 30
0.0
 11
150.0
 21
258.0
 31
0.0
  0
LINE
  8
0
  6
CONTINUOUS
 62
     2
 10
150.0
 20
258.0
 30
0.0
 11
151.9319
 21
257.4824
 31
0.0
  0
LINE
  8
0
  6
CONTINUOUS
 62
     2
 10
248.0681
 20
257.4824
 30
0.0
 11
250.0
 21
258.0
 31
0.0
  0
LINE
  8
0
  6
CONTINUOUS
 62
     2
 10
250.0
 20
258.0
 30
0.0
 11
248.0681
 21
258.5176
 31
0.0
  0
LINE
  8
0
  6
CONTINUOUS
 62
     2
 10
140.0
 20
266.0
 30
0.0
 11
250.0
 21
266.0
 31
0.0
  0
LINE
  8
0
  6
CONTINUOUS
 62
     2
 10
141.9319
 20
266.5176
 30
0.0
 11
140.0
 21
266.0
 31
0.0
  0
LINE
  8
0
  6
CONTINUOUS
 62
     2
 10
140.0
 20
266.0
 30
0.0
 11
141.9319
 21
265.4824
 31
0.0
  0
LINE
  8
0
  6
CONTINUOUS
 62
     2
 10
248.0681
 20
265.4824
 30
0.0
 11
250.0
 21
266.0
 31
0.0
  0
LINE
  8
0
  6
CONTINUOUS
 62
     2
 10
250.0
 20
266.0
 30
0.0
 11
248.0681
 21
266.5176
 31
0.0
  0
LINE
  8
0
  6
CONTINUOUS
 62
     2
 10
140.0
 20
214.0
 30
0.0
 11
140.0
 21
268.0
 31
0.0
  0
LINE
  8
0
  6
CONTINUOUS
 62
     1
 10
140.0
 20
212.5
 30
0.0
 11
140.0
 21
205.5
 31
0.0
  0
ARC
  8
0
  6
CONTINUOUS
 62
     1
 10
140.5
 20
212.5
 30
0.0
 40
0.5
 50
90.0
 51
180.0
  0
ARC
  8
0
  6
CONTINUOUS
 62
     1
 10
140.5
 20
205.5
 30
0.0
 40
0.5
 50
180.0
 51
270.0
  0
LINE
  8
0
  6
CONTINUOUS
 62
     1
 10
142.0
 20
205.0
 30
0.0
 11
142.0
 21
204.5
 31
0.0
  0
LINE
  8
0
  6
CONTINUOUS
 62
     1
 10
142.5
 20
204.0
 30
0.0
 11
150.0
 21
204.0
 31
0.0
  0
ARC
  8
0
  6
CONTINUOUS
 62
     1
 10
142.5
 20
204.5
 30
0.0
 40
0.5
 50
180.0
 51
270.0
  0
LINE
  8
0
  6
CONTINUOUS
 62
     1
 10
150.0
 20
235.0
 30
0.0
 11
157.0
 21
235.0
 31
0.0
  0
LINE
  8
0
  6
CONTINUOUS
 62
     1
 10
158.0
 20
236.0
 30
0.0
 11
158.0
 21
248.0
 31
0.0
  0
LINE
  8
0
  6
CONTINUOUS
 62
     1
 10
158.0
 20
170.0
 30
0.0
 11
158.0
 21
182.0
 31
0.0
  0
LINE
  8
0
  6
CONTINUOUS
 62
     1
 10
150.0
 20
183.0
 30
0.0
 11
157.0
 21
183.0
 31
0.0
  0
ARC
  8
0
  6
CONTINUOUS
 62
     1
 10
157.0
 20
236.0
 30
0.0
 40
1.0
 50
270.0
 51
0.0
  0
ARC
  8
0
  6
CONTINUOUS
 62
     1
 10
157.0
 20
182.0
 30
0.0
 40
1.0
 50
0.0
 51
90.0
  0
LINE
  8
0
  6
CONTINUOUS
 62
     1
 10
150.0
 20
170.0
 30
0.0
 11
150.0
 21
248.0
 31
0.0
  0
LINE
  8
0
  6
CONTINUOUS
 62
     1
 10
150.5
 20
209.0
 30
0.0
 11
150.5
 21
235.0
 31
0.0
  0
LINE
  8
0
  6
CONTINUOUS
 62
     1
 10
150.5
 20
209.0
 30
0.0
 11
150.5
 21
183.0
 31
0.0
  0
LINE
  8
0
  6
CONTINUOUS
 62
     1
 10
152.9
 20
223.5
 30
0.0
 11
155.4
 21
223.5
 31
0.0
  0
LINE
  8
0
  6
CONTINUOUS
 62
     1
 10
152.9
 20
229.5
 30
0.0
 11
155.4
 21
229.5
 31
0.0
  0
LINE
  8
0
  6
CONTINUOUS
 62
     1
 10
152.9
 20
223.5
 30
0.0
 11
152.9
 21
229.5
 31
0.0
  0
LINE
  8
0
  6
CONTINUOUS
 62
     1
 10
155.4
 20
229.5
 30
0.0
 11
155.4
 21
223.5
 31
0.0
  0
LINE
  8
0
  6
CONTINUOUS
 62
     1
 10
152.9
 20
188.5
 30
0.0
 11
155.4
 21
188.5
 31
0.0
  0
LINE
  8
0
  6
CONTINUOUS
 62
     1
 10
152.9
 20
194.5
 30
0.0
 11
155.4
 21
194.5
 31
0.0
  0
LINE
  8
0
  6
CONTINUOUS
 62
     1
 10
152.9
 20
188.5
 30
0.0
 11
152.9
 21
194.5
 31
0.0
  0
LINE
  8
0
  6
CONTINUOUS
 62
     1
 10
155.4
 20
194.5
 30
0.0
 11
155.4
 21
188.5
 31
0.0
  0
LINE
  8
0
  6
CONTINUOUS
 62
     1
 10
150.0
 20
248.0
 30
0.0
 11
249.8
 21
247.0
 31
0.0
  0
ARC
  8
0
  6
CONTINUOUS
 62
     1
 10
249.8
 20
246.8
 30
0.0
 40
0.2
 50
0.0
 51
90.0
  0
LINE
  8
0
  6
CONTINUOUS
 62
     1
 10
250.0
 20
246.8
 30
0.0
 11
250.0
 21
171.2
 31
0.0
  0
LINE
  8
0
  6
CONTINUOUS
 62
     1
 10
249.8
 20
171.0
 30
0.0
 11
150.0
 21
170.0
 31
0.0
  0
ARC
  8
0
  6
CONTINUOUS
 62
     1
 10
249.8
 20
171.2
 30
0.0
 40
0.2
 50
270.0
 51
0.0
  0
LINE
  8
0
  6
CONTINUOUS
 62
     1
 10
250.0
 20
177.7
 30
0.0
 11
251.0
 21
177.7
 31
0.0
  0
LINE
  8
0
  6
CONTINUOUS
 62
     1
 10
251.0
 20
177.7
 30
0.0
 11
251.0
 21
179.2
 31
0.0
  0
LINE
  8
0
  6
CONTINUOUS
 62
     1
 10
250.0
 20
179.2
 30
0.0
 11
251.0
 21
179.2
 31
0.0
  0
TEXT
  8
0
  6
CONTINUOUS
 62
     2
 10
74.2
 20
211.0
 30
0.0
 40
1.5
  1
４
 50
0.0
 41
0.666666667
 51
0.0
  7
KANJI17
  0
TEXT
  8
0
  6
CONTINUOUS
 62
     2
 10
76.4
 20
213.2
 30
0.0
 40
1.5
  1
５
 50
0.0
 41
0.666666667
 51
0.0
  7
KANJI17
  0
TEXT
  8
0
  6
CONTINUOUS
 62
     2
 10
79.6
 20
214.2
 30
0.0
 40
1.5
  1
６
 50
0.0
 41
0.666666667
 51
0.0
  7
KANJI17
  0
TEXT
  8
0
  6
CONTINUOUS
 62
     2
 10
82.6
 20
212.8
 30
0.0
 40
1.5
  1
７
 50
0.0
 41
0.666666667
 51
0.0
  7
KANJI17
  0
TEXT
  8
0
  6
CONTINUOUS
 62
     2
 10
85.2
 20
210.8
 30
0.0
 40
1.5
  1
８
 50
0.0
 41
0.666666667
 51
0.0
  7
KANJI17
  0
TEXT
  8
0
  6
CONTINUOUS
 62
     2
 10
85.5
 20
207.5
 30
0.0
 40
1.5
  1
９
 50
0.0
 41
0.666666667
 51
0.0
  7
KANJI17
  0
TEXT
  8
0
  6
CONTINUOUS
 62
     2
 10
73.6
 20
207.4
 30
0.0
 40
1.5
  1
３
 50
0.0
 41
0.666666667
 51
0.0
  7
KANJI17
  0
TEXT
  8
0
  6
CONTINUOUS
 62
     2
 10
75.4
 20
204.2
 30
0.0
 40
1.5
  1
２
 50
0.0
 41
0.666666667
 51
0.0
  7
KANJI17
  0
TEXT
  8
0
  6
CONTINUOUS
 62
     2
 10
77.5
 20
202.5
 30
0.0
 40
1.5
  1
１
 50
0.0
 41
0.666666667
 51
0.0
  7
KANJI17
  0
TEXT
  8
0
  6
CONTINUOUS
 62
     2
 10
80.8
 20
202.5
 30
0.0
 40
1.5
  1
１
 50
0.0
 41
0.666666667
 51
0.0
  7
KANJI17
  0
TEXT
  8
0
  6
CONTINUOUS
 62
     2
 10
81.8
 20
202.5
 30
0.0
 40
1.5
  1
１
 50
0.0
 41
0.666666667
 51
0.0
  7
KANJI17
  0
TEXT
  8
0
  6
CONTINUOUS
 62
     2
 10
83.6
 20
204.3
 30
0.0
 40
1.5
  1
１
 50
0.0
 41
0.666666667
 51
0.0
  7
KANJI17
  0
TEXT
  8
0
  6
CONTINUOUS
 62
     2
 10
84.6
 20
204.3
 30
0.0
 40
1.5
  1
０
 50
0.0
 41
0.666666667
 51
0.0
  7
KANJI17
  0
LINE
  8
0
  6
CONTINUOUS
 62
     1
 10
89.486635946
 20
217.888404718
 30
0.0
 11
82.7
 21
212.0
 31
0.0
  0
LINE
  8
0
  6
CONTINUOUS
 62
     1
 10
83.4
 20
211.2
 30
0.0
 11
90.092831264
 21
217.193580236
 31
0.0
  0
LINE
  8
0
  6
CONTINUOUS
 62
     1
 10
92.79504939
 20
211.299284912
 30
0.0
 11
83.8
 21
210.0
 31
0.0
  0
ARC
  8
0
  6
CONTINUOUS
 62
     1
 10
80.0
 20
209.0
 30
0.0
 40
13.0
 50
0.0
 51
5.76138407
  0
ARC
  8
0
  6
CONTINUOUS
 62
     1
 10
80.0
 20
209.0
 30
0.0
 40
13.0
 50
10.187386612
 51
39.070444177
  0
LINE
  8
0
  6
CONTINUOUS
 62
     1
 10
84.0
 20
209.0
 30
0.0
 11
92.9343317
 21
210.305014743
 31
0.0
  0
LINE
  8
0
  6
CONTINUOUS
 62
     1
 10
70.513364054
 20
217.888404718
 30
0.0
 11
77.3
 21
212.0
 31
0.0
  0
LINE
  8
0
  6
CONTINUOUS
 62
     1
 10
76.7
 20
211.2
 30
0.0
 11
69.86600094
 21
217.142607878
 31
0.0
  0
LINE
  8
0
  6
CONTINUOUS
 62
     1
 10
72.718909191
 20
198.230333495
 30
0.0
 11
77.5
 21
205.9
 31
0.0
  0
LINE
  8
0
  6
CONTINUOUS
 62
     1
 10
78.3
 20
205.4
 30
0.0
 11
73.519111177
 21
197.730657514
 31
0.0
  0
LINE
  8
0
  6
CONTINUOUS
 62
     1
 10
81.7
 20
205.4
 30
0.0
 11
86.480888823
 21
197.730657514
 31
0.0
  0
LINE
  8
0
  6
CONTINUOUS
 62
     1
 10
87.281090809
 20
198.230333495
 30
0.0
 11
82.5
 21
205.9
 31
0.0
  0
ARC
  8
0
  6
CONTINUOUS
 62
     1
 10
80.0
 20
209.0
 30
0.0
 40
13.0
 50
240.097212842
 51
299.902787158
  0
ARC
  8
0
  6
CONTINUOUS
 62
     1
 10
80.0
 20
209.0
 30
0.0
 40
13.0
 50
43.135295445
 51
71.994467507
  0
LINE
  8
0
  6
CONTINUOUS
 62
     1
 10
83.013209873
 20
221.645970357
 30
0.0
 11
80.5
 21
212.9
 31
0.0
  0
LINE
  8
0
  6
CONTINUOUS
 62
     1
 10
81.5
 20
212.7
 30
0.0
 11
84.018414753
 21
221.36334675
 31
0.0
  0
LINE
  8
0
  6
CONTINUOUS
 62
     1
 10
78.4
 20
212.7
 30
0.0
 11
75.890317194
 21
221.333308852
 31
0.0
  0
LINE
  8
0
  6
CONTINUOUS
 62
     1
 10
76.986790127
 20
221.645970357
 30
0.0
 11
79.5
 21
212.9
 31
0.0
  0
ARC
  8
0
  6
CONTINUOUS
 62
     1
 10
80.0
 20
209.0
 30
0.0
 40
13.0
 50
76.597792957
 51
103.402207043
  0
ARC
  8
0
  6
CONTINUOUS
 62
     1
 10
80.0
 20
209.0
 30
0.0
 40
13.0
 50
108.429010919
 51
136.864704555
  0
LINE
  8
0
  6
CONTINUOUS
 62
     1
 10
67.222793476
 20
211.396454348
 30
0.0
 11
76.2
 21
210.0
 31
0.0
  0
ARC
  8
0
  6
CONTINUOUS
 62
     1
 10
80.0
 20
209.0
 30
0.0
 40
13.0
 50
141.218330164
 51
169.377190575
  0
LINE
  8
0
  6
CONTINUOUS
 62
     1
 10
76.1
 20
209.0
 30
0.0
 11
67.065662759
 21
210.304959824
 31
0.0
  0
LINE
  8
0
  6
CONTINUOUS
 62
     1
 10
68.052033697
 20
203.876905113
 30
0.0
 11
76.2
 21
207.8
 31
0.0
  0
LINE
  8
0
  6
CONTINUOUS
 62
     1
 10
76.6
 20
206.8
 30
0.0
 11
68.473832544
 21
202.98772391
 31
0.0
  0
ARC
  8
0
  6
CONTINUOUS
 62
     1
 10
80.0
 20
209.0
 30
0.0
 40
13.0
 50
174.238859207
 51
203.208871571
  0
ARC
  8
0
  6
CONTINUOUS
 62
     1
 10
80.0
 20
209.0
 30
0.0
 40
13.0
 50
207.547432914
 51
235.938399238
  0
LINE
  8
0
  6
CONTINUOUS
 62
     1
 10
91.948177686
 20
203.877398123
 30
0.0
 11
83.8
 21
207.7
 31
0.0
  0
ARC
  8
0
  6
CONTINUOUS
 62
     1
 10
80.0
 20
209.0
 30
0.0
 40
13.0
 50
304.061600762
 51
332.452567086
  0
ARC
  8
0
  6
CONTINUOUS
 62
     1
 10
80.0
 20
209.0
 30
0.0
 40
13.0
 50
336.793492607
 51
0.0
  0
LINE
  8
0
  6
CONTINUOUS
 62
     1
 10
83.4
 20
206.8
 30
0.0
 11
91.526167456
 21
202.98772391
 31
0.0
  0
LINE
  8
0
  6
CONTINUOUS
 62
     1
 10
140.5
 20
205.0
 30
0.0
 11
150.0
 21
205.0
 31
0.0
  0
LINE
  8
0
  6
CONTINUOUS
 62
     5
 10
66.228842874
 20
185.84092126
 30
0.0
 11
66.589793779
 21
185.632279118
 31
0.0
  0
LINE
  8
0
  6
CONTINUOUS
 62
     5
 10
66.589793779
 20
185.367720882
 30
0.0
 11
66.228842874
 21
185.15907874
 31
0.0
  0
LINE
  8
0
  6
CONTINUOUS
 62
     5
 10
65.410206221
 20
185.367720882
 30
0.0
 11
65.771157126
 21
185.15907874
 31
0.0
  0
LINE
  8
0
  6
CONTINUOUS
 62
     5
 10
65.771157126
 20
185.84092126
 30
0.0
 11
65.410206221
 21
185.632279118
 31
0.0
  0
LINE
  8
0
  6
CONTINUOUS
 62
     5
 10
64.346901811
 20
185.572254335
 30
0.0
 11
63.625
 21
185.572254335
 31
0.0
  0
LINE
  8
0
  6
CONTINUOUS
 62
     5
 10
63.625
 20
185.427745665
 30
0.0
 11
64.346901811
 21
185.427745665
 31
0.0
  0
LINE
  8
0
  6
CONTINUOUS
 62
     5
 10
67.653098189
 20
185.572254335
 30
0.0
 11
68.375
 21
185.572254335
 31
0.0
  0
LINE
  8
0
  6
CONTINUOUS
 62
     5
 10
68.375
 20
185.427745665
 30
0.0
 11
67.653098189
 21
185.427745665
 31
0.0
  0
LINE
  8
0
  6
CONTINUOUS
 62
     5
 10
65.927745665
 20
184.51396309
 30
0.0
 11
65.927745665
 21
184.096678807
 31
0.0
  0
LINE
  8
0
  6
CONTINUOUS
 62
     5
 10
63.625
 20
185.427745665
 30
0.0
 11
65.927745665
 21
184.096678807
 31
0.0
  0
LINE
  8
0
  6
CONTINUOUS
 62
     5
 10
66.072254335
 20
184.51396309
 30
0.0
 11
66.072254335
 21
184.096678807
 31
0.0
  0
LINE
  8
0
  6
CONTINUOUS
 62
     5
 10
68.375
 20
185.427745665
 30
0.0
 11
66.072254335
 21
184.096678807
 31
0.0
  0
LINE
  8
0
  6
CONTINUOUS
 62
     5
 10
65.927745665
 20
186.903321193
 30
0.0
 11
63.625
 21
185.572254335
 31
0.0
  0
LINE
  8
0
  6
CONTINUOUS
 62
     5
 10
65.927745665
 20
186.48603691
 30
0.0
 11
65.927745665
 21
186.903321193
 31
0.0
  0
LINE
  8
0
  6
CONTINUOUS
 62
     5
 10
66.072254335
 20
186.48603691
 30
0.0
 11
66.072254335
 21
186.903321193
 31
0.0
  0
LINE
  8
0
  6
CONTINUOUS
 62
     5
 10
66.072254335
 20
186.903321193
 30
0.0
 11
68.375
 21
185.572254335
 31
0.0
  0
LINE
  8
0
  6
CONTINUOUS
 62
     5
 10
65.291426358
 20
186.118222282
 30
0.0
 11
65.771157126
 21
185.84092126
 31
0.0
  0
LINE
  8
0
  6
CONTINUOUS
 62
     5
 10
64.930475453
 20
185.90958014
 30
0.0
 11
65.410206221
 21
185.632279118
 31
0.0
  0
LINE
  8
0
  6
CONTINUOUS
 62
     5
 10
65.927745665
 20
186.48603691
 30
0.0
 11
65.291426358
 21
186.118222282
 31
0.0
  0
LINE
  8
0
  6
CONTINUOUS
 62
     5
 10
64.930475453
 20
185.90958014
 30
0.0
 11
64.346901811
 21
185.572254335
 31
0.0
  0
LINE
  8
0
  6
CONTINUOUS
 62
     5
 10
66.708573642
 20
186.118222282
 30
0.0
 11
66.228842874
 21
185.84092126
 31
0.0
  0
LINE
  8
0
  6
CONTINUOUS
 62
     5
 10
67.069524547
 20
185.90958014
 30
0.0
 11
66.589793779
 21
185.632279118
 31
0.0
  0
LINE
  8
0
  6
CONTINUOUS
 62
     5
 10
66.072254335
 20
186.48603691
 30
0.0
 11
66.708573642
 21
186.118222282
 31
0.0
  0
LINE
  8
0
  6
CONTINUOUS
 62
     5
 10
67.069524547
 20
185.90958014
 30
0.0
 11
67.653098189
 21
185.572254335
 31
0.0
  0
LINE
  8
0
  6
CONTINUOUS
 62
     5
 10
65.410206221
 20
185.367720882
 30
0.0
 11
64.930475453
 21
185.09041986
 31
0.0
  0
LINE
  8
0
  6
CONTINUOUS
 62
     5
 10
65.771157126
 20
185.15907874
 30
0.0
 11
65.291426358
 21
184.881777718
 31
0.0
  0
LINE
  8
0
  6
CONTINUOUS
 62
     5
 10
64.346901811
 20
185.427745665
 30
0.0
 11
64.930475453
 21
185.09041986
 31
0.0
  0
LINE
  8
0
  6
CONTINUOUS
 62
     5
 10
65.291426358
 20
184.881777718
 30
0.0
 11
65.927745665
 21
184.51396309
 31
0.0
  0
LINE
  8
0
  6
CONTINUOUS
 62
     5
 10
66.228842874
 20
185.15907874
 30
0.0
 11
66.708573642
 21
184.881777718
 31
0.0
  0
LINE
  8
0
  6
CONTINUOUS
 62
     5
 10
66.589793779
 20
185.367720882
 30
0.0
 11
67.069524547
 21
185.09041986
 31
0.0
  0
LINE
  8
0
  6
CONTINUOUS
 62
     5
 10
67.653098189
 20
185.427745665
 30
0.0
 11
67.069524547
 21
185.09041986
 31
0.0
  0
LINE
  8
0
  6
CONTINUOUS
 62
     5
 10
66.708573642
 20
184.881777718
 30
0.0
 11
66.072254335
 21
184.51396309
 31
0.0
  0
CIRCLE
  8
0
  6
CONTINUOUS
 62
     1
 10
80.0
 20
218.499998105
 30
0.0
 40
1.3
  0
CIRCLE
  8
0
  6
CONTINUOUS
 62
     1
 10
74.863913259
 20
216.991906968
 30
0.0
 40
1.3
  0
CIRCLE
  8
0
  6
CONTINUOUS
 62
     1
 10
71.358497768
 20
212.946441836
 30
0.0
 40
1.3
  0
CIRCLE
  8
0
  6
CONTINUOUS
 62
     1
 10
70.596698178
 20
207.648009306
 30
0.0
 40
1.3
  0
CIRCLE
  8
0
  6
CONTINUOUS
 62
     1
 10
72.820380476
 20
202.778824268
 30
0.0
 40
1.3
  0
CIRCLE
  8
0
  6
CONTINUOUS
 62
     1
 10
77.323541244
 20
199.884818569
 30
0.0
 40
1.3
  0
CIRCLE
  8
0
  6
CONTINUOUS
 62
     1
 10
82.676458756
 20
199.884818569
 30
0.0
 40
1.3
  0
CIRCLE
  8
0
  6
CONTINUOUS
 62
     1
 10
87.179619524
 20
202.778824268
 30
0.0
 40
1.3
  0
CIRCLE
  8
0
  6
CONTINUOUS
 62
     1
 10
89.403301822
 20
207.648009306
 30
0.0
 40
1.3
  0
CIRCLE
  8
0
  6
CONTINUOUS
 62
     1
 10
88.641502232
 20
212.946441836
 30
0.0
 40
1.3
  0
CIRCLE
  8
0
  6
CONTINUOUS
 62
     1
 10
85.136086741
 20
216.991906968
 30
0.0
 40
1.3
  0
LINE
  8
0
  6
CONTINUOUS
 62
     1
 10
144.2
 20
219.799998105
 30
0.0
 11
150.0
 21
219.799998105
 31
0.0
  0
LINE
  8
0
  6
CONTINUOUS
 62
     1
 10
144.2
 20
215.691906968
 30
0.0
 11
150.0
 21
215.691906968
 31
0.0
  0
ARC
  8
0
  6
CONTINUOUS
 62
     1
 10
144.2
 20
216.991906968
 30
0.0
 40
1.3
 50
90.0
 51
270.0
  0
LINE
  8
0
  6
CONTINUOUS
 62
     1
 10
144.2
 20
218.291906968
 30
0.0
 11
150.0
 21
218.291906968
 31
0.0
  0
ARC
  8
0
  6
CONTINUOUS
 62
     1
 10
144.2
 20
218.499998105
 30
0.0
 40
1.3
 50
90.0
 51
215.453008105
  0
LINE
  8
0
  6
CONTINUOUS
 62
     1
 10
144.2
 20
211.646441836
 30
0.0
 11
150.0
 21
211.646441836
 31
0.0
  0
LINE
  8
0
  6
CONTINUOUS
 62
     1
 10
144.2
 20
214.246441836
 30
0.0
 11
150.0
 21
214.246441836
 31
0.0
  0
ARC
  8
0
  6
CONTINUOUS
 62
     1
 10
144.2
 20
212.946441836
 30
0.0
 40
1.3
 50
90.0
 51
270.0
  0
LINE
  8
0
  6
CONTINUOUS
 62
     1
 10
144.200002697
 20
208.961241432
 30
0.0
 11
150.0
 21
208.961241432
 31
0.0
  0
LINE
  8
0
  6
CONTINUOUS
 62
     1
 10
144.200002697
 20
206.361241432
 30
0.0
 11
150.0
 21
206.361241432
 31
0.0
  0
ARC
  8
0
  6
CONTINUOUS
 62
     1
 10
144.200002697
 20
207.661241432
 30
0.0
 40
1.3
 50
90.0
 51
270.0
  0
LINE
  8
0
  6
CONTINUOUS
 62
     1
 10
144.200002697
 20
201.184818569
 30
0.0
 11
150.0
 21
201.184818569
 31
0.0
  0
LINE
  8
0
  6
CONTINUOUS
 62
     1
 10
144.200002697
 20
198.584818569
 30
0.0
 11
150.0
 21
198.584818569
 31
0.0
  0
ARC
  8
0
  6
CONTINUOUS
 62
     1
 10
144.200002697
 20
199.884818569
 30
0.0
 40
1.3
 50
90.0
 51
270.0
  0
LINE
  8
0
  6
CONTINUOUS
 62
     1
 10
144.200002697
 20
201.478824268
 30
0.0
 11
150.0
 21
201.478824268
 31
0.0
  0
ARC
  8
0
  6
CONTINUOUS
 62
     1
 10
144.200002697
 20
202.778824268
 30
0.0
 40
1.3
 50
110.054653248
 51
270.0
  0
LINE
  8
0
  6
CONTINUOUS
 62
     1
 10
140.5
 20
213.0
 30
0.0
 11
142.901103729
 21
213.0
 31
0.0
  0
CIRCLE
  8
0
  6
CONTINUOUS
 62
     1
 10
80.0
 20
87.5
 30
0.0
 40
1.7
  0
CIRCLE
  8
0
  6
CONTINUOUS
 62
     1
 10
80.0
 20
87.5
 30
0.0
 40
1.5
  0
CIRCLE
  8
0
  6
CONTINUOUS
 62
     1
 10
74.863912234
 20
85.991908562
 30
0.0
 40
1.7
  0
CIRCLE
  8
0
  6
CONTINUOUS
 62
     1
 10
74.863912234
 20
85.991908562
 30
0.0
 40
1.5
  0
CIRCLE
  8
0
  6
CONTINUOUS
 62
     1
 10
71.358496044
 20
81.946442624
 30
0.0
 40
1.7
  0
CIRCLE
  8
0
  6
CONTINUOUS
 62
     1
 10
71.358496044
 20
81.946442624
 30
0.0
 40
1.5
  0
CIRCLE
  8
0
  6
CONTINUOUS
 62
     1
 10
70.596696302
 20
76.648009036
 30
0.0
 40
1.7
  0
CIRCLE
  8
0
  6
CONTINUOUS
 62
     1
 10
70.596696302
 20
76.648009036
 30
0.0
 40
1.5
  0
CIRCLE
  8
0
  6
CONTINUOUS
 62
     1
 10
72.820379044
 20
71.778823028
 30
0.0
 40
1.7
  0
CIRCLE
  8
0
  6
CONTINUOUS
 62
     1
 10
72.820379044
 20
71.778823028
 30
0.0
 40
1.5
  0
CIRCLE
  8
0
  6
CONTINUOUS
 62
     1
 10
77.32354071
 20
68.884816751
 30
0.0
 40
1.7
  0
CIRCLE
  8
0
  6
CONTINUOUS
 62
     1
 10
77.32354071
 20
68.884816751
 30
0.0
 40
1.5
  0
CIRCLE
  8
0
  6
CONTINUOUS
 62
     1
 10
82.67645929
 20
68.884816751
 30
0.0
 40
1.7
  0
CIRCLE
  8
0
  6
CONTINUOUS
 62
     1
 10
82.67645929
 20
68.884816751
 30
0.0
 40
1.5
  0
CIRCLE
  8
0
  6
CONTINUOUS
 62
     1
 10
87.179620956
 20
71.778823028
 30
0.0
 40
1.7
  0
CIRCLE
  8
0
  6
CONTINUOUS
 62
     1
 10
87.179620956
 20
71.778823028
 30
0.0
 40
1.5
  0
CIRCLE
  8
0
  6
CONTINUOUS
 62
     1
 10
89.403303698
 20
76.648009036
 30
0.0
 40
1.7
  0
CIRCLE
  8
0
  6
CONTINUOUS
 62
     1
 10
89.403303698
 20
76.648009036
 30
0.0
 40
1.5
  0
CIRCLE
  8
0
  6
CONTINUOUS
 62
     1
 10
88.641503956
 20
81.946442624
 30
0.0
 40
1.7
  0
CIRCLE
  8
0
  6
CONTINUOUS
 62
     1
 10
88.641503956
 20
81.946442624
 30
0.0
 40
1.5
  0
CIRCLE
  8
0
  6
CONTINUOUS
 62
     1
 10
85.136087766
 20
85.991908562
 30
0.0
 40
1.7
  0
CIRCLE
  8
0
  6
CONTINUOUS
 62
     1
 10
85.136087766
 20
85.991908562
 30
0.0
 40
1.5
  0
TEXT
  8
0
  6
CONTINUOUS
 62
     2
 10
55.7
 20
66.3
 30
0.25
 40
2.5
  1
９
 50
0.0
 41
0.9
 51
0.0
  7
KANJI18
  0
LINE
  8
0
  6
CONTINUOUS
 62
     2
 10
117.0
 20
124.0
 30
0.0
 11
145.0
 21
124.0
 31
0.0
  0
TEXT
  8
0
  6
CONTINUOUS
 62
     2
 10
117.0
 20
125.0
 30
0.0
 40
3.0
  1
端
 50
0.0
 41
1.0
 51
0.0
  7
KANJI2
  0
TEXT
  8
0
  6
CONTINUOUS
 62
     2
 10
120.0
 20
125.0
 30
0.0
 40
3.0
  1
子
 50
0.0
 41
1.0
 51
0.0
  7
KANJI2
  0
TEXT
  8
0
  6
CONTINUOUS
 62
     2
 10
123.0
 20
125.0
 30
0.0
 40
3.0
  1
ネ
 50
0.0
 41
1.0
 51
0.0
  7
KANJI2
  0
TEXT
  8
0
  6
CONTINUOUS
 62
     2
 10
126.0
 20
125.0
 30
0.0
 40
3.0
  1
ジ
 50
0.0
 41
1.0
 51
0.0
  7
KANJI2
  0
TEXT
  8
0
  6
CONTINUOUS
 62
     2
 10
131.0
 20
125.0
 30
0.0
 40
3.0
  1
１１－
 50
0.0
 41
0.666666667
 51
0.0
  7
KANJI4
  0
TEXT
  8
0
  6
CONTINUOUS
 62
     2
 10
143.0
 20
125.0
 30
0.0
 40
3.0
  1
５
 50
0.0
 41
0.666666667
 51
0.0
  7
KANJI4
  0
TEXT
  8
0
  6
CONTINUOUS
 62
     2
 10
137.0
 20
125.0
 30
0.0
 40
3.0
  1
Ｍ
 50
0.0
 41
0.666666667
 51
0.0
  7
KANJI4
  0
TEXT
  8
0
  6
CONTINUOUS
 62
     2
 10
139.0
 20
125.0
 30
0.0
 40
3.0
  1
３
 50
0.0
 41
0.666666667
 51
0.0
  7
KANJI4
  0
TEXT
  8
0
  6
CONTINUOUS
 62
     2
 10
141.0
 20
125.0
 30
0.0
 40
3.0
  1
．
 50
0.0
 41
0.666666667
 51
0.0
  7
KANJI4
  0
TEXT
  8
0
  6
CONTINUOUS
 62
     1
 10
358.0
 20
45.0
 30
0.4
 40
4.0
  1
□ＳＰ－□
 50
0.0
 41
0.9
 51
0.0
  7
KANJI19
  0
TEXT
  8
0
  6
CONTINUOUS
 62
     1
 10
358.0
 20
37.0
 30
0.4
 40
4.0
  1
アラームセッタ外形図
 50
0.0
 41
0.9
 51
0.0
  7
KANJI9
  0
TEXT
  8
0
  6
CONTINUOUS
 62
     1
 10
354.0
 20
32.5
 30
0.4
 40
4.0
  1
（１設定　Ｌ）
 50
0.0
 41
0.9
 51
0.0
  7
KANJI19
  0
TEXT
  8
0
  6
CONTINUOUS
 62
     1
 10
382.0
 20
45.0
 30
0.4
 40
4.0
  1
１設定形
 50
0.0
 41
0.9
 51
0.0
  7
KANJI19
  0
ENDSEC
  0
EOF
