  0
SECTION
  2
HEADER
  9
$ACADVER
  1
AC1009
  9
$DWGCODEPAGE
  3
dos932
  9
$EXTMIN
 10
0.0
 20
0.0
 30
0.0
  9
$EXTMAX
 10
420.0
 20
297.0
 30
0.0
  9
$LIMMIN
 10
0.0
 20
0.0
  9
$LIMMAX
 10
420.0
 20
297.0
  9
$LTSCALE
 40
1.0
  9
$PDMODE
 70
     0
  0
ENDSEC
  0
SECTION
  2
TABLES
  0
TABLE
  2
VPORT
 70
     1
  0
VPORT
  2
*ACTIVE
 70
     0
 10
0.0
 20
0.0
 11
1.0
 21
1.0
 12
210.0
 22
148.5
 13
0.0
 23
0.0
 14
10.0
 24
10.0
 15
10.0
 25
10.0
 16
0.0
 26
0.0
 36
1.0
 17
0.0
 27
0.0
 37
0.0
 40
420.0
 41
1.414141414
 42
50.0
 43
0.0
 44
0.0
 50
0.0
 51
0.0
 71
     0
 72
  1000
 73
     1
 74
     3
 75
     0
 76
     0
 77
     0
 78
     0
  0
ENDTAB
  0
TABLE
  2
LTYPE
 70
     2
  0
LTYPE
  2
CONTINUOUS
 70
    64
  3
Solid line
 72
    65
 73
     0
 40
0.0
  0
LTYPE
  2
LTYPE1
 70
    64
  3
CENTER
 72
    65
 73
     4
 40
15.0
 49
10.5
 49
-1.5
 49
1.5
 49
-1.5
  0
ENDTAB
  0
TABLE
  2
LAYER
 70
   128
  0
LAYER
  2
0
 70
     0
 62
     7
  6
CONTINUOUS
  0
LAYER
  2
2
 70
     0
 62
     7
  6
CONTINUOUS
  0
LAYER
  2
3
 70
     0
 62
     7
  6
CONTINUOUS
  0
LAYER
  2
4
 70
     0
 62
     7
  6
CONTINUOUS
  0
LAYER
  2
5
 70
     0
 62
     7
  6
CONTINUOUS
  0
LAYER
  2
6
 70
     0
 62
     7
  6
CONTINUOUS
  0
LAYER
  2
7
 70
     0
 62
     7
  6
CONTINUOUS
  0
LAYER
  2
8
 70
     0
 62
     7
  6
CONTINUOUS
  0
LAYER
  2
9
 70
     0
 62
     7
  6
CONTINUOUS
  0
LAYER
  2
10
 70
     0
 62
     7
  6
CONTINUOUS
  0
LAYER
  2
11
 70
     0
 62
     7
  6
CONTINUOUS
  0
LAYER
  2
12
 70
     0
 62
     7
  6
CONTINUOUS
  0
LAYER
  2
13
 70
     0
 62
     7
  6
CONTINUOUS
  0
LAYER
  2
14
 70
     0
 62
     7
  6
CONTINUOUS
  0
LAYER
  2
15
 70
     0
 62
     7
  6
CONTINUOUS
  0
LAYER
  2
16
 70
     0
 62
     7
  6
CONTINUOUS
  0
LAYER
  2
17
 70
     0
 62
     7
  6
CONTINUOUS
  0
LAYER
  2
18
 70
     0
 62
     7
  6
CONTINUOUS
  0
LAYER
  2
19
 70
     0
 62
     7
  6
CONTINUOUS
  0
LAYER
  2
20
 70
     0
 62
     7
  6
CONTINUOUS
  0
LAYER
  2
21
 70
     0
 62
     7
  6
CONTINUOUS
  0
LAYER
  2
22
 70
     0
 62
     7
  6
CONTINUOUS
  0
LAYER
  2
23
 70
     0
 62
     7
  6
CONTINUOUS
  0
LAYER
  2
24
 70
     0
 62
     7
  6
CONTINUOUS
  0
LAYER
  2
25
 70
     0
 62
     7
  6
CONTINUOUS
  0
LAYER
  2
26
 70
     0
 62
     7
  6
CONTINUOUS
  0
LAYER
  2
27
 70
     0
 62
     7
  6
CONTINUOUS
  0
LAYER
  2
28
 70
     0
 62
     7
  6
CONTINUOUS
  0
LAYER
  2
29
 70
     0
 62
     7
  6
CONTINUOUS
  0
LAYER
  2
30
 70
     0
 62
     7
  6
CONTINUOUS
  0
LAYER
  2
31
 70
     0
 62
     7
  6
CONTINUOUS
  0
LAYER
  2
32
 70
     0
 62
     7
  6
CONTINUOUS
  0
LAYER
  2
33
 70
     0
 62
     7
  6
CONTINUOUS
  0
LAYER
  2
34
 70
     0
 62
     7
  6
CONTINUOUS
  0
LAYER
  2
35
 70
     0
 62
     7
  6
CONTINUOUS
  0
LAYER
  2
36
 70
     0
 62
     7
  6
CONTINUOUS
  0
LAYER
  2
37
 70
     0
 62
     7
  6
CONTINUOUS
  0
LAYER
  2
38
 70
     0
 62
     7
  6
CONTINUOUS
  0
LAYER
  2
39
 70
     0
 62
     7
  6
CONTINUOUS
  0
LAYER
  2
40
 70
     0
 62
     7
  6
CONTINUOUS
  0
LAYER
  2
41
 70
     0
 62
     7
  6
CONTINUOUS
  0
LAYER
  2
42
 70
     0
 62
     7
  6
CONTINUOUS
  0
LAYER
  2
43
 70
     0
 62
     7
  6
CONTINUOUS
  0
LAYER
  2
44
 70
     0
 62
     7
  6
CONTINUOUS
  0
LAYER
  2
45
 70
     0
 62
     7
  6
CONTINUOUS
  0
LAYER
  2
46
 70
     0
 62
     7
  6
CONTINUOUS
  0
LAYER
  2
47
 70
     0
 62
     7
  6
CONTINUOUS
  0
LAYER
  2
48
 70
     0
 62
     7
  6
CONTINUOUS
  0
LAYER
  2
49
 70
     0
 62
     7
  6
CONTINUOUS
  0
LAYER
  2
50
 70
     0
 62
     7
  6
CONTINUOUS
  0
LAYER
  2
51
 70
     0
 62
     7
  6
CONTINUOUS
  0
LAYER
  2
52
 70
     0
 62
     7
  6
CONTINUOUS
  0
LAYER
  2
53
 70
     0
 62
     7
  6
CONTINUOUS
  0
LAYER
  2
54
 70
     0
 62
     7
  6
CONTINUOUS
  0
LAYER
  2
55
 70
     0
 62
     7
  6
CONTINUOUS
  0
LAYER
  2
56
 70
     0
 62
     7
  6
CONTINUOUS
  0
LAYER
  2
57
 70
     0
 62
     7
  6
CONTINUOUS
  0
LAYER
  2
58
 70
     0
 62
     7
  6
CONTINUOUS
  0
LAYER
  2
59
 70
     0
 62
     7
  6
CONTINUOUS
  0
LAYER
  2
60
 70
     0
 62
     7
  6
CONTINUOUS
  0
LAYER
  2
61
 70
     0
 62
     7
  6
CONTINUOUS
  0
LAYER
  2
62
 70
     0
 62
     7
  6
CONTINUOUS
  0
LAYER
  2
63
 70
     0
 62
     7
  6
CONTINUOUS
  0
LAYER
  2
64
 70
     0
 62
     7
  6
CONTINUOUS
  0
LAYER
  2
65
 70
     0
 62
     7
  6
CONTINUOUS
  0
LAYER
  2
66
 70
     0
 62
     7
  6
CONTINUOUS
  0
LAYER
  2
67
 70
     0
 62
     7
  6
CONTINUOUS
  0
LAYER
  2
68
 70
     0
 62
     7
  6
CONTINUOUS
  0
LAYER
  2
69
 70
     0
 62
     7
  6
CONTINUOUS
  0
LAYER
  2
70
 70
     0
 62
     7
  6
CONTINUOUS
  0
LAYER
  2
71
 70
     0
 62
     7
  6
CONTINUOUS
  0
LAYER
  2
72
 70
     0
 62
     7
  6
CONTINUOUS
  0
LAYER
  2
73
 70
     0
 62
     7
  6
CONTINUOUS
  0
LAYER
  2
74
 70
     0
 62
     7
  6
CONTINUOUS
  0
LAYER
  2
75
 70
     0
 62
     7
  6
CONTINUOUS
  0
LAYER
  2
76
 70
     0
 62
     7
  6
CONTINUOUS
  0
LAYER
  2
77
 70
     0
 62
     7
  6
CONTINUOUS
  0
LAYER
  2
78
 70
     0
 62
     7
  6
CONTINUOUS
  0
LAYER
  2
79
 70
     0
 62
     7
  6
CONTINUOUS
  0
LAYER
  2
80
 70
     0
 62
     7
  6
CONTINUOUS
  0
LAYER
  2
81
 70
     0
 62
     7
  6
CONTINUOUS
  0
LAYER
  2
82
 70
     0
 62
     7
  6
CONTINUOUS
  0
LAYER
  2
83
 70
     0
 62
     7
  6
CONTINUOUS
  0
LAYER
  2
84
 70
     0
 62
     7
  6
CONTINUOUS
  0
LAYER
  2
85
 70
     0
 62
     7
  6
CONTINUOUS
  0
LAYER
  2
86
 70
     0
 62
     7
  6
CONTINUOUS
  0
LAYER
  2
87
 70
     0
 62
     7
  6
CONTINUOUS
  0
LAYER
  2
88
 70
     0
 62
     7
  6
CONTINUOUS
  0
LAYER
  2
89
 70
     0
 62
     7
  6
CONTINUOUS
  0
LAYER
  2
90
 70
     0
 62
     7
  6
CONTINUOUS
  0
LAYER
  2
91
 70
     0
 62
     7
  6
CONTINUOUS
  0
LAYER
  2
92
 70
     0
 62
     7
  6
CONTINUOUS
  0
LAYER
  2
93
 70
     0
 62
     7
  6
CONTINUOUS
  0
LAYER
  2
94
 70
     0
 62
     7
  6
CONTINUOUS
  0
LAYER
  2
95
 70
     0
 62
     7
  6
CONTINUOUS
  0
LAYER
  2
96
 70
     0
 62
     7
  6
CONTINUOUS
  0
LAYER
  2
97
 70
     0
 62
     7
  6
CONTINUOUS
  0
LAYER
  2
98
 70
     0
 62
     7
  6
CONTINUOUS
  0
LAYER
  2
99
 70
     0
 62
     7
  6
CONTINUOUS
  0
LAYER
  2
100
 70
     0
 62
     7
  6
CONTINUOUS
  0
LAYER
  2
101
 70
     0
 62
     7
  6
CONTINUOUS
  0
LAYER
  2
102
 70
     0
 62
     7
  6
CONTINUOUS
  0
LAYER
  2
103
 70
     0
 62
     7
  6
CONTINUOUS
  0
LAYER
  2
104
 70
     0
 62
     7
  6
CONTINUOUS
  0
LAYER
  2
105
 70
     0
 62
     7
  6
CONTINUOUS
  0
LAYER
  2
106
 70
     0
 62
     7
  6
CONTINUOUS
  0
LAYER
  2
107
 70
     0
 62
     7
  6
CONTINUOUS
  0
LAYER
  2
108
 70
     0
 62
     7
  6
CONTINUOUS
  0
LAYER
  2
109
 70
     0
 62
     7
  6
CONTINUOUS
  0
LAYER
  2
110
 70
     0
 62
     7
  6
CONTINUOUS
  0
LAYER
  2
111
 70
     0
 62
     7
  6
CONTINUOUS
  0
LAYER
  2
112
 70
     0
 62
     7
  6
CONTINUOUS
  0
LAYER
  2
113
 70
     0
 62
     7
  6
CONTINUOUS
  0
LAYER
  2
114
 70
     0
 62
     7
  6
CONTINUOUS
  0
LAYER
  2
115
 70
     0
 62
     7
  6
CONTINUOUS
  0
LAYER
  2
116
 70
     0
 62
     7
  6
CONTINUOUS
  0
LAYER
  2
117
 70
     0
 62
     7
  6
CONTINUOUS
  0
LAYER
  2
118
 70
     0
 62
     7
  6
CONTINUOUS
  0
LAYER
  2
119
 70
     0
 62
     7
  6
CONTINUOUS
  0
LAYER
  2
120
 70
     0
 62
     7
  6
CONTINUOUS
  0
LAYER
  2
121
 70
     0
 62
     7
  6
CONTINUOUS
  0
LAYER
  2
122
 70
     0
 62
     7
  6
CONTINUOUS
  0
LAYER
  2
123
 70
     0
 62
     7
  6
CONTINUOUS
  0
LAYER
  2
124
 70
     0
 62
     7
  6
CONTINUOUS
  0
LAYER
  2
125
 70
     0
 62
     7
  6
CONTINUOUS
  0
LAYER
  2
126
 70
     0
 62
     7
  6
CONTINUOUS
  0
LAYER
  2
127
 70
     0
 62
     7
  6
CONTINUOUS
  0
LAYER
  2
128
 70
     0
 62
     7
  6
CONTINUOUS
  0
ENDTAB
  0
TABLE
  2
STYLE
 70
    11
  0
STYLE
  2
STANDARD
 70
     0
 40
0.0
 41
1.0
 50
0.0
 71
     0
 42
0.2
  3
txt.shx
  4
extfont.shx
  0
STYLE
  2
KANJI0
 70
     0
 40
2.9016
 41
0.88
 50
0.0
 71
     0
 42
2.9016
  3
txt.shx
  4
extfont.shx
  0
STYLE
  2
KANJI1
 70
     0
 40
3.77208
 41
0.75
 50
0.0
 71
     0
 42
3.77208
  3
txt.shx
  4
extfont.shx
  0
STYLE
  2
KANJI2
 70
     0
 40
2.48139
 41
1.0
 50
0.0
 71
     0
 42
2.48139
  3
txt.shx
  4
extfont.shx
  0
STYLE
  2
KANJI3
 70
     0
 40
8.0
 41
0.625
 50
0.0
 71
     0
 42
8.0
  3
txt.shx
  4
extfont.shx
  0
STYLE
  2
KANJI4
 70
     0
 40
6.0
 41
0.522916667
 50
0.0
 71
     0
 42
6.0
  3
txt.shx
  4
extfont.shx
  0
STYLE
  2
KANJI5
 70
     0
 40
6.0
 41
0.666666667
 50
0.0
 71
     0
 42
6.0
  3
txt.shx
  4
extfont.shx
  0
STYLE
  2
KANJI6
 70
     0
 40
3.0
 41
0.6
 50
0.0
 71
     0
 42
3.0
  3
txt.shx
  4
extfont.shx
  0
STYLE
  2
KANJI7
 70
     0
 40
2.48139
 41
0.6
 50
0.0
 71
     0
 42
2.48139
  3
txt.shx
  4
extfont.shx
  0
STYLE
  2
KANJI8
 70
     0
 40
3.0
 41
1.0
 50
0.0
 71
     0
 42
3.0
  3
txt.shx
  4
extfont.shx
  0
STYLE
  2
KANJI9
 70
     0
 40
2.0
 41
0.5
 50
0.0
 71
     0
 42
2.0
  3
txt.shx
  4
extfont.shx
  0
ENDTAB
  0
TABLE
  2
VIEW
 70
     0
  0
ENDTAB
  0
ENDSEC
  0
SECTION
  2
BLOCKS
  0
ENDSEC
  0
SECTION
  2
ENTITIES
  0
ARC
  8
0
  6
CONTINUOUS
 62
     1
 10
51.275946
 20
193.211851412
 30
0.0
 40
1.209
 50
180.0
 51
270.0
  0
LINE
  8
0
  6
CONTINUOUS
 62
     1
 10
51.275946
 20
192.002851412
 30
0.0
 11
164.921946
 21
192.002851412
 31
0.0
  0
ARC
  8
0
  6
CONTINUOUS
 62
     1
 10
164.921946
 20
193.211851412
 30
0.0
 40
1.209
 50
270.0
 51
0.0
  0
ARC
  8
0
  6
CONTINUOUS
 62
     1
 10
164.921946
 20
248.825851412
 30
0.0
 40
1.209
 50
0.0
 51
90.0
  0
LINE
  8
0
  6
CONTINUOUS
 62
     1
 10
155.612646
 20
219.386701412
 30
0.0
 11
158.151546
 21
219.386701412
 31
0.0
  0
LINE
  8
0
  6
CONTINUOUS
 62
     1
 10
155.612646
 20
216.968701412
 30
0.0
 11
158.151546
 21
216.968701412
 31
0.0
  0
LINE
  8
0
  6
CONTINUOUS
 62
     1
 10
155.612646
 20
219.386701412
 30
0.0
 11
155.612646
 21
216.968701412
 31
0.0
  0
LINE
  8
0
  6
CONTINUOUS
 62
     1
 10
158.151546
 20
219.386701412
 30
0.0
 11
158.151546
 21
216.968701412
 31
0.0
  0
LINE
  8
0
  6
CONTINUOUS
 62
     1
 10
155.370846
 20
223.013701412
 30
0.0
 11
158.393346
 21
223.013701412
 31
0.0
  0
LINE
  8
0
  6
CONTINUOUS
 62
     1
 10
155.370846
 20
222.409201412
 30
0.0
 11
158.393346
 21
222.409201412
 31
0.0
  0
LINE
  8
0
  6
CONTINUOUS
 62
     1
 10
155.370846
 20
221.804701412
 30
0.0
 11
158.393346
 21
221.804701412
 31
0.0
  0
LINE
  8
0
  6
CONTINUOUS
 62
     1
 10
155.370846
 20
221.200201412
 30
0.0
 11
158.393346
 21
221.200201412
 31
0.0
  0
LINE
  8
0
  6
CONTINUOUS
 62
     1
 10
155.370846
 20
220.595701412
 30
0.0
 11
158.393346
 21
220.595701412
 31
0.0
  0
LINE
  8
0
  6
CONTINUOUS
 62
     1
 10
155.370846
 20
219.991201412
 30
0.0
 11
158.393346
 21
219.991201412
 31
0.0
  0
LINE
  8
0
  6
CONTINUOUS
 62
     1
 10
155.370846
 20
213.341701412
 30
0.0
 11
158.393346
 21
213.341701412
 31
0.0
  0
LINE
  8
0
  6
CONTINUOUS
 62
     1
 10
155.370846
 20
213.946201412
 30
0.0
 11
158.393346
 21
213.946201412
 31
0.0
  0
LINE
  8
0
  6
CONTINUOUS
 62
     1
 10
155.370846
 20
214.550701412
 30
0.0
 11
158.393346
 21
214.550701412
 31
0.0
  0
LINE
  8
0
  6
CONTINUOUS
 62
     1
 10
155.370846
 20
215.155201412
 30
0.0
 11
158.393346
 21
215.155201412
 31
0.0
  0
LINE
  8
0
  6
CONTINUOUS
 62
     1
 10
155.370846
 20
215.759701412
 30
0.0
 11
158.393346
 21
215.759701412
 31
0.0
  0
LINE
  8
0
  6
CONTINUOUS
 62
     1
 10
155.370846
 20
216.364201412
 30
0.0
 11
158.393346
 21
216.364201412
 31
0.0
  0
LINE
  8
0
  6
CONTINUOUS
 62
     1
 10
155.612646
 20
237.521701412
 30
0.0
 11
158.151546
 21
237.521701412
 31
0.0
  0
LINE
  8
0
  6
CONTINUOUS
 62
     1
 10
155.612646
 20
235.103701412
 30
0.0
 11
158.151546
 21
235.103701412
 31
0.0
  0
LINE
  8
0
  6
CONTINUOUS
 62
     1
 10
155.612646
 20
237.521701412
 30
0.0
 11
155.612646
 21
235.103701412
 31
0.0
  0
LINE
  8
0
  6
CONTINUOUS
 62
     1
 10
158.151546
 20
237.521701412
 30
0.0
 11
158.151546
 21
235.103701412
 31
0.0
  0
LINE
  8
0
  6
CONTINUOUS
 62
     1
 10
155.370846
 20
241.148701412
 30
0.0
 11
158.393346
 21
241.148701412
 31
0.0
  0
LINE
  8
0
  6
CONTINUOUS
 62
     1
 10
155.370846
 20
240.544201412
 30
0.0
 11
158.393346
 21
240.544201412
 31
0.0
  0
LINE
  8
0
  6
CONTINUOUS
 62
     1
 10
155.370846
 20
239.939701412
 30
0.0
 11
158.393346
 21
239.939701412
 31
0.0
  0
LINE
  8
0
  6
CONTINUOUS
 62
     1
 10
155.370846
 20
239.335201412
 30
0.0
 11
158.393346
 21
239.335201412
 31
0.0
  0
LINE
  8
0
  6
CONTINUOUS
 62
     1
 10
155.370846
 20
238.730701412
 30
0.0
 11
158.393346
 21
238.730701412
 31
0.0
  0
LINE
  8
0
  6
CONTINUOUS
 62
     1
 10
155.370846
 20
238.126201412
 30
0.0
 11
158.393346
 21
238.126201412
 31
0.0
  0
LINE
  8
0
  6
CONTINUOUS
 62
     1
 10
155.370846
 20
231.476701412
 30
0.0
 11
158.393346
 21
231.476701412
 31
0.0
  0
LINE
  8
0
  6
CONTINUOUS
 62
     1
 10
155.370846
 20
232.081201412
 30
0.0
 11
158.393346
 21
232.081201412
 31
0.0
  0
LINE
  8
0
  6
CONTINUOUS
 62
     1
 10
155.370846
 20
232.685701412
 30
0.0
 11
158.393346
 21
232.685701412
 31
0.0
  0
LINE
  8
0
  6
CONTINUOUS
 62
     1
 10
155.370846
 20
233.290201412
 30
0.0
 11
158.393346
 21
233.290201412
 31
0.0
  0
LINE
  8
0
  6
CONTINUOUS
 62
     1
 10
155.370846
 20
233.894701412
 30
0.0
 11
158.393346
 21
233.894701412
 31
0.0
  0
LINE
  8
0
  6
CONTINUOUS
 62
     1
 10
155.370846
 20
234.499201412
 30
0.0
 11
158.393346
 21
234.499201412
 31
0.0
  0
ARC
  8
0
  6
CONTINUOUS
 62
     1
 10
51.275946
 20
248.825851412
 30
0.0
 40
1.209
 50
90.0
 51
180.0
  0
ARC
  8
0
  6
CONTINUOUS
 62
     1
 10
50.671446
 20
247.616851412
 30
0.0
 40
0.6045
 50
90.0
 51
180.0
  0
ARC
  8
0
  6
CONTINUOUS
 62
     1
 10
165.526446
 20
247.616851412
 30
0.0
 40
0.6045
 50
0.0
 51
90.0
  0
LINE
  8
0
  6
CONTINUOUS
 62
     1
 10
166.130946
 20
193.211851412
 30
0.0
 11
166.130946
 21
248.825851412
 31
0.0
  0
LINE
  8
0
  6
CONTINUOUS
 62
     1
 10
50.066946
 20
248.825851412
 30
0.0
 11
50.066946
 21
193.211851412
 31
0.0
  0
LINE
  8
0
  6
CONTINUOUS
 62
     1
 10
50.066946
 20
193.816351412
 30
0.0
 11
166.130946
 21
193.816351412
 31
0.0
  0
LINE
  8
0
  6
CONTINUOUS
 62
     1
 10
50.066946
 20
208.324351412
 30
0.0
 11
166.130946
 21
208.324351412
 31
0.0
  0
ARC
  8
0
  6
CONTINUOUS
 62
     1
 10
50.671446
 20
208.928851412
 30
0.0
 40
0.6045
 50
180.0
 51
270.0
  0
ARC
  8
0
  6
CONTINUOUS
 62
     1
 10
165.526446
 20
208.928851412
 30
0.0
 40
0.6045
 50
270.0
 51
0.0
  0
LINE
  8
0
  6
CONTINUOUS
 62
     1
 10
84.947774384
 20
229.360951412
 30
0.0
 11
79.023674384
 21
229.360951412
 31
0.0
  0
LINE
  8
0
  6
CONTINUOUS
 62
     1
 10
84.564051609
 20
227.184751412
 30
0.0
 11
78.647422956
 21
227.184751412
 31
0.0
  0
LINE
  8
0
  6
CONTINUOUS
 62
     1
 10
65.481696
 20
230.086351412
 30
0.0
 11
71.526696
 21
230.086351412
 31
0.0
  0
LINE
  8
0
  6
CONTINUOUS
 62
     1
 10
71.526696
 20
226.459351412
 30
0.0
 11
65.481696
 21
226.459351412
 31
0.0
  0
LINE
  8
0
  6
CONTINUOUS
 62
     1
 10
65.481696
 20
226.459351412
 30
0.0
 11
65.481696
 21
230.086351412
 31
0.0
  0
LINE
  8
0
  6
CONTINUOUS
 62
     1
 10
65.481696
 20
235.526851412
 30
0.0
 11
71.526696
 21
235.526851412
 31
0.0
  0
LINE
  8
0
  6
CONTINUOUS
 62
     1
 10
71.526696
 20
235.526851412
 30
0.0
 11
71.526696
 21
231.899851412
 31
0.0
  0
LINE
  8
0
  6
CONTINUOUS
 62
     1
 10
71.526696
 20
231.899851412
 30
0.0
 11
65.481696
 21
231.899851412
 31
0.0
  0
LINE
  8
0
  6
CONTINUOUS
 62
     1
 10
65.481696
 20
231.899851412
 30
0.0
 11
65.481696
 21
235.526851412
 31
0.0
  0
LINE
  8
0
  6
CONTINUOUS
 62
     1
 10
65.481696
 20
240.967351412
 30
0.0
 11
71.526696
 21
240.967351412
 31
0.0
  0
LINE
  8
0
  6
CONTINUOUS
 62
     1
 10
71.526696
 20
240.967351412
 30
0.0
 11
71.526696
 21
237.340351412
 31
0.0
  0
LINE
  8
0
  6
CONTINUOUS
 62
     1
 10
71.526696
 20
237.340351412
 30
0.0
 11
65.481696
 21
237.340351412
 31
0.0
  0
LINE
  8
0
  6
CONTINUOUS
 62
     1
 10
65.481696
 20
237.340351412
 30
0.0
 11
65.481696
 21
240.967351412
 31
0.0
  0
LINE
  8
0
  6
CONTINUOUS
 62
     1
 10
65.481696
 20
221.018851412
 30
0.0
 11
71.526696
 21
221.018851412
 31
0.0
  0
LINE
  8
0
  6
CONTINUOUS
 62
     1
 10
71.526696
 20
221.018851412
 30
0.0
 11
71.526696
 21
224.645851412
 31
0.0
  0
LINE
  8
0
  6
CONTINUOUS
 62
     1
 10
71.526696
 20
224.645851412
 30
0.0
 11
65.481696
 21
224.645851412
 31
0.0
  0
LINE
  8
0
  6
CONTINUOUS
 62
     1
 10
65.481696
 20
224.645851412
 30
0.0
 11
65.481696
 21
221.018851412
 31
0.0
  0
LINE
  8
0
  6
CONTINUOUS
 62
     1
 10
65.481696
 20
215.578351412
 30
0.0
 11
71.526696
 21
215.578351412
 31
0.0
  0
LINE
  8
0
  6
CONTINUOUS
 62
     1
 10
71.526696
 20
215.578351412
 30
0.0
 11
71.526696
 21
219.205351412
 31
0.0
  0
LINE
  8
0
  6
CONTINUOUS
 62
     1
 10
71.526696
 20
219.205351412
 30
0.0
 11
65.481696
 21
219.205351412
 31
0.0
  0
LINE
  8
0
  6
CONTINUOUS
 62
     1
 10
65.481696
 20
219.205351412
 30
0.0
 11
65.481696
 21
215.578351412
 31
0.0
  0
LINE
  8
0
  6
CONTINUOUS
 62
     1
 10
129.589092995
 20
230.690851412
 30
0.0
 11
129.589092995
 21
232.504351412
 31
0.0
  0
LINE
  8
0
  6
CONTINUOUS
 62
     1
 10
129.589092995
 20
232.504351412
 30
0.0
 11
134.425092995
 21
232.504351412
 31
0.0
  0
LINE
  8
0
  6
CONTINUOUS
 62
     1
 10
134.425092995
 20
232.504351412
 30
0.0
 11
134.425092995
 21
228.877351412
 31
0.0
  0
LINE
  8
0
  6
CONTINUOUS
 62
     1
 10
134.425092995
 20
228.877351412
 30
0.0
 11
129.589092995
 21
228.877351412
 31
0.0
  0
LINE
  8
0
  6
CONTINUOUS
 62
     1
 10
129.589092995
 20
228.877351412
 30
0.0
 11
129.589092995
 21
230.690851412
 31
0.0
  0
LINE
  8
0
  6
CONTINUOUS
 62
     1
 10
129.589092995
 20
225.854851412
 30
0.0
 11
129.589092995
 21
224.041351412
 31
0.0
  0
LINE
  8
0
  6
CONTINUOUS
 62
     1
 10
129.589092995
 20
224.041351412
 30
0.0
 11
134.425092995
 21
224.041351412
 31
0.0
  0
LINE
  8
0
  6
CONTINUOUS
 62
     1
 10
134.425092995
 20
224.041351412
 30
0.0
 11
134.425092995
 21
227.668351412
 31
0.0
  0
LINE
  8
0
  6
CONTINUOUS
 62
     1
 10
134.425092995
 20
227.668351412
 30
0.0
 11
129.589092995
 21
227.668351412
 31
0.0
  0
LINE
  8
0
  6
CONTINUOUS
 62
     1
 10
129.589092995
 20
227.668351412
 30
0.0
 11
129.589092995
 21
225.854851412
 31
0.0
  0
LINE
  8
0
  6
CONTINUOUS
 62
     1
 10
146.817342995
 20
230.690851412
 30
0.0
 11
146.817342995
 21
232.504351412
 31
0.0
  0
LINE
  8
0
  6
CONTINUOUS
 62
     1
 10
146.817342995
 20
232.504351412
 30
0.0
 11
151.653342995
 21
232.504351412
 31
0.0
  0
LINE
  8
0
  6
CONTINUOUS
 62
     1
 10
151.653342995
 20
232.504351412
 30
0.0
 11
151.653342995
 21
228.877351412
 31
0.0
  0
LINE
  8
0
  6
CONTINUOUS
 62
     1
 10
151.653342995
 20
228.877351412
 30
0.0
 11
146.817342995
 21
228.877351412
 31
0.0
  0
LINE
  8
0
  6
CONTINUOUS
 62
     1
 10
146.817342995
 20
228.877351412
 30
0.0
 11
146.817342995
 21
230.690851412
 31
0.0
  0
LINE
  8
0
  6
CONTINUOUS
 62
     1
 10
146.817342995
 20
225.854851412
 30
0.0
 11
146.817342995
 21
224.041351412
 31
0.0
  0
LINE
  8
0
  6
CONTINUOUS
 62
     1
 10
146.817342995
 20
224.041351412
 30
0.0
 11
151.653342995
 21
224.041351412
 31
0.0
  0
LINE
  8
0
  6
CONTINUOUS
 62
     1
 10
151.653342995
 20
224.041351412
 30
0.0
 11
151.653342995
 21
227.668351412
 31
0.0
  0
LINE
  8
0
  6
CONTINUOUS
 62
     1
 10
151.653342995
 20
227.668351412
 30
0.0
 11
146.817342995
 21
227.668351412
 31
0.0
  0
LINE
  8
0
  6
CONTINUOUS
 62
     1
 10
146.817342995
 20
227.668351412
 30
0.0
 11
146.817342995
 21
225.854851412
 31
0.0
  0
LINE
  8
0
  6
CONTINUOUS
 62
     1
 10
141.074592995
 20
230.690851412
 30
0.0
 11
141.074592995
 21
232.504351412
 31
0.0
  0
LINE
  8
0
  6
CONTINUOUS
 62
     1
 10
141.074592995
 20
232.504351412
 30
0.0
 11
145.910592995
 21
232.504351412
 31
0.0
  0
LINE
  8
0
  6
CONTINUOUS
 62
     1
 10
145.910592995
 20
232.504351412
 30
0.0
 11
145.910592995
 21
228.877351412
 31
0.0
  0
LINE
  8
0
  6
CONTINUOUS
 62
     1
 10
145.910592995
 20
228.877351412
 30
0.0
 11
141.074592995
 21
228.877351412
 31
0.0
  0
LINE
  8
0
  6
CONTINUOUS
 62
     1
 10
141.074592995
 20
228.877351412
 30
0.0
 11
141.074592995
 21
230.690851412
 31
0.0
  0
LINE
  8
0
  6
CONTINUOUS
 62
     1
 10
141.074592995
 20
225.854851412
 30
0.0
 11
141.074592995
 21
224.041351412
 31
0.0
  0
LINE
  8
0
  6
CONTINUOUS
 62
     1
 10
141.074592995
 20
224.041351412
 30
0.0
 11
145.910592995
 21
224.041351412
 31
0.0
  0
LINE
  8
0
  6
CONTINUOUS
 62
     1
 10
145.910592995
 20
224.041351412
 30
0.0
 11
145.910592995
 21
227.668351412
 31
0.0
  0
LINE
  8
0
  6
CONTINUOUS
 62
     1
 10
145.910592995
 20
227.668351412
 30
0.0
 11
141.074592995
 21
227.668351412
 31
0.0
  0
LINE
  8
0
  6
CONTINUOUS
 62
     1
 10
141.074592995
 20
227.668351412
 30
0.0
 11
141.074592995
 21
225.854851412
 31
0.0
  0
LINE
  8
0
  6
CONTINUOUS
 62
     1
 10
135.331842995
 20
230.690851412
 30
0.0
 11
135.331842995
 21
232.504351412
 31
0.0
  0
LINE
  8
0
  6
CONTINUOUS
 62
     1
 10
135.331842995
 20
232.504351412
 30
0.0
 11
140.167842995
 21
232.504351412
 31
0.0
  0
LINE
  8
0
  6
CONTINUOUS
 62
     1
 10
140.167842995
 20
232.504351412
 30
0.0
 11
140.167842995
 21
228.877351412
 31
0.0
  0
LINE
  8
0
  6
CONTINUOUS
 62
     1
 10
140.167842995
 20
228.877351412
 30
0.0
 11
135.331842995
 21
228.877351412
 31
0.0
  0
LINE
  8
0
  6
CONTINUOUS
 62
     1
 10
135.331842995
 20
228.877351412
 30
0.0
 11
135.331842995
 21
230.690851412
 31
0.0
  0
LINE
  8
0
  6
CONTINUOUS
 62
     1
 10
135.331842995
 20
225.854851412
 30
0.0
 11
135.331842995
 21
224.041351412
 31
0.0
  0
LINE
  8
0
  6
CONTINUOUS
 62
     1
 10
135.331842995
 20
224.041351412
 30
0.0
 11
140.167842995
 21
224.041351412
 31
0.0
  0
LINE
  8
0
  6
CONTINUOUS
 62
     1
 10
140.167842995
 20
224.041351412
 30
0.0
 11
140.167842995
 21
227.668351412
 31
0.0
  0
LINE
  8
0
  6
CONTINUOUS
 62
     1
 10
140.167842995
 20
227.668351412
 30
0.0
 11
135.331842995
 21
227.668351412
 31
0.0
  0
LINE
  8
0
  6
CONTINUOUS
 62
     1
 10
135.331842995
 20
227.668351412
 30
0.0
 11
135.331842995
 21
225.854851412
 31
0.0
  0
LINE
  8
0
  6
CONTINUOUS
 62
     1
 10
79.673950222
 20
241.209151412
 30
0.0
 11
85.82432784
 21
241.209151412
 31
0.0
  0
LINE
  8
0
  6
CONTINUOUS
 62
     1
 10
78.647422956
 20
226.822051412
 30
0.0
 11
76.73199868
 21
228.152613313
 31
0.0
  0
LINE
  8
0
  6
CONTINUOUS
 62
     1
 10
76.73199868
 20
228.152613313
 30
0.0
 11
76.644268672
 21
228.106355673
 31
0.0
  0
LINE
  8
0
  6
CONTINUOUS
 62
     1
 10
75.722542964
 20
217.570982611
 30
0.0
 11
76.644268672
 21
228.106355673
 31
0.0
  0
LINE
  8
0
  6
CONTINUOUS
 62
     1
 10
76.73199868
 20
228.515313313
 30
0.0
 11
76.683024231
 21
228.549333733
 31
0.0
  0
LINE
  8
0
  6
CONTINUOUS
 62
     1
 10
76.683024231
 20
228.549333733
 30
0.0
 11
77.62647126
 21
239.332982611
 31
0.0
  0
LINE
  8
0
  6
CONTINUOUS
 62
     1
 10
78.832232424
 20
229.622709288
 30
0.0
 11
76.73199868
 21
228.515313313
 31
0.0
  0
LINE
  8
0
  6
CONTINUOUS
 62
     1
 10
79.023674384
 20
229.360951412
 30
0.0
 11
77.028824384
 21
228.309121412
 31
0.0
  0
LINE
  8
0
  6
CONTINUOUS
 62
     1
 10
78.647422956
 20
227.184751412
 30
0.0
 11
77.028824384
 21
228.309121412
 31
0.0
  0
LINE
  8
0
  6
CONTINUOUS
 62
     1
 10
84.564051609
 20
227.184751412
 30
0.0
 11
86.271842737
 21
228.35414376
 31
0.0
  0
LINE
  8
0
  6
CONTINUOUS
 62
     1
 10
84.947774384
 20
229.360951412
 30
0.0
 11
86.206091695
 21
228.361353549
 31
0.0
  0
LINE
  8
0
  6
CONTINUOUS
 62
     1
 10
87.871806803
 20
238.974720214
 30
0.0
 11
86.98537214
 21
228.842725653
 31
0.0
  0
LINE
  8
0
  6
CONTINUOUS
 62
     1
 10
86.486615732
 20
228.501207351
 30
0.0
 11
86.98537214
 21
228.842725653
 31
0.0
  0
LINE
  8
0
  6
CONTINUOUS
 62
     1
 10
85.003285141
 20
229.679554083
 30
0.0
 11
86.486615732
 21
228.501207351
 31
0.0
  0
LINE
  8
0
  6
CONTINUOUS
 62
     1
 10
84.765344922
 20
226.95988493
 30
0.0
 11
86.486615732
 21
228.138507351
 31
0.0
  0
LINE
  8
0
  6
CONTINUOUS
 62
     1
 10
86.486615732
 20
228.138507351
 30
0.0
 11
86.8953536
 21
227.813809043
 31
0.0
  0
LINE
  8
0
  6
CONTINUOUS
 62
     1
 10
85.801239305
 20
238.800211923
 30
0.0
 11
85.003285141
 21
229.679554083
 31
0.0
  0
ARC
  8
0
  6
CONTINUOUS
 62
     1
 10
85.82432784
 20
239.153851412
 30
0.0
 40
2.0553
 50
355.0
 51
35.661885516
  0
LINE
  8
0
  6
CONTINUOUS
 62
     1
 10
85.801239305
 20
238.800211923
 30
0.0
 11
87.49420058
 21
240.352093091
 31
0.0
  0
ARC
  8
0
  6
CONTINUOUS
 62
     1
 10
85.82432784
 20
239.153851412
 30
0.0
 40
2.0553
 50
42.510447078
 51
90.0
  0
LINE
  8
0
  6
CONTINUOUS
 62
     1
 10
85.82432784
 20
239.153851412
 30
0.0
 11
87.339400745
 21
240.542668241
 31
0.0
  0
LINE
  8
0
  6
CONTINUOUS
 62
     1
 10
79.673950222
 20
239.153851412
 30
0.0
 11
85.82432784
 21
239.153851412
 31
0.0
  0
ARC
  8
0
  6
CONTINUOUS
 62
     1
 10
79.673950222
 20
239.153851412
 30
0.0
 40
2.0553
 50
90.0
 51
130.236358309
  0
LINE
  8
0
  6
CONTINUOUS
 62
     1
 10
79.673950222
 20
239.153851412
 30
0.0
 11
78.346345134
 21
240.722839244
 31
0.0
  0
LINE
  8
0
  6
CONTINUOUS
 62
     1
 10
78.832232424
 20
229.622709288
 30
0.0
 11
79.632847533
 21
238.773781863
 31
0.0
  0
LINE
  8
0
  6
CONTINUOUS
 62
     1
 10
79.632847533
 20
238.773781863
 30
0.0
 11
78.147080556
 21
240.52968829
 31
0.0
  0
ARC
  8
0
  6
CONTINUOUS
 62
     1
 10
79.673950222
 20
239.153851412
 30
0.0
 40
2.0553
 50
137.978511473
 51
175.0
  0
LINE
  8
0
  6
CONTINUOUS
 62
     1
 10
86.8953536
 20
227.813809043
 30
0.0
 11
85.967878508
 21
217.212720214
 31
0.0
  0
LINE
  8
0
  6
CONTINUOUS
 62
     1
 10
77.770021927
 20
215.336551412
 30
0.0
 11
83.920399544
 21
215.336551412
 31
0.0
  0
LINE
  8
0
  6
CONTINUOUS
 62
     1
 10
77.796056206
 20
217.779160931
 30
0.0
 11
78.590656563
 21
226.861484555
 31
0.0
  0
LINE
  8
0
  6
CONTINUOUS
 62
     1
 10
77.796056206
 20
217.779160931
 30
0.0
 11
76.107680161
 21
216.183183574
 31
0.0
  0
ARC
  8
0
  6
CONTINUOUS
 62
     1
 10
77.770021927
 20
217.391851412
 30
0.0
 40
2.0553
 50
175.0
 51
216.020429656
  0
ARC
  8
0
  6
CONTINUOUS
 62
     1
 10
77.770021927
 20
217.391851412
 30
0.0
 40
2.0553
 50
223.388523327
 51
270.0
  0
ARC
  8
0
  6
CONTINUOUS
 62
     1
 10
83.920399544
 20
217.391851412
 30
0.0
 40
2.0553
 50
270.0
 51
302.783757703
  0
ARC
  8
0
  6
CONTINUOUS
 62
     1
 10
83.920399544
 20
217.391851412
 30
0.0
 40
2.0553
 50
308.266936369
 51
355.0
  0
LINE
  8
0
  6
CONTINUOUS
 62
     1
 10
83.920399544
 20
217.391851412
 30
0.0
 11
85.033282637
 21
215.66391932
 31
0.0
  0
LINE
  8
0
  6
CONTINUOUS
 62
     1
 10
77.770021927
 20
217.391851412
 30
0.0
 11
83.920399544
 21
217.391851412
 31
0.0
  0
LINE
  8
0
  6
CONTINUOUS
 62
     1
 10
77.770021927
 20
217.391851412
 30
0.0
 11
76.276410169
 21
215.979979602
 31
0.0
  0
CIRCLE
  8
0
  6
CONTINUOUS
 62
     1
 10
87.046967996
 20
216.390799412
 30
0.0
 40
0.7254
  0
LINE
  8
0
  6
CONTINUOUS
 62
     1
 10
98.246774384
 20
229.360951412
 30
0.0
 11
92.322674384
 21
229.360951412
 31
0.0
  0
LINE
  8
0
  6
CONTINUOUS
 62
     1
 10
97.863051609
 20
227.184751412
 30
0.0
 11
91.946422956
 21
227.184751412
 31
0.0
  0
LINE
  8
0
  6
CONTINUOUS
 62
     1
 10
92.972950222
 20
241.209151412
 30
0.0
 11
99.12332784
 21
241.209151412
 31
0.0
  0
LINE
  8
0
  6
CONTINUOUS
 62
     1
 10
91.946422956
 20
226.822051412
 30
0.0
 11
90.03099868
 21
228.152613313
 31
0.0
  0
LINE
  8
0
  6
CONTINUOUS
 62
     1
 10
90.03099868
 20
228.152613313
 30
0.0
 11
89.943268672
 21
228.106355673
 31
0.0
  0
LINE
  8
0
  6
CONTINUOUS
 62
     1
 10
89.021542964
 20
217.570982611
 30
0.0
 11
89.943268672
 21
228.106355673
 31
0.0
  0
LINE
  8
0
  6
CONTINUOUS
 62
     1
 10
90.03099868
 20
228.515313313
 30
0.0
 11
89.982024231
 21
228.549333733
 31
0.0
  0
LINE
  8
0
  6
CONTINUOUS
 62
     1
 10
89.982024231
 20
228.549333733
 30
0.0
 11
90.92547126
 21
239.332982611
 31
0.0
  0
LINE
  8
0
  6
CONTINUOUS
 62
     1
 10
92.131232424
 20
229.622709288
 30
0.0
 11
90.03099868
 21
228.515313313
 31
0.0
  0
LINE
  8
0
  6
CONTINUOUS
 62
     1
 10
92.322674384
 20
229.360951412
 30
0.0
 11
90.327824384
 21
228.309121412
 31
0.0
  0
LINE
  8
0
  6
CONTINUOUS
 62
     1
 10
91.946422956
 20
227.184751412
 30
0.0
 11
90.327824384
 21
228.309121412
 31
0.0
  0
LINE
  8
0
  6
CONTINUOUS
 62
     1
 10
97.863051609
 20
227.184751412
 30
0.0
 11
99.570842737
 21
228.35414376
 31
0.0
  0
LINE
  8
0
  6
CONTINUOUS
 62
     1
 10
98.246774384
 20
229.360951412
 30
0.0
 11
99.505091695
 21
228.361353549
 31
0.0
  0
LINE
  8
0
  6
CONTINUOUS
 62
     1
 10
101.170806803
 20
238.974720214
 30
0.0
 11
100.28437214
 21
228.842725653
 31
0.0
  0
LINE
  8
0
  6
CONTINUOUS
 62
     1
 10
99.785615732
 20
228.501207351
 30
0.0
 11
100.28437214
 21
228.842725653
 31
0.0
  0
LINE
  8
0
  6
CONTINUOUS
 62
     1
 10
98.302285141
 20
229.679554083
 30
0.0
 11
99.785615732
 21
228.501207351
 31
0.0
  0
LINE
  8
0
  6
CONTINUOUS
 62
     1
 10
98.064344922
 20
226.95988493
 30
0.0
 11
99.785615732
 21
228.138507351
 31
0.0
  0
LINE
  8
0
  6
CONTINUOUS
 62
     1
 10
99.785615732
 20
228.138507351
 30
0.0
 11
100.1943536
 21
227.813809043
 31
0.0
  0
LINE
  8
0
  6
CONTINUOUS
 62
     1
 10
99.100239305
 20
238.800211923
 30
0.0
 11
98.302285141
 21
229.679554083
 31
0.0
  0
ARC
  8
0
  6
CONTINUOUS
 62
     1
 10
99.12332784
 20
239.153851412
 30
0.0
 40
2.0553
 50
355.0
 51
35.661885516
  0
LINE
  8
0
  6
CONTINUOUS
 62
     1
 10
99.100239305
 20
238.800211923
 30
0.0
 11
100.79320058
 21
240.352093091
 31
0.0
  0
ARC
  8
0
  6
CONTINUOUS
 62
     1
 10
99.12332784
 20
239.153851412
 30
0.0
 40
2.0553
 50
42.510447078
 51
90.0
  0
LINE
  8
0
  6
CONTINUOUS
 62
     1
 10
99.12332784
 20
239.153851412
 30
0.0
 11
100.638400745
 21
240.542668241
 31
0.0
  0
LINE
  8
0
  6
CONTINUOUS
 62
     1
 10
92.972950222
 20
239.153851412
 30
0.0
 11
99.12332784
 21
239.153851412
 31
0.0
  0
ARC
  8
0
  6
CONTINUOUS
 62
     1
 10
92.972950222
 20
239.153851412
 30
0.0
 40
2.0553
 50
90.0
 51
130.236358309
  0
LINE
  8
0
  6
CONTINUOUS
 62
     1
 10
92.972950222
 20
239.153851412
 30
0.0
 11
91.645345134
 21
240.722839244
 31
0.0
  0
LINE
  8
0
  6
CONTINUOUS
 62
     1
 10
92.131232424
 20
229.622709288
 30
0.0
 11
92.931847533
 21
238.773781863
 31
0.0
  0
LINE
  8
0
  6
CONTINUOUS
 62
     1
 10
92.931847533
 20
238.773781863
 30
0.0
 11
91.446080556
 21
240.52968829
 31
0.0
  0
ARC
  8
0
  6
CONTINUOUS
 62
     1
 10
92.972950222
 20
239.153851412
 30
0.0
 40
2.0553
 50
137.978511473
 51
175.0
  0
LINE
  8
0
  6
CONTINUOUS
 62
     1
 10
100.1943536
 20
227.813809043
 30
0.0
 11
99.266878508
 21
217.212720214
 31
0.0
  0
LINE
  8
0
  6
CONTINUOUS
 62
     1
 10
91.069021927
 20
215.336551412
 30
0.0
 11
97.219399544
 21
215.336551412
 31
0.0
  0
LINE
  8
0
  6
CONTINUOUS
 62
     1
 10
91.095056206
 20
217.779160931
 30
0.0
 11
91.889656563
 21
226.861484555
 31
0.0
  0
LINE
  8
0
  6
CONTINUOUS
 62
     1
 10
91.095056206
 20
217.779160931
 30
0.0
 11
89.406680161
 21
216.183183574
 31
0.0
  0
ARC
  8
0
  6
CONTINUOUS
 62
     1
 10
91.069021927
 20
217.391851412
 30
0.0
 40
2.0553
 50
175.0
 51
216.020429656
  0
ARC
  8
0
  6
CONTINUOUS
 62
     1
 10
91.069021927
 20
217.391851412
 30
0.0
 40
2.0553
 50
223.388523327
 51
270.0
  0
ARC
  8
0
  6
CONTINUOUS
 62
     1
 10
97.219399544
 20
217.391851412
 30
0.0
 40
2.0553
 50
270.0
 51
302.783757703
  0
ARC
  8
0
  6
CONTINUOUS
 62
     1
 10
97.219399544
 20
217.391851412
 30
0.0
 40
2.0553
 50
308.266936369
 51
355.0
  0
LINE
  8
0
  6
CONTINUOUS
 62
     1
 10
97.219399544
 20
217.391851412
 30
0.0
 11
98.332282637
 21
215.66391932
 31
0.0
  0
LINE
  8
0
  6
CONTINUOUS
 62
     1
 10
91.069021927
 20
217.391851412
 30
0.0
 11
97.219399544
 21
217.391851412
 31
0.0
  0
LINE
  8
0
  6
CONTINUOUS
 62
     1
 10
91.069021927
 20
217.391851412
 30
0.0
 11
89.575410169
 21
215.979979602
 31
0.0
  0
CIRCLE
  8
0
  6
CONTINUOUS
 62
     1
 10
100.345967996
 20
216.390799412
 30
0.0
 40
0.7254
  0
LINE
  8
0
  6
CONTINUOUS
 62
     1
 10
111.545774384
 20
229.360951412
 30
0.0
 11
105.621674384
 21
229.360951412
 31
0.0
  0
LINE
  8
0
  6
CONTINUOUS
 62
     1
 10
111.162051609
 20
227.184751412
 30
0.0
 11
105.245422956
 21
227.184751412
 31
0.0
  0
LINE
  8
0
  6
CONTINUOUS
 62
     1
 10
106.271950222
 20
241.209151412
 30
0.0
 11
112.42232784
 21
241.209151412
 31
0.0
  0
LINE
  8
0
  6
CONTINUOUS
 62
     1
 10
105.245422956
 20
226.822051412
 30
0.0
 11
103.32999868
 21
228.152613313
 31
0.0
  0
LINE
  8
0
  6
CONTINUOUS
 62
     1
 10
103.32999868
 20
228.152613313
 30
0.0
 11
103.242268672
 21
228.106355673
 31
0.0
  0
LINE
  8
0
  6
CONTINUOUS
 62
     1
 10
102.320542964
 20
217.570982611
 30
0.0
 11
103.242268672
 21
228.106355673
 31
0.0
  0
LINE
  8
0
  6
CONTINUOUS
 62
     1
 10
103.32999868
 20
228.515313313
 30
0.0
 11
103.281024231
 21
228.549333733
 31
0.0
  0
LINE
  8
0
  6
CONTINUOUS
 62
     1
 10
103.281024231
 20
228.549333733
 30
0.0
 11
104.22447126
 21
239.332982611
 31
0.0
  0
LINE
  8
0
  6
CONTINUOUS
 62
     1
 10
105.430232424
 20
229.622709288
 30
0.0
 11
103.32999868
 21
228.515313313
 31
0.0
  0
LINE
  8
0
  6
CONTINUOUS
 62
     1
 10
105.621674384
 20
229.360951412
 30
0.0
 11
103.626824384
 21
228.309121412
 31
0.0
  0
LINE
  8
0
  6
CONTINUOUS
 62
     1
 10
105.245422956
 20
227.184751412
 30
0.0
 11
103.626824384
 21
228.309121412
 31
0.0
  0
LINE
  8
0
  6
CONTINUOUS
 62
     1
 10
111.162051609
 20
227.184751412
 30
0.0
 11
112.869842737
 21
228.35414376
 31
0.0
  0
LINE
  8
0
  6
CONTINUOUS
 62
     1
 10
111.545774384
 20
229.360951412
 30
0.0
 11
112.804091695
 21
228.361353549
 31
0.0
  0
LINE
  8
0
  6
CONTINUOUS
 62
     1
 10
114.469806803
 20
238.974720214
 30
0.0
 11
113.58337214
 21
228.842725653
 31
0.0
  0
LINE
  8
0
  6
CONTINUOUS
 62
     1
 10
113.084615732
 20
228.501207351
 30
0.0
 11
113.58337214
 21
228.842725653
 31
0.0
  0
LINE
  8
0
  6
CONTINUOUS
 62
     1
 10
111.601285141
 20
229.679554083
 30
0.0
 11
113.084615732
 21
228.501207351
 31
0.0
  0
LINE
  8
0
  6
CONTINUOUS
 62
     1
 10
111.363344922
 20
226.95988493
 30
0.0
 11
113.084615732
 21
228.138507351
 31
0.0
  0
LINE
  8
0
  6
CONTINUOUS
 62
     1
 10
113.084615732
 20
228.138507351
 30
0.0
 11
113.4933536
 21
227.813809043
 31
0.0
  0
LINE
  8
0
  6
CONTINUOUS
 62
     1
 10
112.399239305
 20
238.800211923
 30
0.0
 11
111.601285141
 21
229.679554083
 31
0.0
  0
ARC
  8
0
  6
CONTINUOUS
 62
     1
 10
112.42232784
 20
239.153851412
 30
0.0
 40
2.0553
 50
355.0
 51
35.661885516
  0
LINE
  8
0
  6
CONTINUOUS
 62
     1
 10
112.399239305
 20
238.800211923
 30
0.0
 11
114.09220058
 21
240.352093091
 31
0.0
  0
ARC
  8
0
  6
CONTINUOUS
 62
     1
 10
112.42232784
 20
239.153851412
 30
0.0
 40
2.0553
 50
42.510447078
 51
90.0
  0
LINE
  8
0
  6
CONTINUOUS
 62
     1
 10
112.42232784
 20
239.153851412
 30
0.0
 11
113.937400745
 21
240.542668241
 31
0.0
  0
LINE
  8
0
  6
CONTINUOUS
 62
     1
 10
106.271950222
 20
239.153851412
 30
0.0
 11
112.42232784
 21
239.153851412
 31
0.0
  0
ARC
  8
0
  6
CONTINUOUS
 62
     1
 10
106.271950222
 20
239.153851412
 30
0.0
 40
2.0553
 50
90.0
 51
130.236358309
  0
LINE
  8
0
  6
CONTINUOUS
 62
     1
 10
106.271950222
 20
239.153851412
 30
0.0
 11
104.944345134
 21
240.722839244
 31
0.0
  0
LINE
  8
0
  6
CONTINUOUS
 62
     1
 10
105.430232424
 20
229.622709288
 30
0.0
 11
106.230847533
 21
238.773781863
 31
0.0
  0
LINE
  8
0
  6
CONTINUOUS
 62
     1
 10
106.230847533
 20
238.773781863
 30
0.0
 11
104.745080556
 21
240.52968829
 31
0.0
  0
ARC
  8
0
  6
CONTINUOUS
 62
     1
 10
106.271950222
 20
239.153851412
 30
0.0
 40
2.0553
 50
137.978511473
 51
175.0
  0
LINE
  8
0
  6
CONTINUOUS
 62
     1
 10
113.4933536
 20
227.813809043
 30
0.0
 11
112.565878508
 21
217.212720214
 31
0.0
  0
LINE
  8
0
  6
CONTINUOUS
 62
     1
 10
104.368021927
 20
215.336551412
 30
0.0
 11
110.518399544
 21
215.336551412
 31
0.0
  0
LINE
  8
0
  6
CONTINUOUS
 62
     1
 10
104.394056206
 20
217.779160931
 30
0.0
 11
105.188656563
 21
226.861484555
 31
0.0
  0
LINE
  8
0
  6
CONTINUOUS
 62
     1
 10
104.394056206
 20
217.779160931
 30
0.0
 11
102.705680161
 21
216.183183574
 31
0.0
  0
ARC
  8
0
  6
CONTINUOUS
 62
     1
 10
104.368021927
 20
217.391851412
 30
0.0
 40
2.0553
 50
175.0
 51
216.020429656
  0
ARC
  8
0
  6
CONTINUOUS
 62
     1
 10
104.368021927
 20
217.391851412
 30
0.0
 40
2.0553
 50
223.388523327
 51
270.0
  0
ARC
  8
0
  6
CONTINUOUS
 62
     1
 10
110.518399544
 20
217.391851412
 30
0.0
 40
2.0553
 50
270.0
 51
302.783757703
  0
ARC
  8
0
  6
CONTINUOUS
 62
     1
 10
110.518399544
 20
217.391851412
 30
0.0
 40
2.0553
 50
308.266936369
 51
355.0
  0
LINE
  8
0
  6
CONTINUOUS
 62
     1
 10
110.518399544
 20
217.391851412
 30
0.0
 11
111.631282637
 21
215.66391932
 31
0.0
  0
LINE
  8
0
  6
CONTINUOUS
 62
     1
 10
104.368021927
 20
217.391851412
 30
0.0
 11
110.518399544
 21
217.391851412
 31
0.0
  0
LINE
  8
0
  6
CONTINUOUS
 62
     1
 10
104.368021927
 20
217.391851412
 30
0.0
 11
102.874410169
 21
215.979979602
 31
0.0
  0
CIRCLE
  8
0
  6
CONTINUOUS
 62
     1
 10
113.644967996
 20
216.390799412
 30
0.0
 40
0.7254
  0
LINE
  8
0
  6
CONTINUOUS
 62
     1
 10
124.844774384
 20
229.360951412
 30
0.0
 11
118.920674384
 21
229.360951412
 31
0.0
  0
LINE
  8
0
  6
CONTINUOUS
 62
     1
 10
124.461051609
 20
227.184751412
 30
0.0
 11
118.544422956
 21
227.184751412
 31
0.0
  0
LINE
  8
0
  6
CONTINUOUS
 62
     1
 10
119.570950222
 20
241.209151412
 30
0.0
 11
125.72132784
 21
241.209151412
 31
0.0
  0
LINE
  8
0
  6
CONTINUOUS
 62
     1
 10
118.544422956
 20
226.822051412
 30
0.0
 11
116.62899868
 21
228.152613313
 31
0.0
  0
LINE
  8
0
  6
CONTINUOUS
 62
     1
 10
116.62899868
 20
228.152613313
 30
0.0
 11
116.541268672
 21
228.106355673
 31
0.0
  0
LINE
  8
0
  6
CONTINUOUS
 62
     1
 10
115.619542964
 20
217.570982611
 30
0.0
 11
116.541268672
 21
228.106355673
 31
0.0
  0
LINE
  8
0
  6
CONTINUOUS
 62
     1
 10
116.62899868
 20
228.515313313
 30
0.0
 11
116.580024231
 21
228.549333733
 31
0.0
  0
LINE
  8
0
  6
CONTINUOUS
 62
     1
 10
116.580024231
 20
228.549333733
 30
0.0
 11
117.52347126
 21
239.332982611
 31
0.0
  0
LINE
  8
0
  6
CONTINUOUS
 62
     1
 10
118.729232424
 20
229.622709288
 30
0.0
 11
116.62899868
 21
228.515313313
 31
0.0
  0
LINE
  8
0
  6
CONTINUOUS
 62
     1
 10
118.920674384
 20
229.360951412
 30
0.0
 11
116.925824384
 21
228.309121412
 31
0.0
  0
LINE
  8
0
  6
CONTINUOUS
 62
     1
 10
118.544422956
 20
227.184751412
 30
0.0
 11
116.925824384
 21
228.309121412
 31
0.0
  0
LINE
  8
0
  6
CONTINUOUS
 62
     1
 10
124.461051609
 20
227.184751412
 30
0.0
 11
126.168842737
 21
228.35414376
 31
0.0
  0
LINE
  8
0
  6
CONTINUOUS
 62
     1
 10
124.844774384
 20
229.360951412
 30
0.0
 11
126.103091695
 21
228.361353549
 31
0.0
  0
LINE
  8
0
  6
CONTINUOUS
 62
     1
 10
127.768806803
 20
238.974720214
 30
0.0
 11
126.88237214
 21
228.842725653
 31
0.0
  0
LINE
  8
0
  6
CONTINUOUS
 62
     1
 10
126.383615732
 20
228.501207351
 30
0.0
 11
126.88237214
 21
228.842725653
 31
0.0
  0
LINE
  8
0
  6
CONTINUOUS
 62
     1
 10
124.900285141
 20
229.679554083
 30
0.0
 11
126.383615732
 21
228.501207351
 31
0.0
  0
LINE
  8
0
  6
CONTINUOUS
 62
     1
 10
124.662344922
 20
226.95988493
 30
0.0
 11
126.383615732
 21
228.138507351
 31
0.0
  0
LINE
  8
0
  6
CONTINUOUS
 62
     1
 10
126.383615732
 20
228.138507351
 30
0.0
 11
126.7923536
 21
227.813809043
 31
0.0
  0
LINE
  8
0
  6
CONTINUOUS
 62
     1
 10
125.698239305
 20
238.800211923
 30
0.0
 11
124.900285141
 21
229.679554083
 31
0.0
  0
ARC
  8
0
  6
CONTINUOUS
 62
     1
 10
125.72132784
 20
239.153851412
 30
0.0
 40
2.0553
 50
355.0
 51
35.661885516
  0
LINE
  8
0
  6
CONTINUOUS
 62
     1
 10
125.698239305
 20
238.800211923
 30
0.0
 11
127.39120058
 21
240.352093091
 31
0.0
  0
ARC
  8
0
  6
CONTINUOUS
 62
     1
 10
125.72132784
 20
239.153851412
 30
0.0
 40
2.0553
 50
42.510447078
 51
90.0
  0
LINE
  8
0
  6
CONTINUOUS
 62
     1
 10
125.72132784
 20
239.153851412
 30
0.0
 11
127.236400745
 21
240.542668241
 31
0.0
  0
LINE
  8
0
  6
CONTINUOUS
 62
     1
 10
119.570950222
 20
239.153851412
 30
0.0
 11
125.72132784
 21
239.153851412
 31
0.0
  0
ARC
  8
0
  6
CONTINUOUS
 62
     1
 10
119.570950222
 20
239.153851412
 30
0.0
 40
2.0553
 50
90.0
 51
130.236358309
  0
LINE
  8
0
  6
CONTINUOUS
 62
     1
 10
119.570950222
 20
239.153851412
 30
0.0
 11
118.243345134
 21
240.722839244
 31
0.0
  0
LINE
  8
0
  6
CONTINUOUS
 62
     1
 10
118.729232424
 20
229.622709288
 30
0.0
 11
119.529847533
 21
238.773781863
 31
0.0
  0
LINE
  8
0
  6
CONTINUOUS
 62
     1
 10
119.529847533
 20
238.773781863
 30
0.0
 11
118.044080556
 21
240.52968829
 31
0.0
  0
ARC
  8
0
  6
CONTINUOUS
 62
     1
 10
119.570950222
 20
239.153851412
 30
0.0
 40
2.0553
 50
137.978511473
 51
175.0
  0
LINE
  8
0
  6
CONTINUOUS
 62
     1
 10
126.7923536
 20
227.813809043
 30
0.0
 11
125.864878508
 21
217.212720214
 31
0.0
  0
LINE
  8
0
  6
CONTINUOUS
 62
     1
 10
117.667021927
 20
215.336551412
 30
0.0
 11
123.817399544
 21
215.336551412
 31
0.0
  0
LINE
  8
0
  6
CONTINUOUS
 62
     1
 10
117.693056206
 20
217.779160931
 30
0.0
 11
118.487656563
 21
226.861484555
 31
0.0
  0
LINE
  8
0
  6
CONTINUOUS
 62
     1
 10
117.693056206
 20
217.779160931
 30
0.0
 11
116.004680161
 21
216.183183574
 31
0.0
  0
ARC
  8
0
  6
CONTINUOUS
 62
     1
 10
117.667021927
 20
217.391851412
 30
0.0
 40
2.0553
 50
175.0
 51
216.020429656
  0
ARC
  8
0
  6
CONTINUOUS
 62
     1
 10
117.667021927
 20
217.391851412
 30
0.0
 40
2.0553
 50
223.388523327
 51
270.0
  0
ARC
  8
0
  6
CONTINUOUS
 62
     1
 10
123.817399544
 20
217.391851412
 30
0.0
 40
2.0553
 50
270.0
 51
302.783757703
  0
ARC
  8
0
  6
CONTINUOUS
 62
     1
 10
123.817399544
 20
217.391851412
 30
0.0
 40
2.0553
 50
308.266936369
 51
355.0
  0
LINE
  8
0
  6
CONTINUOUS
 62
     1
 10
123.817399544
 20
217.391851412
 30
0.0
 11
124.930282637
 21
215.66391932
 31
0.0
  0
LINE
  8
0
  6
CONTINUOUS
 62
     1
 10
117.667021927
 20
217.391851412
 30
0.0
 11
123.817399544
 21
217.391851412
 31
0.0
  0
LINE
  8
0
  6
CONTINUOUS
 62
     1
 10
117.667021927
 20
217.391851412
 30
0.0
 11
116.173410169
 21
215.979979602
 31
0.0
  0
CIRCLE
  8
0
  6
CONTINUOUS
 62
     1
 10
126.943967996
 20
216.390799412
 30
0.0
 40
0.7254
  0
LINE
  8
0
  6
CONTINUOUS
 62
     1
 10
129.873036
 20
236.518231412
 30
0.0
 11
129.873036
 21
237.424981412
 31
0.0
  0
LINE
  8
0
  6
CONTINUOUS
 62
     1
 10
131.988786
 20
237.424981412
 30
0.0
 11
129.873036
 21
237.424981412
 31
0.0
  0
LINE
  8
0
  6
CONTINUOUS
 62
     1
 10
135.361600843
 20
237.521701412
 30
0.0
 11
134.213050843
 21
237.521701412
 31
0.0
  0
LINE
  8
0
  6
CONTINUOUS
 62
     1
 10
135.180250843
 20
236.554501412
 30
0.0
 11
134.089089782
 21
236.554501412
 31
0.0
  0
LINE
  8
0
  6
CONTINUOUS
 62
     1
 10
134.51544098
 20
240.000151412
 30
0.0
 11
135.60354098
 21
240.000151412
 31
0.0
  0
LINE
  8
0
  6
CONTINUOUS
 62
     1
 10
134.408351087
 20
240.967351412
 30
0.0
 11
135.73178563
 21
240.967351412
 31
0.0
  0
ARC
  8
0
  6
CONTINUOUS
 62
     1
 10
134.408351087
 20
240.121051412
 30
0.0
 40
0.8463
 50
138.026918328
 51
175.0
  0
LINE
  8
0
  6
CONTINUOUS
 62
     1
 10
134.487227559
 20
239.677670543
 30
0.0
 11
133.779161642
 21
240.687041105
 31
0.0
  0
ARC
  8
0
  6
CONTINUOUS
 62
     1
 10
135.73178563
 20
240.121051412
 30
0.0
 40
0.8463
 50
355.0
 51
38.377535299
  0
ARC
  8
0
  6
CONTINUOUS
 62
     1
 10
135.73178563
 20
240.121051412
 30
0.0
 40
0.8463
 50
53.660187666
 51
90.0
  0
LINE
  8
0
  6
CONTINUOUS
 62
     1
 10
135.60354098
 20
240.000151412
 30
0.0
 11
136.233280194
 21
240.802760216
 31
0.0
  0
ARC
  8
0
  6
CONTINUOUS
 62
     1
 10
134.408351087
 20
240.121051412
 30
0.0
 40
0.8463
 50
90.0
 51
123.814454226
  0
LINE
  8
0
  6
CONTINUOUS
 62
     1
 10
134.51544098
 20
240.000151412
 30
0.0
 11
133.937380708
 21
240.824194778
 31
0.0
  0
LINE
  8
0
  6
CONTINUOUS
 62
     1
 10
133.997149387
 20
234.076051412
 30
0.0
 11
133.289095183
 21
233.33867386
 31
0.0
  0
ARC
  8
0
  6
CONTINUOUS
 62
     1
 10
133.868904736
 20
233.955151412
 30
0.0
 40
0.8463
 50
227.326829743
 51
270.0
  0
ARC
  8
0
  6
CONTINUOUS
 62
     1
 10
133.868904736
 20
233.955151412
 30
0.0
 40
0.8463
 50
175.0
 51
209.51490551
  0
LINE
  8
0
  6
CONTINUOUS
 62
     1
 10
134.032062529
 20
234.475110446
 30
0.0
 11
133.132431151
 21
233.538221745
 31
0.0
  0
LINE
  8
0
  6
CONTINUOUS
 62
     1
 10
135.085249387
 20
234.076051412
 30
0.0
 11
135.68307901
 21
233.265660146
 31
0.0
  0
ARC
  8
0
  6
CONTINUOUS
 62
     1
 10
135.19233928
 20
233.955151412
 30
0.0
 40
0.8463
 50
270.0
 51
305.441046464
  0
LINE
  8
0
  6
CONTINUOUS
 62
     1
 10
135.113617222
 20
234.400297238
 30
0.0
 11
135.842059514
 21
233.412853241
 31
0.0
  0
ARC
  8
0
  6
CONTINUOUS
 62
     1
 10
135.19233928
 20
233.955151412
 30
0.0
 40
0.8463
 50
320.149459061
 51
355.0
  0
LINE
  8
0
  6
CONTINUOUS
 62
     1
 10
133.997149387
 20
234.076051412
 30
0.0
 11
135.085249387
 21
234.076051412
 31
0.0
  0
LINE
  8
0
  6
CONTINUOUS
 62
     1
 10
133.868904736
 20
233.108851412
 30
0.0
 11
135.19233928
 21
233.108851412
 31
0.0
  0
LINE
  8
0
  6
CONTINUOUS
 62
     1
 10
136.288995487
 20
236.779785697
 30
0.0
 11
136.035418852
 21
233.881391507
 31
0.0
  0
LINE
  8
0
  6
CONTINUOUS
 62
     1
 10
136.222356278
 20
236.833097065
 30
0.0
 11
136.288995487
 21
236.779785697
 31
0.0
  0
LINE
  8
0
  6
CONTINUOUS
 62
     1
 10
133.025825164
 20
234.028911317
 30
0.0
 11
133.267567207
 21
236.792035521
 31
0.0
  0
LINE
  8
0
  6
CONTINUOUS
 62
     1
 10
133.314774372
 20
237.331615891
 30
0.0
 11
133.565271515
 21
240.194811317
 31
0.0
  0
LINE
  8
0
  6
CONTINUOUS
 62
     1
 10
134.213050843
 20
237.521701412
 30
0.0
 11
133.427200843
 21
237.038101412
 31
0.0
  0
LINE
  8
0
  6
CONTINUOUS
 62
     1
 10
134.089089782
 20
236.554501412
 30
0.0
 11
133.427200843
 21
237.038101412
 31
0.0
  0
LINE
  8
0
  6
CONTINUOUS
 62
     1
 10
134.176656082
 20
236.127822307
 30
0.0
 11
133.267567207
 21
236.792035521
 31
0.0
  0
LINE
  8
0
  6
CONTINUOUS
 62
     1
 10
134.176656082
 20
236.127822307
 30
0.0
 11
134.032062529
 21
234.475110446
 31
0.0
  0
LINE
  8
0
  6
CONTINUOUS
 62
     1
 10
135.414719046
 20
237.841906849
 30
0.0
 11
136.222356278
 21
237.195797065
 31
0.0
  0
LINE
  8
0
  6
CONTINUOUS
 62
     1
 10
135.567826491
 20
239.591932947
 30
0.0
 11
136.395231462
 21
240.646468693
 31
0.0
  0
LINE
  8
0
  6
CONTINUOUS
 62
     1
 10
135.567826491
 20
239.591932947
 30
0.0
 11
135.414719046
 21
237.841906849
 31
0.0
  0
CIRCLE
  8
0
  6
CONTINUOUS
 62
     1
 10
136.836580843
 20
233.644438412
 30
0.0
 40
0.41106
  0
LINE
  8
0
  6
CONTINUOUS
 62
     1
 10
75.322672956
 20
228.272851412
 30
0.0
 11
74.621452956
 21
229.360951412
 31
0.0
  0
LINE
  8
0
  6
CONTINUOUS
 62
     1
 10
75.322672956
 20
228.272851412
 30
0.0
 11
74.621452956
 21
227.100121412
 31
0.0
  0
LINE
  8
0
  6
CONTINUOUS
 62
     1
 10
72.493612956
 20
228.272851412
 30
0.0
 11
73.194832956
 21
229.360951412
 31
0.0
  0
LINE
  8
0
  6
CONTINUOUS
 62
     1
 10
72.493612956
 20
228.272851412
 30
0.0
 11
73.194832956
 21
227.100121412
 31
0.0
  0
LINE
  8
0
  6
CONTINUOUS
 62
     1
 10
73.194832956
 20
229.360951412
 30
0.0
 11
74.621452956
 21
229.360951412
 31
0.0
  0
LINE
  8
0
  6
CONTINUOUS
 62
     1
 10
73.194832956
 20
227.100121412
 30
0.0
 11
74.621452956
 21
227.100121412
 31
0.0
  0
LINE
  8
0
  6
CONTINUOUS
 62
     1
 10
71.526696
 20
230.086351412
 30
0.0
 11
71.526696
 21
226.459351412
 31
0.0
  0
ARC
  8
0
  6
CONTINUOUS
 62
     1
 10
92.381946
 20
204.697351412
 30
0.0
 40
1.209
 50
0.0
 51
90.0
  0
LINE
  8
0
  6
CONTINUOUS
 62
     1
 10
92.381946
 20
205.906351412
 30
0.0
 11
82.709946
 21
205.906351412
 31
0.0
  0
ARC
  8
0
  6
CONTINUOUS
 62
     1
 10
82.709946
 20
204.697351412
 30
0.0
 40
1.209
 50
90.0
 51
180.0
  0
LINE
  8
0
  6
CONTINUOUS
 62
     1
 10
82.709946
 20
201.070351412
 30
0.0
 11
92.381946
 21
201.070351412
 31
0.0
  0
ARC
  8
0
  6
CONTINUOUS
 62
     1
 10
82.709946
 20
202.279351412
 30
0.0
 40
1.209
 50
179.999933078
 51
270.0
  0
LINE
  8
0
  6
CONTINUOUS
 62
     1
 10
81.500946
 20
204.697351412
 30
0.0
 11
81.500946
 21
202.279352824
 31
0.0
  0
LINE
  8
0
  6
CONTINUOUS
 62
     1
 10
93.590946
 20
202.279352824
 30
0.0
 11
93.590946
 21
204.697351412
 31
0.0
  0
ARC
  8
0
  6
CONTINUOUS
 62
     1
 10
92.381946
 20
202.279351412
 30
0.0
 40
1.209
 50
270.0
 51
0.000066922
  0
ARC
  8
0
  6
CONTINUOUS
 62
     1
 10
110.516946
 20
204.697351412
 30
0.0
 40
1.209
 50
0.0
 51
90.0
  0
LINE
  8
0
  6
CONTINUOUS
 62
     1
 10
110.516946
 20
205.906351412
 30
0.0
 11
100.844946
 21
205.906351412
 31
0.0
  0
ARC
  8
0
  6
CONTINUOUS
 62
     1
 10
100.844946
 20
204.697351412
 30
0.0
 40
1.209
 50
90.0
 51
180.0
  0
LINE
  8
0
  6
CONTINUOUS
 62
     1
 10
100.844946
 20
201.070351412
 30
0.0
 11
110.516946
 21
201.070351412
 31
0.0
  0
ARC
  8
0
  6
CONTINUOUS
 62
     1
 10
100.844946
 20
202.279351412
 30
0.0
 40
1.209
 50
179.999933078
 51
270.0
  0
LINE
  8
0
  6
CONTINUOUS
 62
     1
 10
99.635946
 20
204.697351412
 30
0.0
 11
99.635946
 21
202.279352824
 31
0.0
  0
LINE
  8
0
  6
CONTINUOUS
 62
     1
 10
111.725946
 20
202.279352824
 30
0.0
 11
111.725946
 21
204.697351412
 31
0.0
  0
ARC
  8
0
  6
CONTINUOUS
 62
     1
 10
110.516946
 20
202.279351412
 30
0.0
 40
1.209
 50
270.0
 51
0.000066922
  0
ARC
  8
0
  6
CONTINUOUS
 62
     1
 10
128.651946
 20
204.697351412
 30
0.0
 40
1.209
 50
0.0
 51
90.0
  0
LINE
  8
0
  6
CONTINUOUS
 62
     1
 10
128.651946
 20
205.906351412
 30
0.0
 11
118.979946
 21
205.906351412
 31
0.0
  0
ARC
  8
0
  6
CONTINUOUS
 62
     1
 10
118.979946
 20
204.697351412
 30
0.0
 40
1.209
 50
90.0
 51
180.0
  0
LINE
  8
0
  6
CONTINUOUS
 62
     1
 10
118.979946
 20
201.070351412
 30
0.0
 11
128.651946
 21
201.070351412
 31
0.0
  0
ARC
  8
0
  6
CONTINUOUS
 62
     1
 10
118.979946
 20
202.279351412
 30
0.0
 40
1.209
 50
179.999933078
 51
270.0
  0
LINE
  8
0
  6
CONTINUOUS
 62
     1
 10
117.770946
 20
204.697351412
 30
0.0
 11
117.770946
 21
202.279352824
 31
0.0
  0
LINE
  8
0
  6
CONTINUOUS
 62
     1
 10
129.860946
 20
202.279352824
 30
0.0
 11
129.860946
 21
204.697351412
 31
0.0
  0
ARC
  8
0
  6
CONTINUOUS
 62
     1
 10
128.651946
 20
202.279351412
 30
0.0
 40
1.209
 50
270.0
 51
0.000066922
  0
LINE
  8
0
  6
CONTINUOUS
 62
     1
 10
104.230146
 20
198.471001412
 30
0.0
 11
104.955546
 21
198.471001412
 31
0.0
  0
LINE
  8
0
  6
CONTINUOUS
 62
     1
 10
105.680946
 20
198.168751412
 30
0.0
 11
104.230146
 21
198.168751412
 31
0.0
  0
LINE
  8
0
  6
CONTINUOUS
 62
     1
 10
104.230146
 20
197.866501412
 30
0.0
 11
106.406346
 21
197.866501412
 31
0.0
  0
LINE
  8
0
  6
CONTINUOUS
 62
     1
 10
107.131746
 20
197.564251412
 30
0.0
 11
104.230146
 21
197.564251412
 31
0.0
  0
LINE
  8
0
  6
CONTINUOUS
 62
     1
 10
104.230146
 20
197.262001412
 30
0.0
 11
107.857146
 21
197.262001412
 31
0.0
  0
LINE
  8
0
  6
CONTINUOUS
 62
     1
 10
107.131746
 20
196.959751412
 30
0.0
 11
104.230146
 21
196.959751412
 31
0.0
  0
LINE
  8
0
  6
CONTINUOUS
 62
     1
 10
104.230146
 20
196.657501412
 30
0.0
 11
106.406346
 21
196.657501412
 31
0.0
  0
LINE
  8
0
  6
CONTINUOUS
 62
     1
 10
105.680946
 20
196.355251412
 30
0.0
 11
104.230146
 21
196.355251412
 31
0.0
  0
LINE
  8
0
  6
CONTINUOUS
 62
     1
 10
104.230146
 20
196.053001412
 30
0.0
 11
104.955546
 21
196.053001412
 31
0.0
  0
LINE
  8
0
  6
CONTINUOUS
 62
     1
 10
104.230146
 20
198.773251412
 30
0.0
 11
104.230146
 21
195.750751412
 31
0.0
  0
LINE
  8
0
  6
CONTINUOUS
 62
     1
 10
104.532396
 20
195.876688913
 30
0.0
 11
104.532396
 21
198.647313912
 31
0.0
  0
LINE
  8
0
  6
CONTINUOUS
 62
     1
 10
104.834646
 20
198.521376413
 30
0.0
 11
104.834646
 21
196.002626412
 31
0.0
  0
LINE
  8
0
  6
CONTINUOUS
 62
     1
 10
105.136896
 20
196.128563912
 30
0.0
 11
105.136896
 21
198.395438912
 31
0.0
  0
LINE
  8
0
  6
CONTINUOUS
 62
     1
 10
105.439146
 20
198.269501412
 30
0.0
 11
105.439146
 21
196.254501413
 31
0.0
  0
LINE
  8
0
  6
CONTINUOUS
 62
     1
 10
105.741396
 20
196.380438912
 30
0.0
 11
105.741396
 21
198.143563913
 31
0.0
  0
LINE
  8
0
  6
CONTINUOUS
 62
     1
 10
106.043646
 20
198.017626412
 30
0.0
 11
106.043646
 21
196.506376412
 31
0.0
  0
LINE
  8
0
  6
CONTINUOUS
 62
     1
 10
106.345896
 20
196.632313913
 30
0.0
 11
106.345896
 21
197.891688912
 31
0.0
  0
LINE
  8
0
  6
CONTINUOUS
 62
     1
 10
106.648146
 20
197.765751413
 30
0.0
 11
106.648146
 21
196.758251412
 31
0.0
  0
LINE
  8
0
  6
CONTINUOUS
 62
     1
 10
106.950396
 20
196.884188912
 30
0.0
 11
106.950396
 21
197.639813912
 31
0.0
  0
LINE
  8
0
  6
CONTINUOUS
 62
     1
 10
107.252646
 20
197.513876412
 30
0.0
 11
107.252646
 21
197.010126413
 31
0.0
  0
LINE
  8
0
  6
CONTINUOUS
 62
     1
 10
107.554896
 20
197.136063912
 30
0.0
 11
107.554896
 21
197.387938913
 31
0.0
  0
LINE
  8
0
  6
CONTINUOUS
 62
     1
 10
125.327196
 20
195.871651412
 30
0.0
 11
122.304696
 21
195.871651412
 31
0.0
  0
LINE
  8
0
  6
CONTINUOUS
 62
     1
 10
123.9418835
 20
199.196401412
 30
0.0
 11
123.6900085
 21
199.196401412
 31
0.0
  0
LINE
  8
0
  6
CONTINUOUS
 62
     1
 10
123.564071
 20
198.894151412
 30
0.0
 11
124.067821
 21
198.894151412
 31
0.0
  0
LINE
  8
0
  6
CONTINUOUS
 62
     1
 10
124.1937585
 20
198.591901412
 30
0.0
 11
123.4381335
 21
198.591901412
 31
0.0
  0
LINE
  8
0
  6
CONTINUOUS
 62
     1
 10
123.312196
 20
198.289651412
 30
0.0
 11
124.319696
 21
198.289651412
 31
0.0
  0
LINE
  8
0
  6
CONTINUOUS
 62
     1
 10
124.4456335
 20
197.987401412
 30
0.0
 11
123.1862585
 21
197.987401412
 31
0.0
  0
LINE
  8
0
  6
CONTINUOUS
 62
     1
 10
123.060321
 20
197.685151412
 30
0.0
 11
124.571571
 21
197.685151412
 31
0.0
  0
LINE
  8
0
  6
CONTINUOUS
 62
     1
 10
124.6975085
 20
197.382901412
 30
0.0
 11
122.9343835
 21
197.382901412
 31
0.0
  0
LINE
  8
0
  6
CONTINUOUS
 62
     1
 10
122.808446
 20
197.080651412
 30
0.0
 11
124.823446
 21
197.080651412
 31
0.0
  0
LINE
  8
0
  6
CONTINUOUS
 62
     1
 10
124.9493835
 20
196.778401412
 30
0.0
 11
122.6825085
 21
196.778401412
 31
0.0
  0
LINE
  8
0
  6
CONTINUOUS
 62
     1
 10
122.556571
 20
196.476151412
 30
0.0
 11
125.075321
 21
196.476151412
 31
0.0
  0
LINE
  8
0
  6
CONTINUOUS
 62
     1
 10
125.2012585
 20
196.173901412
 30
0.0
 11
122.4306335
 21
196.173901412
 31
0.0
  0
LINE
  8
0
  6
CONTINUOUS
 62
     1
 10
122.304696
 20
195.871651412
 30
0.0
 11
125.327196
 21
195.871651412
 31
0.0
  0
LINE
  8
0
  6
CONTINUOUS
 62
     1
 10
122.606946
 20
196.597051412
 30
0.0
 11
122.606946
 21
195.871651412
 31
0.0
  0
LINE
  8
0
  6
CONTINUOUS
 62
     1
 10
122.909196
 20
195.871651412
 30
0.0
 11
122.909196
 21
197.322451412
 31
0.0
  0
LINE
  8
0
  6
CONTINUOUS
 62
     1
 10
123.211446
 20
198.047851412
 30
0.0
 11
123.211446
 21
195.871651412
 31
0.0
  0
LINE
  8
0
  6
CONTINUOUS
 62
     1
 10
123.513696
 20
195.871651412
 30
0.0
 11
123.513696
 21
198.773251412
 31
0.0
  0
LINE
  8
0
  6
CONTINUOUS
 62
     1
 10
124.118196
 20
195.871651412
 30
0.0
 11
124.118196
 21
198.773251412
 31
0.0
  0
LINE
  8
0
  6
CONTINUOUS
 62
     1
 10
124.420446
 20
198.047851412
 30
0.0
 11
124.420446
 21
195.871651412
 31
0.0
  0
LINE
  8
0
  6
CONTINUOUS
 62
     1
 10
124.722696
 20
195.871651412
 30
0.0
 11
124.722696
 21
197.322451412
 31
0.0
  0
LINE
  8
0
  6
CONTINUOUS
 62
     1
 10
125.024946
 20
196.597051412
 30
0.0
 11
125.024946
 21
195.871651412
 31
0.0
  0
LINE
  8
0
  6
CONTINUOUS
 62
     1
 10
123.815946
 20
199.498651412
 30
0.0
 11
123.815946
 21
195.871651412
 31
0.0
  0
LINE
  8
0
  6
CONTINUOUS
 62
     1
 10
58.046346
 20
229.481851412
 30
0.0
 11
60.585246
 21
229.481851412
 31
0.0
  0
LINE
  8
0
  6
CONTINUOUS
 62
     1
 10
58.046346
 20
227.063851412
 30
0.0
 11
60.585246
 21
227.063851412
 31
0.0
  0
LINE
  8
0
  6
CONTINUOUS
 62
     1
 10
58.046346
 20
229.481851412
 30
0.0
 11
58.046346
 21
227.063851412
 31
0.0
  0
LINE
  8
0
  6
CONTINUOUS
 62
     1
 10
60.585246
 20
229.481851412
 30
0.0
 11
60.585246
 21
227.063851412
 31
0.0
  0
LINE
  8
0
  6
CONTINUOUS
 62
     1
 10
57.804546
 20
233.108851412
 30
0.0
 11
60.827046
 21
233.108851412
 31
0.0
  0
LINE
  8
0
  6
CONTINUOUS
 62
     1
 10
57.804546
 20
232.504351412
 30
0.0
 11
60.827046
 21
232.504351412
 31
0.0
  0
LINE
  8
0
  6
CONTINUOUS
 62
     1
 10
57.804546
 20
231.899851412
 30
0.0
 11
60.827046
 21
231.899851412
 31
0.0
  0
LINE
  8
0
  6
CONTINUOUS
 62
     1
 10
57.804546
 20
231.295351412
 30
0.0
 11
60.827046
 21
231.295351412
 31
0.0
  0
LINE
  8
0
  6
CONTINUOUS
 62
     1
 10
57.804546
 20
230.690851412
 30
0.0
 11
60.827046
 21
230.690851412
 31
0.0
  0
LINE
  8
0
  6
CONTINUOUS
 62
     1
 10
57.804546
 20
230.086351412
 30
0.0
 11
60.827046
 21
230.086351412
 31
0.0
  0
LINE
  8
0
  6
CONTINUOUS
 62
     1
 10
57.804546
 20
223.436851412
 30
0.0
 11
60.827046
 21
223.436851412
 31
0.0
  0
LINE
  8
0
  6
CONTINUOUS
 62
     1
 10
57.804546
 20
224.041351412
 30
0.0
 11
60.827046
 21
224.041351412
 31
0.0
  0
LINE
  8
0
  6
CONTINUOUS
 62
     1
 10
57.804546
 20
224.645851412
 30
0.0
 11
60.827046
 21
224.645851412
 31
0.0
  0
LINE
  8
0
  6
CONTINUOUS
 62
     1
 10
57.804546
 20
225.250351412
 30
0.0
 11
60.827046
 21
225.250351412
 31
0.0
  0
LINE
  8
0
  6
CONTINUOUS
 62
     1
 10
57.804546
 20
225.854851412
 30
0.0
 11
60.827046
 21
225.854851412
 31
0.0
  0
LINE
  8
0
  6
CONTINUOUS
 62
     1
 10
57.804546
 20
226.459351412
 30
0.0
 11
60.827046
 21
226.459351412
 31
0.0
  0
ARC
  8
0
  6
CONTINUOUS
 62
     1
 10
74.246946
 20
204.697351412
 30
0.0
 40
1.209
 50
0.0
 51
90.0
  0
LINE
  8
0
  6
CONTINUOUS
 62
     1
 10
74.246946
 20
205.906351412
 30
0.0
 11
64.574946
 21
205.906351412
 31
0.0
  0
ARC
  8
0
  6
CONTINUOUS
 62
     1
 10
64.574946
 20
204.697351412
 30
0.0
 40
1.209
 50
90.0
 51
180.0
  0
LINE
  8
0
  6
CONTINUOUS
 62
     1
 10
64.574946
 20
201.070351412
 30
0.0
 11
74.246946
 21
201.070351412
 31
0.0
  0
ARC
  8
0
  6
CONTINUOUS
 62
     1
 10
64.574946
 20
202.279351412
 30
0.0
 40
1.209
 50
179.999933078
 51
270.0
  0
LINE
  8
0
  6
CONTINUOUS
 62
     1
 10
63.365946
 20
204.697351412
 30
0.0
 11
63.365946
 21
202.279352824
 31
0.0
  0
LINE
  8
0
  6
CONTINUOUS
 62
     1
 10
75.455946
 20
202.279352824
 30
0.0
 11
75.455946
 21
204.697351412
 31
0.0
  0
ARC
  8
0
  6
CONTINUOUS
 62
     1
 10
74.246946
 20
202.279351412
 30
0.0
 40
1.209
 50
270.0
 51
0.000066922
  0
LINE
  8
0
  6
CONTINUOUS
 62
     2
 10
74.246946
 20
205.543651412
 30
0.0
 11
64.574946
 21
205.543651412
 31
0.0
  0
ARC
  8
0
  6
CONTINUOUS
 62
     2
 10
64.574946
 20
204.697351412
 30
0.0
 40
0.8463
 50
90.0
 51
180.0
  0
LINE
  8
0
  6
CONTINUOUS
 62
     2
 10
63.728646
 20
204.697351412
 30
0.0
 11
63.728646
 21
202.279351412
 31
0.0
  0
ARC
  8
0
  6
CONTINUOUS
 62
     2
 10
64.574946
 20
202.279351412
 30
0.0
 40
0.8463
 50
180.0
 51
270.0
  0
ARC
  8
0
  6
CONTINUOUS
 62
     2
 10
74.246946
 20
202.279351412
 30
0.0
 40
0.8463
 50
270.0
 51
0.0
  0
LINE
  8
0
  6
CONTINUOUS
 62
     2
 10
64.574946
 20
201.433051412
 30
0.0
 11
74.246946
 21
201.433051412
 31
0.0
  0
ARC
  8
0
  6
CONTINUOUS
 62
     2
 10
74.246946
 20
204.697351412
 30
0.0
 40
0.8463
 50
0.0
 51
90.0
  0
LINE
  8
0
  6
CONTINUOUS
 62
     2
 10
75.093246
 20
202.279351412
 30
0.0
 11
75.093246
 21
204.697351412
 31
0.0
  0
LINE
  8
0
  6
CONTINUOUS
 62
     2
 10
92.381946
 20
205.543651412
 30
0.0
 11
82.709946
 21
205.543651412
 31
0.0
  0
ARC
  8
0
  6
CONTINUOUS
 62
     2
 10
82.709946
 20
204.697351412
 30
0.0
 40
0.8463
 50
90.0
 51
180.0
  0
LINE
  8
0
  6
CONTINUOUS
 62
     2
 10
81.863646
 20
204.697351412
 30
0.0
 11
81.863646
 21
202.279351412
 31
0.0
  0
ARC
  8
0
  6
CONTINUOUS
 62
     2
 10
82.709946
 20
202.279351412
 30
0.0
 40
0.8463
 50
180.0
 51
270.0
  0
ARC
  8
0
  6
CONTINUOUS
 62
     2
 10
92.381946
 20
202.279351412
 30
0.0
 40
0.8463
 50
270.0
 51
0.0
  0
LINE
  8
0
  6
CONTINUOUS
 62
     2
 10
82.709946
 20
201.433051412
 30
0.0
 11
92.381946
 21
201.433051412
 31
0.0
  0
ARC
  8
0
  6
CONTINUOUS
 62
     2
 10
92.381946
 20
204.697351412
 30
0.0
 40
0.8463
 50
0.0
 51
90.0
  0
LINE
  8
0
  6
CONTINUOUS
 62
     2
 10
93.228246
 20
202.279351412
 30
0.0
 11
93.228246
 21
204.697351412
 31
0.0
  0
LINE
  8
0
  6
CONTINUOUS
 62
     2
 10
110.516946
 20
205.543651412
 30
0.0
 11
100.844946
 21
205.543651412
 31
0.0
  0
ARC
  8
0
  6
CONTINUOUS
 62
     2
 10
100.844946
 20
204.697351412
 30
0.0
 40
0.8463
 50
90.0
 51
180.0
  0
LINE
  8
0
  6
CONTINUOUS
 62
     2
 10
99.998646
 20
204.697351412
 30
0.0
 11
99.998646
 21
202.279351412
 31
0.0
  0
ARC
  8
0
  6
CONTINUOUS
 62
     2
 10
100.844946
 20
202.279351412
 30
0.0
 40
0.8463
 50
180.0
 51
270.0
  0
ARC
  8
0
  6
CONTINUOUS
 62
     2
 10
110.516946
 20
202.279351412
 30
0.0
 40
0.8463
 50
270.0
 51
0.0
  0
LINE
  8
0
  6
CONTINUOUS
 62
     2
 10
100.844946
 20
201.433051412
 30
0.0
 11
110.516946
 21
201.433051412
 31
0.0
  0
ARC
  8
0
  6
CONTINUOUS
 62
     2
 10
110.516946
 20
204.697351412
 30
0.0
 40
0.8463
 50
0.0
 51
90.0
  0
LINE
  8
0
  6
CONTINUOUS
 62
     2
 10
111.363246
 20
202.279351412
 30
0.0
 11
111.363246
 21
204.697351412
 31
0.0
  0
LINE
  8
0
  6
CONTINUOUS
 62
     2
 10
128.651946
 20
205.543651412
 30
0.0
 11
118.979946
 21
205.543651412
 31
0.0
  0
ARC
  8
0
  6
CONTINUOUS
 62
     2
 10
118.979946
 20
204.697351412
 30
0.0
 40
0.8463
 50
90.0
 51
180.0
  0
LINE
  8
0
  6
CONTINUOUS
 62
     2
 10
118.133646
 20
204.697351412
 30
0.0
 11
118.133646
 21
202.279351412
 31
0.0
  0
ARC
  8
0
  6
CONTINUOUS
 62
     2
 10
118.979946
 20
202.279351412
 30
0.0
 40
0.8463
 50
180.0
 51
270.0
  0
ARC
  8
0
  6
CONTINUOUS
 62
     2
 10
128.651946
 20
202.279351412
 30
0.0
 40
0.8463
 50
270.0
 51
0.0
  0
LINE
  8
0
  6
CONTINUOUS
 62
     2
 10
118.979946
 20
201.433051412
 30
0.0
 11
128.651946
 21
201.433051412
 31
0.0
  0
ARC
  8
0
  6
CONTINUOUS
 62
     2
 10
128.651946
 20
204.697351412
 30
0.0
 40
0.8463
 50
0.0
 51
90.0
  0
LINE
  8
0
  6
CONTINUOUS
 62
     2
 10
129.498246
 20
202.279351412
 30
0.0
 11
129.498246
 21
204.697351412
 31
0.0
  0
ARC
  8
0
  6
CONTINUOUS
 62
     1
 10
163.108446
 20
200.768101412
 30
0.0
 40
0.574275
 50
0.0
 51
90.0
  0
ARC
  8
0
  6
CONTINUOUS
 62
     1
 10
163.108446
 20
195.599626412
 30
0.0
 40
0.574275
 50
270.0
 51
0.000189284
  0
LINE
  8
0
  6
CONTINUOUS
 62
     1
 10
163.682721
 20
195.599628309
 30
0.0
 11
163.682721
 21
200.768101412
 31
0.0
  0
LINE
  8
0
  6
CONTINUOUS
 62
     1
 10
163.108446
 20
201.342376412
 30
0.0
 11
147.603021
 21
201.342376412
 31
0.0
  0
LINE
  8
0
  6
CONTINUOUS
 62
     1
 10
147.028746
 20
200.768101412
 30
0.0
 11
147.028746
 21
195.599626412
 31
0.0
  0
ARC
  8
0
  6
CONTINUOUS
 62
     1
 10
147.603021
 20
200.768101412
 30
0.0
 40
0.574275
 50
90.0
 51
180.0
  0
ARC
  8
0
  6
CONTINUOUS
 62
     1
 10
147.603021
 20
195.599626412
 30
0.0
 40
0.574275
 50
180.0
 51
270.0
  0
LINE
  8
0
  6
CONTINUOUS
 62
     1
 10
147.603021
 20
195.025351412
 30
0.0
 11
163.108446
 21
195.025351412
 31
0.0
  0
LINE
  8
0
  6
CONTINUOUS
 62
     1
 10
51.275946
 20
250.034851412
 30
0.0
 11
164.921946
 21
250.034851412
 31
0.0
  0
LINE
  8
0
  6
CONTINUOUS
 62
     2
 10
50.066946
 20
194.058151412
 30
0.0
 11
166.130946
 21
194.058151412
 31
0.0
  0
LINE
  8
0
  6
CONTINUOUS
 62
     2
 10
50.066946
 20
193.574551412
 30
0.0
 11
166.130946
 21
193.574551412
 31
0.0
  0
ARC
  8
0
  6
CONTINUOUS
 62
     1
 10
155.129046
 20
229.784101412
 30
0.0
 40
0.3627
 50
180.0
 51
270.0
  0
LINE
  8
0
  6
CONTINUOUS
 62
     1
 10
158.635146
 20
229.421401412
 30
0.0
 11
155.129046
 21
229.421401412
 31
0.0
  0
ARC
  8
0
  6
CONTINUOUS
 62
     1
 10
158.635146
 20
229.784101412
 30
0.0
 40
0.3627
 50
270.0
 51
0.0
  0
ARC
  8
0
  6
CONTINUOUS
 62
     1
 10
155.129046
 20
242.841301412
 30
0.0
 40
0.3627
 50
90.0
 51
180.0
  0
LINE
  8
0
  6
CONTINUOUS
 62
     1
 10
155.129046
 20
243.204001412
 30
0.0
 11
158.635146
 21
243.204001412
 31
0.0
  0
ARC
  8
0
  6
CONTINUOUS
 62
     1
 10
158.635146
 20
242.841301412
 30
0.0
 40
0.3627
 50
0.0
 51
90.0
  0
ARC
  8
0
  6
CONTINUOUS
 62
     1
 10
155.129046
 20
224.706301412
 30
0.0
 40
0.3627
 50
90.0
 51
180.0
  0
LINE
  8
0
  6
CONTINUOUS
 62
     1
 10
155.129046
 20
225.069001412
 30
0.0
 11
158.635146
 21
225.069001412
 31
0.0
  0
ARC
  8
0
  6
CONTINUOUS
 62
     1
 10
158.635146
 20
224.706301412
 30
0.0
 40
0.3627
 50
0.0
 51
90.0
  0
ARC
  8
0
  6
CONTINUOUS
 62
     1
 10
155.129046
 20
211.649101412
 30
0.0
 40
0.3627
 50
180.0
 51
270.0
  0
LINE
  8
0
  6
CONTINUOUS
 62
     1
 10
158.635146
 20
211.286401412
 30
0.0
 11
155.129046
 21
211.286401412
 31
0.0
  0
ARC
  8
0
  6
CONTINUOUS
 62
     1
 10
158.635146
 20
211.649101412
 30
0.0
 40
0.3627
 50
270.0
 51
0.0
  0
LINE
  8
0
  6
CONTINUOUS
 62
     1
 10
154.766346
 20
223.618201412
 30
0.0
 11
154.766346
 21
224.706301412
 31
0.0
  0
LINE
  8
0
  6
CONTINUOUS
 62
     1
 10
158.997846
 20
224.706301412
 30
0.0
 11
158.997846
 21
211.528201412
 31
0.0
  0
LINE
  8
0
  6
CONTINUOUS
 62
     1
 10
154.766346
 20
211.649101412
 30
0.0
 11
154.766346
 21
223.618201412
 31
0.0
  0
LINE
  8
0
  6
CONTINUOUS
 62
     1
 10
154.766346
 20
229.905001412
 30
0.0
 11
154.766346
 21
241.995001412
 31
0.0
  0
LINE
  8
0
  6
CONTINUOUS
 62
     1
 10
154.766346
 20
241.753201412
 30
0.0
 11
154.766346
 21
242.841301412
 31
0.0
  0
LINE
  8
0
  6
CONTINUOUS
 62
     1
 10
158.997846
 20
242.841301412
 30
0.0
 11
158.997846
 21
229.905001412
 31
0.0
  0
LINE
  8
0
  6
CONTINUOUS
 62
     1
 10
158.393346
 20
242.599501412
 30
0.0
 11
155.370846
 21
242.599501412
 31
0.0
  0
LINE
  8
0
  6
CONTINUOUS
 62
     1
 10
155.370846
 20
241.753201412
 30
0.0
 11
158.393346
 21
241.753201412
 31
0.0
  0
LINE
  8
0
  6
CONTINUOUS
 62
     1
 10
155.370846
 20
230.872201412
 30
0.0
 11
158.393346
 21
230.872201412
 31
0.0
  0
LINE
  8
0
  6
CONTINUOUS
 62
     1
 10
155.370846
 20
242.599501412
 30
0.0
 11
155.370846
 21
230.025901412
 31
0.0
  0
LINE
  8
0
  6
CONTINUOUS
 62
     1
 10
158.393346
 20
230.025901412
 30
0.0
 11
158.393346
 21
242.599501412
 31
0.0
  0
LINE
  8
0
  6
CONTINUOUS
 62
     1
 10
155.370846
 20
230.025901412
 30
0.0
 11
158.393346
 21
230.025901412
 31
0.0
  0
LINE
  8
0
  6
CONTINUOUS
 62
     1
 10
158.393346
 20
224.464501412
 30
0.0
 11
155.370846
 21
224.464501412
 31
0.0
  0
LINE
  8
0
  6
CONTINUOUS
 62
     1
 10
155.370846
 20
223.739101412
 30
0.0
 11
158.393346
 21
223.739101412
 31
0.0
  0
LINE
  8
0
  6
CONTINUOUS
 62
     1
 10
155.370846
 20
212.737201412
 30
0.0
 11
158.393346
 21
212.737201412
 31
0.0
  0
LINE
  8
0
  6
CONTINUOUS
 62
     1
 10
155.370846
 20
224.464501412
 30
0.0
 11
155.370846
 21
211.890901412
 31
0.0
  0
LINE
  8
0
  6
CONTINUOUS
 62
     1
 10
158.393346
 20
211.890901412
 30
0.0
 11
158.393346
 21
224.464501412
 31
0.0
  0
LINE
  8
0
  6
CONTINUOUS
 62
     1
 10
155.370846
 20
211.890901412
 30
0.0
 11
158.393346
 21
211.890901412
 31
0.0
  0
LINE
  8
0
  6
CONTINUOUS
 62
     1
 10
57.562746
 20
235.164151412
 30
0.0
 11
61.068846
 21
235.164151412
 31
0.0
  0
LINE
  8
0
  6
CONTINUOUS
 62
     1
 10
61.068846
 20
221.381551412
 30
0.0
 11
57.562746
 21
221.381551412
 31
0.0
  0
ARC
  8
0
  6
CONTINUOUS
 62
     1
 10
61.068846
 20
234.801451412
 30
0.0
 40
0.3627
 50
0.0
 51
90.0
  0
ARC
  8
0
  6
CONTINUOUS
 62
     1
 10
57.562746
 20
234.801451412
 30
0.0
 40
0.3627
 50
90.0
 51
179.999484836
  0
LINE
  8
0
  6
CONTINUOUS
 62
     1
 10
57.200046
 20
233.713351412
 30
0.0
 11
57.200046
 21
234.801454673
 31
0.0
  0
LINE
  8
0
  6
CONTINUOUS
 62
     1
 10
57.200046
 20
221.744254673
 30
0.0
 11
57.200046
 21
233.955151412
 31
0.0
  0
ARC
  8
0
  6
CONTINUOUS
 62
     1
 10
57.562746
 20
221.744251412
 30
0.0
 40
0.3627
 50
179.999484836
 51
270.0
  0
LINE
  8
0
  6
CONTINUOUS
 62
     1
 10
61.431546
 20
234.801451412
 30
0.0
 11
61.431546
 21
221.744253718
 31
0.0
  0
ARC
  8
0
  6
CONTINUOUS
 62
     1
 10
61.068846
 20
221.744251412
 30
0.0
 40
0.3627
 50
270.0
 51
0.000364277
  0
LINE
  8
0
  6
CONTINUOUS
 62
     1
 10
57.804546
 20
233.713351412
 30
0.0
 11
60.827046
 21
233.713351412
 31
0.0
  0
LINE
  8
0
  6
CONTINUOUS
 62
     1
 10
57.804546
 20
222.832351412
 30
0.0
 11
60.827046
 21
222.832351412
 31
0.0
  0
LINE
  8
0
  6
CONTINUOUS
 62
     1
 10
57.804546
 20
221.986051412
 30
0.0
 11
60.827046
 21
221.986051412
 31
0.0
  0
LINE
  8
0
  6
CONTINUOUS
 62
     1
 10
57.804546
 20
234.559651412
 30
0.0
 11
57.804546
 21
221.986051412
 31
0.0
  0
LINE
  8
0
  6
CONTINUOUS
 62
     1
 10
60.827046
 20
234.559651412
 30
0.0
 11
57.804546
 21
234.559651412
 31
0.0
  0
LINE
  8
0
  6
CONTINUOUS
 62
     1
 10
60.827046
 20
221.986051412
 30
0.0
 11
60.827046
 21
234.559651412
 31
0.0
  0
TEXT
  8
0
  6
CONTINUOUS
 62
     1
 10
64.1646114
 20
195.638314412
 30
0.0
 40
2.9016
  1
Ｅｎｔｅｒ
 50
0.0
 41
0.88
 51
0.0
  7
KANJI0
  0
LINE
  8
0
  6
CONTINUOUS
 62
     4
 10
63.668196
 20
243.385351412
 30
0.0
 11
152.529696
 21
243.385351412
 31
0.0
  0
LINE
  8
0
  6
CONTINUOUS
 62
     4
 10
152.529696
 20
243.385351412
 30
0.0
 11
152.529696
 21
213.160351412
 31
0.0
  0
LINE
  8
0
  6
CONTINUOUS
 62
     4
 10
152.529696
 20
213.160351412
 30
0.0
 11
63.668196
 21
213.160351412
 31
0.0
  0
LINE
  8
0
  6
CONTINUOUS
 62
     4
 10
63.668196
 20
213.160351412
 30
0.0
 11
63.668196
 21
243.385351412
 31
0.0
  0
TEXT
  8
0
  6
CONTINUOUS
 62
     1
 10
82.6018614
 20
195.638314412
 30
0.0
 40
2.9016
  1
Ｍｏｄｅ
 50
0.0
 41
0.88
 51
0.0
  7
KANJI0
  0
LINE
  8
0
  6
CONTINUOUS
 62
     2
 10
48.9
 20
249.9
 30
0.0
 11
38.0
 21
249.9
 31
0.0
  0
LINE
  8
0
  6
CONTINUOUS
 62
     2
 10
40.0
 20
249.9
 30
0.0
 11
39.352952387
 21
247.485185434
 31
0.0
  0
LINE
  8
0
  6
CONTINUOUS
 62
     2
 10
40.0
 20
249.9
 30
0.0
 11
40.647047613
 21
247.485185434
 31
0.0
  0
LINE
  8
0
  6
CONTINUOUS
 62
     2
 10
40.0
 20
191.9
 30
0.0
 11
40.647047613
 21
194.314814566
 31
0.0
  0
LINE
  8
0
  6
CONTINUOUS
 62
     2
 10
40.0
 20
191.9
 30
0.0
 11
39.352952387
 21
194.314814566
 31
0.0
  0
LINE
  8
0
  6
CONTINUOUS
 62
     2
 10
49.1
 20
191.9
 30
0.0
 11
38.0
 21
191.9
 31
0.0
  0
LINE
  8
0
  6
CONTINUOUS
 62
     2
 10
50.0
 20
250.9
 30
0.0
 11
50.0
 21
262.0
 31
0.0
  0
LINE
  8
0
  6
CONTINUOUS
 62
     2
 10
50.0
 20
260.0
 30
0.0
 11
52.414814566
 21
259.352952387
 31
0.0
  0
LINE
  8
0
  6
CONTINUOUS
 62
     2
 10
50.0
 20
260.0
 30
0.0
 11
52.414814566
 21
260.647047613
 31
0.0
  0
LINE
  8
0
  6
CONTINUOUS
 62
     2
 10
166.1
 20
260.0
 30
0.0
 11
163.685185434
 21
260.647047613
 31
0.0
  0
LINE
  8
0
  6
CONTINUOUS
 62
     2
 10
166.1
 20
260.0
 30
0.0
 11
163.685185434
 21
259.352952387
 31
0.0
  0
LINE
  8
0
  6
CONTINUOUS
 62
     2
 10
166.1
 20
251.0
 30
0.0
 11
166.1
 21
262.0
 31
0.0
  0
TEXT
  8
0
  6
CONTINUOUS
 62
     1
 10
94.6611435
 20
84.0946105
 30
0.0
 40
3.77208
  1
ＰＡＮＥＬ　ＣＵＴ
 50
0.0
 41
0.75
 51
0.0
  7
KANJI1
  0
LINE
  8
2
  6
CONTINUOUS
 62
     1
 10
103.2954745
 20
39.1761217
 30
0.0
 11
75.0048745
 21
39.1761217
 31
0.0
  0
LINE
  8
2
  6
CONTINUOUS
 62
     1
 10
75.0048745
 20
39.1761217
 30
0.0
 11
75.0048745
 21
53.3214217
 31
0.0
  0
LINE
  8
2
  6
CONTINUOUS
 62
     1
 10
75.0048745
 20
75.0108817
 30
0.0
 11
103.2954745
 21
75.0108817
 31
0.0
  0
LINE
  8
2
  6
CONTINUOUS
 62
     1
 10
103.2954745
 20
75.0108817
 30
0.0
 11
103.2954745
 21
60.8655817
 31
0.0
  0
LINE
  8
2
  6
CONTINUOUS
 62
     1
 10
112.7256745
 20
75.0108817
 30
0.0
 11
141.0162745
 21
75.0108817
 31
0.0
  0
LINE
  8
2
  6
CONTINUOUS
 62
     1
 10
112.7256745
 20
60.8655817
 30
0.0
 11
112.7256745
 21
75.0108817
 31
0.0
  0
LINE
  8
2
  6
CONTINUOUS
 62
     1
 10
75.0048745
 20
60.8655817
 30
0.0
 11
75.0048745
 21
75.0108817
 31
0.0
  0
LINE
  8
2
  6
CONTINUOUS
 62
     1
 10
103.2954745
 20
60.8655817
 30
0.0
 11
75.0048745
 21
60.8655817
 31
0.0
  0
LINE
  8
2
  6
CONTINUOUS
 62
     1
 10
103.2954745
 20
53.3214217
 30
0.0
 11
103.2954745
 21
39.1761217
 31
0.0
  0
LINE
  8
2
  6
CONTINUOUS
 62
     1
 10
75.0048745
 20
53.3214217
 30
0.0
 11
103.2954745
 21
53.3214217
 31
0.0
  0
LINE
  8
2
  6
CONTINUOUS
 62
     1
 10
112.7256745
 20
53.3214217
 30
0.0
 11
141.0162745
 21
53.3214217
 31
0.0
  0
LINE
  8
2
  6
CONTINUOUS
 62
     1
 10
112.7256745
 20
39.1761217
 30
0.0
 11
112.7256745
 21
53.3214217
 31
0.0
  0
LINE
  8
2
  6
CONTINUOUS
 62
     1
 10
141.0162745
 20
53.3214217
 30
0.0
 11
141.0162745
 21
39.1761217
 31
0.0
  0
LINE
  8
2
  6
CONTINUOUS
 62
     1
 10
141.0162745
 20
39.1761217
 30
0.0
 11
112.7256745
 21
39.1761217
 31
0.0
  0
LINE
  8
2
  6
CONTINUOUS
 62
     1
 10
141.0162745
 20
75.0108817
 30
0.0
 11
141.0162745
 21
60.8655817
 31
0.0
  0
LINE
  8
2
  6
CONTINUOUS
 62
     1
 10
141.0162745
 20
60.8655817
 30
0.0
 11
112.7256745
 21
60.8655817
 31
0.0
  0
LINE
  8
0
  6
LTYPE1
 62
     1
 10
89.3
 20
80.1
 30
0.0
 11
89.3
 21
35.2
 31
0.0
  0
LINE
  8
0
  6
LTYPE1
 62
     1
 10
70.1
 20
67.9
 30
0.0
 11
145.0
 21
67.9
 31
0.0
  0
LINE
  8
0
  6
LTYPE1
 62
     1
 10
126.8
 20
80.1
 30
0.0
 11
126.8
 21
35.2
 31
0.0
  0
LINE
  8
0
  6
LTYPE1
 62
     1
 10
145.0
 20
46.3
 30
0.0
 11
70.1
 21
46.3
 31
0.0
  0
LINE
  8
0
  6
CONTINUOUS
 62
     2
 10
65.1
 20
75.0
 30
0.0
 11
65.747047613
 21
72.585185434
 31
0.0
  0
LINE
  8
0
  6
CONTINUOUS
 62
     2
 10
65.1
 20
75.0
 30
0.0
 11
65.1
 21
60.9
 31
0.0
  0
LINE
  8
0
  6
CONTINUOUS
 62
     2
 10
65.1
 20
60.9
 30
0.0
 11
65.747047613
 21
63.314814566
 31
0.0
  0
LINE
  8
0
  6
CONTINUOUS
 62
     2
 10
74.2
 20
60.9
 30
0.0
 11
63.1
 21
60.9
 31
0.0
  0
LINE
  8
0
  6
CONTINUOUS
 62
     2
 10
75.0
 20
76.1
 30
0.0
 11
75.0
 21
82.0
 31
0.0
  0
LINE
  8
0
  6
CONTINUOUS
 62
     2
 10
75.0
 20
80.0
 30
0.0
 11
77.414814566
 21
79.352952387
 31
0.0
  0
LINE
  8
0
  6
CONTINUOUS
 62
     2
 10
75.0
 20
80.0
 30
0.0
 11
77.414814566
 21
80.647047613
 31
0.0
  0
LINE
  8
0
  6
CONTINUOUS
 62
     2
 10
75.0
 20
80.0
 30
0.0
 11
103.3
 21
80.0
 31
0.0
  0
LINE
  8
0
  6
CONTINUOUS
 62
     2
 10
103.3
 20
80.0
 30
0.0
 11
100.885185434
 21
80.647047613
 31
0.0
  0
LINE
  8
0
  6
CONTINUOUS
 62
     2
 10
103.3
 20
80.0
 30
0.0
 11
100.885185434
 21
79.352952387
 31
0.0
  0
LINE
  8
0
  6
CONTINUOUS
 62
     2
 10
103.3
 20
76.0
 30
0.0
 11
103.3
 21
82.0
 31
0.0
  0
LINE
  8
0
  6
CONTINUOUS
 62
     2
 10
89.3
 20
34.2
 30
0.0
 11
89.3
 21
28.0
 31
0.0
  0
LINE
  8
0
  6
CONTINUOUS
 62
     2
 10
89.3
 20
30.0
 30
0.0
 11
91.714814566
 21
29.352952387
 31
0.0
  0
LINE
  8
0
  6
CONTINUOUS
 62
     2
 10
89.3
 20
30.0
 30
0.0
 11
91.714814566
 21
30.647047613
 31
0.0
  0
LINE
  8
0
  6
CONTINUOUS
 62
     2
 10
126.8
 20
30.0
 30
0.0
 11
124.385185434
 21
30.647047613
 31
0.0
  0
LINE
  8
0
  6
CONTINUOUS
 62
     2
 10
126.8
 20
30.0
 30
0.0
 11
124.385185434
 21
29.352952387
 31
0.0
  0
LINE
  8
0
  6
CONTINUOUS
 62
     2
 10
126.8
 20
34.2
 30
0.0
 11
126.8
 21
28.0
 31
0.0
  0
LINE
  8
0
  6
CONTINUOUS
 62
     2
 10
146.0
 20
68.0
 30
0.0
 11
156.9
 21
68.0
 31
0.0
  0
LINE
  8
0
  6
CONTINUOUS
 62
     2
 10
154.9
 20
68.0
 30
0.0
 11
154.252952387
 21
65.585185434
 31
0.0
  0
LINE
  8
0
  6
CONTINUOUS
 62
     2
 10
154.9
 20
68.0
 30
0.0
 11
155.547047613
 21
65.585185434
 31
0.0
  0
LINE
  8
0
  6
CONTINUOUS
 62
     2
 10
154.9
 20
46.4
 30
0.0
 11
155.547047613
 21
48.814814566
 31
0.0
  0
LINE
  8
0
  6
CONTINUOUS
 62
     2
 10
154.9
 20
46.4
 30
0.0
 11
154.252952387
 21
48.814814566
 31
0.0
  0
LINE
  8
0
  6
CONTINUOUS
 62
     2
 10
145.8
 20
46.4
 30
0.0
 11
156.9
 21
46.4
 31
0.0
  0
LINE
  8
0
  6
CONTINUOUS
 62
     1
 10
229.601470776
 20
58.806604
 30
0.0
 11
229.601470776
 21
56.872204
 31
0.0
  0
LINE
  8
0
  6
CONTINUOUS
 62
     1
 10
316.649470776
 20
60.499204
 30
0.0
 11
316.649470776
 21
58.806604
 31
0.0
  0
LINE
  8
0
  6
CONTINUOUS
 62
     1
 10
272.520970776
 20
74.402704
 30
0.0
 11
274.334470776
 21
74.402704
 31
0.0
  0
LINE
  8
0
  6
CONTINUOUS
 62
     1
 10
274.334470776
 20
74.402704
 30
0.0
 11
276.147970776
 21
74.402704
 31
0.0
  0
LINE
  8
0
  6
CONTINUOUS
 62
     1
 10
276.147970776
 20
74.402704
 30
0.0
 11
277.961470776
 21
74.402704
 31
0.0
  0
LINE
  8
0
  6
CONTINUOUS
 62
     1
 10
277.961470776
 20
74.402704
 30
0.0
 11
279.774970776
 21
74.402704
 31
0.0
  0
LINE
  8
0
  6
CONTINUOUS
 62
     1
 10
279.774970776
 20
85.888204
 30
0.0
 11
279.774970776
 21
74.402704
 31
0.0
  0
LINE
  8
0
  6
CONTINUOUS
 62
     1
 10
290.655970776
 20
85.888204
 30
0.0
 11
290.655970776
 21
97.373704
 31
0.0
  0
LINE
  8
0
  6
CONTINUOUS
 62
     1
 10
290.655970776
 20
85.888204
 30
0.0
 11
290.655970776
 21
74.402704
 31
0.0
  0
LINE
  8
0
  6
CONTINUOUS
 62
     1
 10
290.655970776
 20
85.888204
 30
0.0
 11
290.655970776
 21
97.373704
 31
0.0
  0
LINE
  8
0
  6
CONTINUOUS
 62
     1
 10
290.655970776
 20
97.373704
 30
0.0
 11
292.469470776
 21
97.373704
 31
0.0
  0
LINE
  8
0
  6
CONTINUOUS
 62
     1
 10
290.655970776
 20
85.888204
 30
0.0
 11
290.655970776
 21
74.402704
 31
0.0
  0
LINE
  8
0
  6
CONTINUOUS
 62
     1
 10
290.655970776
 20
74.402704
 30
0.0
 11
292.469470776
 21
74.402704
 31
0.0
  0
LINE
  8
0
  6
CONTINUOUS
 62
     1
 10
292.469470776
 20
85.888204
 30
0.0
 11
292.469470776
 21
97.373704
 31
0.0
  0
LINE
  8
0
  6
CONTINUOUS
 62
     1
 10
292.469470776
 20
85.888204
 30
0.0
 11
292.469470776
 21
74.402704
 31
0.0
  0
LINE
  8
0
  6
CONTINUOUS
 62
     1
 10
291.864970776
 20
103.418704
 30
0.0
 11
291.864970776
 21
104.990404
 31
0.0
  0
LINE
  8
0
  6
CONTINUOUS
 62
     1
 10
291.864970776
 20
99.791704
 30
0.0
 11
291.864970776
 21
101.363404
 31
0.0
  0
LINE
  8
0
  6
CONTINUOUS
 62
     1
 10
305.768470776
 20
99.791704
 30
0.0
 11
305.768470776
 21
101.363404
 31
0.0
  0
LINE
  8
0
  6
CONTINUOUS
 62
     1
 10
305.768470776
 20
103.418704
 30
0.0
 11
305.768470776
 21
104.990404
 31
0.0
  0
LINE
  8
0
  6
CONTINUOUS
 62
     1
 10
291.864970776
 20
68.357704
 30
0.0
 11
291.864970776
 21
66.786004
 31
0.0
  0
LINE
  8
0
  6
CONTINUOUS
 62
     1
 10
291.864970776
 20
71.984704
 30
0.0
 11
291.864970776
 21
70.413004
 31
0.0
  0
LINE
  8
0
  6
CONTINUOUS
 62
     1
 10
305.768470776
 20
71.984704
 30
0.0
 11
305.768470776
 21
70.413004
 31
0.0
  0
LINE
  8
0
  6
CONTINUOUS
 62
     1
 10
305.768470776
 20
68.357704
 30
0.0
 11
305.768470776
 21
66.786004
 31
0.0
  0
LINE
  8
0
  6
CONTINUOUS
 62
     1
 10
229.601470776
 20
58.806604
 30
0.0
 11
229.601470776
 21
114.904204
 31
0.0
  0
ARC
  8
0
  6
CONTINUOUS
 62
     1
 10
320.880970776
 20
109.463704
 30
0.0
 40
1.209
 50
359.999890717
 51
90.0
  0
LINE
  8
0
  6
CONTINUOUS
 62
     1
 10
316.649470776
 20
110.672704
 30
0.0
 11
320.880970776
 21
110.672704
 31
0.0
  0
LINE
  8
0
  6
CONTINUOUS
 62
     1
 10
316.649470776
 20
61.103704
 30
0.0
 11
320.880970776
 21
61.103704
 31
0.0
  0
LINE
  8
0
  6
CONTINUOUS
 62
     1
 10
322.089970776
 20
109.463701694
 30
0.0
 11
322.089970776
 21
62.312700739
 31
0.0
  0
ARC
  8
0
  6
CONTINUOUS
 62
     1
 10
320.880970776
 20
62.312704
 30
0.0
 40
1.209
 50
270.0
 51
359.99984545
  0
LINE
  8
0
  6
CONTINUOUS
 62
     1
 10
316.649470776
 20
110.672704
 30
0.0
 11
316.649470776
 21
112.969804
 31
0.0
  0
LINE
  8
0
  6
CONTINUOUS
 62
     1
 10
316.649470776
 20
60.136504
 30
0.0
 11
316.649470776
 21
61.103704
 31
0.0
  0
LINE
  8
0
  6
CONTINUOUS
 62
     1
 10
316.649470776
 20
111.277204
 30
0.0
 11
317.858470776
 21
111.277204
 31
0.0
  0
LINE
  8
0
  6
CONTINUOUS
 62
     1
 10
316.649470776
 20
60.499204
 30
0.0
 11
317.858470776
 21
60.499204
 31
0.0
  0
LINE
  8
0
  6
CONTINUOUS
 62
     1
 10
229.601470776
 20
114.904204
 30
0.0
 11
223.556470776
 21
114.904204
 31
0.0
  0
LINE
  8
0
  6
CONTINUOUS
 62
     1
 10
223.556470776
 20
60.499204
 30
0.0
 11
223.556470776
 21
114.904204
 31
0.0
  0
LINE
  8
0
  6
CONTINUOUS
 62
     1
 10
223.556470776
 20
56.872204
 30
0.0
 11
223.556470776
 21
60.499204
 31
0.0
  0
LINE
  8
0
  6
CONTINUOUS
 62
     1
 10
229.601470776
 20
56.872204
 30
0.0
 11
223.556470776
 21
56.872204
 31
0.0
  0
LINE
  8
0
  6
CONTINUOUS
 62
     1
 10
270.707470776
 20
74.402704
 30
0.0
 11
272.520970776
 21
74.402704
 31
0.0
  0
LINE
  8
0
  6
CONTINUOUS
 62
     1
 10
317.858470776
 20
111.277204
 30
0.0
 11
318.221170776
 21
111.277204
 31
0.0
  0
LINE
  8
0
  6
CONTINUOUS
 62
     1
 10
317.858470776
 20
60.499204
 30
0.0
 11
318.221170776
 21
60.499204
 31
0.0
  0
LINE
  8
0
  6
CONTINUOUS
 62
     1
 10
257.408470776
 20
112.969804
 30
0.0
 11
257.408470776
 21
110.793604
 31
0.0
  0
LINE
  8
0
  6
CONTINUOUS
 62
     1
 10
257.408470776
 20
58.806604
 30
0.0
 11
257.408470776
 21
60.982804
 31
0.0
  0
ARC
  8
0
  6
CONTINUOUS
 62
     1
 10
216.97758679
 20
57.791849765
 30
0.0
 40
0.6045
 50
180.0
 51
268.567903816
  0
ARC
  8
0
  6
CONTINUOUS
 62
     1
 10
216.97758679
 20
72.589204
 30
0.0
 40
0.6045
 50
90.0
 51
180.0
  0
LINE
  8
0
  6
CONTINUOUS
 62
     1
 10
216.97758679
 20
73.193704
 30
0.0
 11
219.903862324
 21
73.193704
 31
0.0
  0
LINE
  8
0
  6
CONTINUOUS
 62
     1
 10
219.903862324
 20
88.319099765
 30
0.0
 11
219.903862324
 21
73.193704
 31
0.0
  0
ARC
  8
0
  6
CONTINUOUS
 62
     1
 10
218.090362324
 20
114.012377623
 30
0.0
 40
0.6045
 50
91.432096184
 51
180.0
  0
LINE
  8
0
  6
CONTINUOUS
 62
     1
 10
219.903862324
 20
113.090704
 30
0.0
 11
219.903862324
 21
88.064404
 31
0.0
  0
LINE
  8
0
  6
CONTINUOUS
 62
     1
 10
223.530862324
 20
113.090704
 30
0.0
 11
223.530862324
 21
114.753079
 31
0.0
  0
LINE
  8
0
  6
CONTINUOUS
 62
     1
 10
223.530862324
 20
58.685704
 30
0.0
 11
223.530862324
 21
57.023329
 31
0.0
  0
LINE
  8
0
  6
CONTINUOUS
 62
     1
 10
223.530862324
 20
114.753079
 30
0.0
 11
218.075254544
 21
114.616688806
 31
0.0
  0
LINE
  8
0
  6
CONTINUOUS
 62
     1
 10
223.530862324
 20
113.090704
 30
0.0
 11
223.530862324
 21
58.685704
 31
0.0
  0
LINE
  8
0
  6
CONTINUOUS
 62
     1
 10
223.530862324
 20
57.023329
 30
0.0
 11
216.96247901
 21
57.187538583
 31
0.0
  0
LINE
  8
0
  6
CONTINUOUS
 62
     1
 10
216.37308679
 20
57.791849765
 30
0.0
 11
216.37308679
 21
58.081204
 31
0.0
  0
ARC
  8
0
  6
CONTINUOUS
 62
     1
 10
216.97758679
 20
58.081204
 30
0.0
 40
0.6045
 50
90.0
 51
180.0
  0
LINE
  8
0
  6
CONTINUOUS
 62
     1
 10
216.97758679
 20
58.927504
 30
0.0
 11
216.97758679
 21
58.685704
 31
0.0
  0
ARC
  8
0
  6
CONTINUOUS
 62
     1
 10
216.97758679
 20
59.532004
 30
0.0
 40
0.6045
 50
180.0
 51
270.0
  0
LINE
  8
0
  6
LTYPE1
 62
     2
 10
246.320512324
 20
85.888204
 30
0.0
 11
246.743662324
 21
85.888204
 31
0.0
  0
ARC
  8
0
  6
CONTINUOUS
 62
     1
 10
218.115970776
 20
112.486204
 30
0.0
 40
0.6045
 50
90.0
 51
180.0
  0
LINE
  8
0
  6
CONTINUOUS
 62
     1
 10
215.093470776
 20
84.376954
 30
0.0
 11
214.828826968
 21
84.376954
 31
0.0
  0
ARC
  8
0
  6
CONTINUOUS
 62
     1
 10
223.798270776
 20
83.047054
 30
0.0
 40
9.0675
 50
171.566195902
 51
180.0
  0
LINE
  8
0
  6
CONTINUOUS
 62
     1
 10
215.093470776
 20
81.717154
 30
0.0
 11
214.828826968
 21
81.717154
 31
0.0
  0
ARC
  8
0
  6
CONTINUOUS
 62
     1
 10
223.798270776
 20
83.047054
 30
0.0
 40
9.0675
 50
180.0
 51
188.433804098
  0
LINE
  8
0
  6
CONTINUOUS
 62
     1
 10
215.093470776
 20
102.511954
 30
0.0
 11
214.828826968
 21
102.511954
 31
0.0
  0
ARC
  8
0
  6
CONTINUOUS
 62
     1
 10
223.798270776
 20
101.182054
 30
0.0
 40
9.0675
 50
171.566195902
 51
180.0
  0
LINE
  8
0
  6
CONTINUOUS
 62
     1
 10
215.093470776
 20
99.852154
 30
0.0
 11
214.828826968
 21
99.852154
 31
0.0
  0
ARC
  8
0
  6
CONTINUOUS
 62
     1
 10
223.798270776
 20
101.182054
 30
0.0
 40
9.0675
 50
180.0
 51
188.433804098
  0
ARC
  8
0
  6
CONTINUOUS
 62
     1
 10
248.805895826
 20
105.715804
 30
0.0
 40
7.8585
 50
0.0
 51
180.0
  0
LINE
  8
0
  6
CONTINUOUS
 62
     1
 10
286.163995826
 20
112.969804
 30
0.0
 11
280.118995826
 21
112.969804
 31
0.0
  0
LINE
  8
0
  6
CONTINUOUS
 62
     1
 10
268.028995826
 20
112.969804
 30
0.0
 11
261.983995826
 21
112.969804
 31
0.0
  0
ARC
  8
0
  6
CONTINUOUS
 62
     1
 10
248.805895826
 20
105.715804
 30
0.0
 40
4.836
 50
0.0
 51
90.0
  0
ARC
  8
0
  6
CONTINUOUS
 62
     1
 10
248.805895826
 20
105.715804
 30
0.0
 40
4.836
 50
90.0
 51
180.0
  0
LINE
  8
0
  6
CONTINUOUS
 62
     1
 10
243.969895826
 20
105.715804
 30
0.0
 11
243.969895826
 21
103.418704
 31
0.0
  0
LINE
  8
0
  6
CONTINUOUS
 62
     1
 10
253.641895826
 20
105.715804
 30
0.0
 11
253.641895826
 21
103.418704
 31
0.0
  0
ARC
  8
0
  6
CONTINUOUS
 62
     1
 10
258.115195826
 20
104.265004
 30
0.0
 40
0.8463
 50
270.0
 51
0.0
  0
LINE
  8
0
  6
CONTINUOUS
 62
     1
 10
257.873395826
 20
103.418704
 30
0.0
 11
258.115195826
 21
103.418704
 31
0.0
  0
LINE
  8
0
  6
CONTINUOUS
 62
     1
 10
256.664395826
 20
105.715804
 30
0.0
 11
256.664395826
 21
104.627704
 31
0.0
  0
ARC
  8
0
  6
CONTINUOUS
 62
     1
 10
257.873395826
 20
104.627704
 30
0.0
 40
1.209
 50
180.0
 51
270.0
  0
LINE
  8
0
  6
CONTINUOUS
 62
     1
 10
258.961495826
 20
113.211604
 30
0.0
 11
258.961495826
 21
104.265004
 31
0.0
  0
ARC
  8
0
  6
CONTINUOUS
 62
     1
 10
260.170495826
 20
113.211604
 30
0.0
 40
1.209
 50
90.0
 51
180.0
  0
LINE
  8
0
  6
CONTINUOUS
 62
     1
 10
288.702895826
 20
114.420604
 30
0.0
 11
260.170495826
 21
114.420604
 31
0.0
  0
ARC
  8
0
  6
CONTINUOUS
 62
     1
 10
288.702895826
 20
113.211604
 30
0.0
 40
1.209
 50
0.0
 51
90.0
  0
LINE
  8
0
  6
CONTINUOUS
 62
     1
 10
263.313895826
 20
97.373704
 30
0.0
 11
263.313895826
 21
94.955704
 31
0.0
  0
LINE
  8
0
  6
CONTINUOUS
 62
     1
 10
247.596895826
 20
94.955704
 30
0.0
 11
247.596895826
 21
85.283704
 31
0.0
  0
LINE
  8
0
  6
CONTINUOUS
 62
     1
 10
240.947395826
 20
96.164704
 30
0.0
 11
240.947395826
 21
105.715804
 31
0.0
  0
LINE
  8
0
  6
CONTINUOUS
 62
     1
 10
260.774995826
 20
114.420604
 30
0.0
 11
260.774995826
 21
99.187204
 31
0.0
  0
ARC
  8
0
  6
CONTINUOUS
 62
     1
 10
248.805895826
 20
66.060604
 30
0.0
 40
4.836
 50
270.0
 51
0.0
  0
POINT
  8
0
  6
CONTINUOUS
 62
     1
 10
248.805895826
 20
61.224604
 30
0.0
  0
ARC
  8
0
  6
CONTINUOUS
 62
     1
 10
248.805895826
 20
66.060604
 30
0.0
 40
4.836
 50
180.0
 51
270.0
  0
ARC
  8
0
  6
CONTINUOUS
 62
     1
 10
248.805895826
 20
66.060604
 30
0.0
 40
7.8585
 50
180.0
 51
0.0
  0
LINE
  8
0
  6
CONTINUOUS
 62
     1
 10
247.596895826
 20
76.820704
 30
0.0
 11
247.596895826
 21
85.283704
 31
0.0
  0
LINE
  8
0
  6
CONTINUOUS
 62
     1
 10
253.641895826
 20
68.357704
 30
0.0
 11
253.641895826
 21
66.060604
 31
0.0
  0
LINE
  8
0
  6
CONTINUOUS
 62
     1
 10
247.596895826
 20
76.820704
 30
0.0
 11
245.178895826
 21
76.820704
 31
0.0
  0
LINE
  8
0
  6
CONTINUOUS
 62
     1
 10
243.969895826
 20
75.611704
 30
0.0
 11
243.969895826
 21
66.060604
 31
0.0
  0
ARC
  8
0
  6
CONTINUOUS
 62
     1
 10
245.178895826
 20
75.611704
 30
0.0
 40
1.209
 50
90.0
 51
180.0
  0
LINE
  8
0
  6
CONTINUOUS
 62
     1
 10
256.664395826
 20
66.060604
 30
0.0
 11
256.664395826
 21
67.148704
 31
0.0
  0
ARC
  8
0
  6
CONTINUOUS
 62
     1
 10
257.873395826
 20
67.148704
 30
0.0
 40
1.209
 50
90.0
 51
180.0
  0
LINE
  8
0
  6
CONTINUOUS
 62
     1
 10
257.873395826
 20
68.357704
 30
0.0
 11
258.115195826
 21
68.357704
 31
0.0
  0
ARC
  8
0
  6
CONTINUOUS
 62
     1
 10
258.115195826
 20
67.511404
 30
0.0
 40
0.8463
 50
0.0
 51
90.0
  0
LINE
  8
0
  6
CONTINUOUS
 62
     1
 10
258.961495826
 20
58.564804
 30
0.0
 11
258.961495826
 21
67.511404
 31
0.0
  0
ARC
  8
0
  6
CONTINUOUS
 62
     1
 10
260.170495826
 20
58.564804
 30
0.0
 40
1.209
 50
180.0
 51
270.0
  0
LINE
  8
0
  6
CONTINUOUS
 62
     1
 10
286.768495826
 20
61.224604
 30
0.0
 11
286.768495826
 21
58.806604
 31
0.0
  0
LINE
  8
0
  6
CONTINUOUS
 62
     1
 10
289.911895826
 20
58.564804
 30
0.0
 11
289.911895826
 21
85.888204
 31
0.0
  0
ARC
  8
0
  6
CONTINUOUS
 62
     1
 10
288.702895826
 20
58.564804
 30
0.0
 40
1.209
 50
270.0
 51
0.0
  0
LINE
  8
0
  6
CONTINUOUS
 62
     1
 10
289.911895826
 20
113.211604
 30
0.0
 11
289.911895826
 21
85.888204
 31
0.0
  0
LINE
  8
0
  6
CONTINUOUS
 62
     1
 10
279.030895826
 20
94.955704
 30
0.0
 11
263.313895826
 21
94.955704
 31
0.0
  0
LINE
  8
0
  6
CONTINUOUS
 62
     1
 10
289.911895826
 20
99.187204
 30
0.0
 11
260.774995826
 21
99.187204
 31
0.0
  0
LINE
  8
0
  6
CONTINUOUS
 62
     1
 10
281.448895826
 20
85.888204
 30
0.0
 11
281.448895826
 21
96.164704
 31
0.0
  0
LINE
  8
0
  6
CONTINUOUS
 62
     1
 10
279.030895826
 20
85.888204
 30
0.0
 11
279.030895826
 21
94.955704
 31
0.0
  0
LINE
  8
0
  6
CONTINUOUS
 62
     1
 10
279.030895826
 20
85.888204
 30
0.0
 11
279.030895826
 21
76.820704
 31
0.0
  0
LINE
  8
0
  6
CONTINUOUS
 62
     1
 10
281.448895826
 20
85.888204
 30
0.0
 11
281.448895826
 21
75.611704
 31
0.0
  0
ARC
  8
0
  6
CONTINUOUS
 62
     1
 10
280.239895826
 20
75.611704
 30
0.0
 40
1.209
 50
270.0
 51
0.0
  0
LINE
  8
0
  6
CONTINUOUS
 62
     1
 10
263.313895826
 20
74.402704
 30
0.0
 11
263.313895826
 21
76.820704
 31
0.0
  0
LINE
  8
0
  6
CONTINUOUS
 62
     1
 10
280.239895826
 20
74.402704
 30
0.0
 11
258.961495826
 21
74.402704
 31
0.0
  0
LINE
  8
0
  6
CONTINUOUS
 62
     1
 10
289.911895826
 20
72.589204
 30
0.0
 11
260.774995826
 21
72.589204
 31
0.0
  0
LINE
  8
0
  6
CONTINUOUS
 62
     1
 10
279.030895826
 20
76.820704
 30
0.0
 11
263.313895826
 21
76.820704
 31
0.0
  0
LINE
  8
0
  6
CONTINUOUS
 62
     1
 10
268.633495826
 20
61.224604
 30
0.0
 11
268.633495826
 21
58.806604
 31
0.0
  0
LINE
  8
0
  6
CONTINUOUS
 62
     1
 10
261.379495826
 20
61.224604
 30
0.0
 11
268.633495826
 21
61.224604
 31
0.0
  0
LINE
  8
0
  6
CONTINUOUS
 62
     1
 10
260.774995826
 20
72.589204
 30
0.0
 11
260.774995826
 21
57.355804
 31
0.0
  0
LINE
  8
0
  6
CONTINUOUS
 62
     1
 10
279.514495826
 20
61.224604
 30
0.0
 11
286.768495826
 21
61.224604
 31
0.0
  0
LINE
  8
0
  6
CONTINUOUS
 62
     1
 10
288.702895826
 20
57.355804
 30
0.0
 11
260.170495826
 21
57.355804
 31
0.0
  0
LINE
  8
0
  6
CONTINUOUS
 62
     1
 10
247.596895826
 20
94.955704
 30
0.0
 11
245.178895826
 21
94.955704
 31
0.0
  0
LINE
  8
0
  6
CONTINUOUS
 62
     1
 10
243.969895826
 20
96.164704
 30
0.0
 11
243.969895826
 21
105.715804
 31
0.0
  0
ARC
  8
0
  6
CONTINUOUS
 62
     1
 10
245.178895826
 20
96.164704
 30
0.0
 40
1.209
 50
180.0
 51
270.0
  0
LINE
  8
0
  6
CONTINUOUS
 62
     1
 10
250.014895826
 20
94.955704
 30
0.0
 11
250.014895826
 21
85.283704
 31
0.0
  0
LINE
  8
0
  6
CONTINUOUS
 62
     1
 10
250.014895826
 20
76.820704
 30
0.0
 11
250.014895826
 21
85.283704
 31
0.0
  0
LINE
  8
0
  6
CONTINUOUS
 62
     1
 10
250.014895826
 20
76.820704
 30
0.0
 11
252.432895826
 21
76.820704
 31
0.0
  0
ARC
  8
0
  6
CONTINUOUS
 62
     1
 10
252.432895826
 20
75.611704
 30
0.0
 40
1.209
 50
0.0
 51
90.0
  0
LINE
  8
0
  6
CONTINUOUS
 62
     1
 10
250.014895826
 20
94.955704
 30
0.0
 11
252.432895826
 21
94.955704
 31
0.0
  0
ARC
  8
0
  6
CONTINUOUS
 62
     1
 10
252.432895826
 20
96.164704
 30
0.0
 40
1.209
 50
270.0
 51
0.0
  0
LINE
  8
0
  6
CONTINUOUS
 62
     1
 10
253.641895826
 20
96.164704
 30
0.0
 11
253.641895826
 21
103.418704
 31
0.0
  0
LINE
  8
0
  6
CONTINUOUS
 62
     1
 10
253.641895826
 20
68.357704
 30
0.0
 11
253.641895826
 21
75.611704
 31
0.0
  0
LINE
  8
0
  6
CONTINUOUS
 62
     1
 10
231.237916826
 20
114.299704
 30
0.0
 11
234.43465377
 21
114.299704
 31
0.0
  0
LINE
  8
0
  6
CONTINUOUS
 62
     1
 10
234.298198076
 20
94.955704
 30
0.0
 11
231.842416826
 21
110.672704
 31
0.0
  0
LINE
  8
0
  6
CONTINUOUS
 62
     1
 10
234.298198076
 20
76.820704
 30
0.0
 11
231.842416826
 21
61.103704
 31
0.0
  0
LINE
  8
0
  6
CONTINUOUS
 62
     1
 10
230.810470776
 20
60.07175795
 30
0.0
 11
231.842416826
 21
61.103704
 31
0.0
  0
POINT
  8
0
  6
CONTINUOUS
 62
     1
 10
234.298198076
 20
82.261204
 30
0.0
  0
LINE
  8
0
  6
CONTINUOUS
 62
     1
 10
233.089198076
 20
83.470204
 30
0.0
 11
233.089198076
 21
85.888204
 31
0.0
  0
ARC
  8
0
  6
CONTINUOUS
 62
     1
 10
234.298198076
 20
83.470204
 30
0.0
 40
1.209
 50
180.0
 51
270.0
  0
LINE
  8
0
  6
CONTINUOUS
 62
     1
 10
234.298198076
 20
76.820704
 30
0.0
 11
234.298198076
 21
82.261204
 31
0.0
  0
LINE
  8
0
  6
CONTINUOUS
 62
     1
 10
233.089198076
 20
88.306204
 30
0.0
 11
233.089198076
 21
85.888204
 31
0.0
  0
ARC
  8
0
  6
CONTINUOUS
 62
     1
 10
234.298198076
 20
88.306204
 30
0.0
 40
1.209
 50
90.0
 51
180.0
  0
LINE
  8
0
  6
CONTINUOUS
 62
     1
 10
234.298198076
 20
89.515204
 30
0.0
 11
234.298198076
 21
94.955704
 31
0.0
  0
LINE
  8
0
  6
CONTINUOUS
 62
     1
 10
240.947395826
 20
75.611704
 30
0.0
 11
240.947395826
 21
66.060604
 31
0.0
  0
ARC
  8
0
  6
CONTINUOUS
 62
     1
 10
239.738395826
 20
75.611704
 30
0.0
 40
1.209
 50
0.0
 51
90.0
  0
LINE
  8
0
  6
CONTINUOUS
 62
     1
 10
239.564158882
 20
76.820704
 30
0.0
 11
239.738395826
 21
76.820704
 31
0.0
  0
ARC
  8
0
  6
CONTINUOUS
 62
     1
 10
239.564158882
 20
75.611704
 30
0.0
 40
1.209
 50
90.0
 51
171.119340849
  0
LINE
  8
0
  6
CONTINUOUS
 62
     1
 10
238.369652333
 20
75.798345648
 30
0.0
 11
235.666639318
 21
58.499062352
 31
0.0
  0
LINE
  8
0
  6
CONTINUOUS
 62
     1
 10
231.237916826
 20
57.476704
 30
0.0
 11
234.47213277
 21
57.476704
 31
0.0
  0
ARC
  8
0
  6
CONTINUOUS
 62
     1
 10
234.47213277
 20
58.685704
 30
0.0
 40
1.209
 50
270.0
 51
351.119340849
  0
ARC
  8
0
  6
CONTINUOUS
 62
     1
 10
239.738395826
 20
96.164704
 30
0.0
 40
1.209
 50
270.0
 51
0.0
  0
LINE
  8
0
  6
CONTINUOUS
 62
     1
 10
239.564158882
 20
94.955704
 30
0.0
 11
239.738395826
 21
94.955704
 31
0.0
  0
ARC
  8
0
  6
CONTINUOUS
 62
     1
 10
239.564158882
 20
96.164704
 30
0.0
 40
1.209
 50
188.880659151
 51
270.0
  0
LINE
  8
0
  6
CONTINUOUS
 62
     1
 10
238.369652333
 20
95.978062352
 30
0.0
 11
235.666639318
 21
113.277345648
 31
0.0
  0
ARC
  8
0
  6
CONTINUOUS
 62
     1
 10
234.47213277
 20
113.090704
 30
0.0
 40
1.209
 50
8.880659151
 51
90.0
  0
ARC
  8
0
  6
CONTINUOUS
 62
     1
 10
231.275698076
 20
58.081204
 30
0.0
 40
0.6045
 50
180.0
 51
270.0
  0
LINE
  8
0
  6
CONTINUOUS
 62
     1
 10
230.671198076
 20
58.081204
 30
0.0
 11
230.671198076
 21
59.644311902
 31
0.0
  0
ARC
  8
0
  6
CONTINUOUS
 62
     1
 10
231.275698076
 20
59.644311902
 30
0.0
 40
0.6045
 50
135.0
 51
180.0
  0
LINE
  8
0
  6
CONTINUOUS
 62
     1
 10
231.275698076
 20
114.299704
 30
0.0
 11
234.43465377
 21
114.299704
 31
0.0
  0
ARC
  8
0
  6
CONTINUOUS
 62
     1
 10
231.275698076
 20
113.695204
 30
0.0
 40
0.6045
 50
90.0
 51
180.0
  0
LINE
  8
0
  6
CONTINUOUS
 62
     1
 10
230.848252026
 20
111.6668688
 30
0.0
 11
231.842416826
 21
110.672704
 31
0.0
  0
LINE
  8
0
  6
CONTINUOUS
 62
     1
 10
230.671198076
 20
113.695204
 30
0.0
 11
230.671198076
 21
112.094314848
 31
0.0
  0
ARC
  8
0
  6
CONTINUOUS
 62
     1
 10
231.275698076
 20
112.094314848
 30
0.0
 40
0.6045
 50
180.0
 51
225.0
  0
LINE
  8
0
  6
CONTINUOUS
 62
     1
 10
286.768495826
 20
58.806604
 30
0.0
 11
279.514495826
 21
58.806604
 31
0.0
  0
LINE
  8
0
  6
CONTINUOUS
 62
     1
 10
279.514495826
 20
58.806604
 30
0.0
 11
279.514495826
 21
61.224604
 31
0.0
  0
LINE
  8
0
  6
CONTINUOUS
 62
     1
 10
286.768495826
 20
110.551804
 30
0.0
 11
286.768495826
 21
112.969804
 31
0.0
  0
LINE
  8
0
  6
CONTINUOUS
 62
     1
 10
268.633495826
 20
110.551804
 30
0.0
 11
268.633495826
 21
112.969804
 31
0.0
  0
LINE
  8
0
  6
CONTINUOUS
 62
     1
 10
261.379495826
 20
110.551804
 30
0.0
 11
268.633495826
 21
110.551804
 31
0.0
  0
LINE
  8
0
  6
CONTINUOUS
 62
     1
 10
279.514495826
 20
110.551804
 30
0.0
 11
286.768495826
 21
110.551804
 31
0.0
  0
LINE
  8
0
  6
CONTINUOUS
 62
     1
 10
289.911895826
 20
112.969804
 30
0.0
 11
316.649470776
 21
112.969804
 31
0.0
  0
LINE
  8
0
  6
CONTINUOUS
 62
     1
 10
305.768470776
 20
104.990404
 30
0.0
 11
289.911895826
 21
104.990404
 31
0.0
  0
LINE
  8
0
  6
CONTINUOUS
 62
     1
 10
305.768470776
 20
103.418704
 30
0.0
 11
289.911895826
 21
103.418704
 31
0.0
  0
LINE
  8
0
  6
CONTINUOUS
 62
     1
 10
305.768470776
 20
101.363404
 30
0.0
 11
289.911895826
 21
101.363404
 31
0.0
  0
LINE
  8
0
  6
CONTINUOUS
 62
     1
 10
305.768470776
 20
99.791704
 30
0.0
 11
289.911895826
 21
99.791704
 31
0.0
  0
LINE
  8
0
  6
CONTINUOUS
 62
     1
 10
305.768470776
 20
68.357704
 30
0.0
 11
289.911895826
 21
68.357704
 31
0.0
  0
LINE
  8
0
  6
CONTINUOUS
 62
     1
 10
305.768470776
 20
70.413004
 30
0.0
 11
289.911895826
 21
70.413004
 31
0.0
  0
LINE
  8
0
  6
CONTINUOUS
 62
     1
 10
305.768470776
 20
71.984704
 30
0.0
 11
289.911895826
 21
71.984704
 31
0.0
  0
LINE
  8
0
  6
CONTINUOUS
 62
     1
 10
305.768470776
 20
66.786004
 30
0.0
 11
289.911895826
 21
66.786004
 31
0.0
  0
LINE
  8
0
  6
CONTINUOUS
 62
     1
 10
289.942660776
 20
74.402704
 30
0.0
 11
290.655970776
 21
74.402704
 31
0.0
  0
LINE
  8
0
  6
CONTINUOUS
 62
     1
 10
289.894300776
 20
97.373704
 30
0.0
 11
290.655970776
 21
97.373704
 31
0.0
  0
LINE
  8
0
  6
CONTINUOUS
 62
     1
 10
279.774970776
 20
97.337434
 30
0.0
 11
279.774970776
 21
74.402704
 31
0.0
  0
LINE
  8
0
  6
CONTINUOUS
 62
     1
 10
258.961495826
 20
97.373704
 30
0.0
 11
258.961495826
 21
74.402704
 31
0.0
  0
ARC
  8
0
  6
CONTINUOUS
 62
     1
 10
280.239895826
 20
96.164704
 30
0.0
 40
1.209
 50
0.0
 51
89.99984545
  0
LINE
  8
0
  6
CONTINUOUS
 62
     1
 10
258.961495826
 20
97.373704
 30
0.0
 11
280.239899087
 21
97.373704
 31
0.0
  0
LINE
  8
0
  6
CONTINUOUS
 62
     1
 10
253.479220776
 20
112.969804
 30
0.0
 11
253.479220776
 21
111.990514
 31
0.0
  0
LINE
  8
0
  6
CONTINUOUS
 62
     1
 10
257.408470776
 20
110.793604
 30
0.0
 11
254.748670776
 21
110.793604
 31
0.0
  0
LINE
  8
0
  6
CONTINUOUS
 62
     1
 10
251.822890776
 20
112.969804
 30
0.0
 11
258.961495826
 21
112.969804
 31
0.0
  0
LINE
  8
0
  6
CONTINUOUS
 62
     1
 10
257.408470776
 20
60.982804
 30
0.0
 11
254.676130776
 21
60.982804
 31
0.0
  0
LINE
  8
0
  6
CONTINUOUS
 62
     1
 10
253.479220776
 20
58.806604
 30
0.0
 11
253.479220776
 21
59.797984
 31
0.0
  0
LINE
  8
0
  6
CONTINUOUS
 62
     1
 10
316.649470776
 20
111.277204
 30
0.0
 11
318.462970776
 21
111.277204
 31
0.0
  0
LINE
  8
0
  6
CONTINUOUS
 62
     1
 10
318.462970776
 20
111.277204
 30
0.0
 11
318.462970776
 21
111.881704
 31
0.0
  0
LINE
  8
0
  6
CONTINUOUS
 62
     1
 10
318.462970776
 20
111.881704
 30
0.0
 11
316.649470776
 21
112.304854
 31
0.0
  0
LINE
  8
0
  6
CONTINUOUS
 62
     1
 10
316.649470776
 20
60.499204
 30
0.0
 11
318.462970776
 21
60.499204
 31
0.0
  0
LINE
  8
0
  6
CONTINUOUS
 62
     1
 10
318.462970776
 20
60.499204
 30
0.0
 11
318.462970776
 21
59.894704
 31
0.0
  0
LINE
  8
0
  6
CONTINUOUS
 62
     1
 10
318.462970776
 20
59.894704
 30
0.0
 11
316.649470776
 21
59.471554
 31
0.0
  0
LINE
  8
0
  6
CONTINUOUS
 62
     1
 10
316.649470776
 20
60.499204
 30
0.0
 11
316.649470776
 21
59.894704
 31
0.0
  0
LINE
  8
0
  6
CONTINUOUS
 62
     1
 10
318.462970776
 20
111.519004
 30
0.0
 11
322.694470776
 21
111.519004
 31
0.0
  0
LINE
  8
0
  6
CONTINUOUS
 62
     1
 10
318.462970776
 20
60.257404
 30
0.0
 11
322.694470776
 21
60.257404
 31
0.0
  0
LINE
  8
0
  6
CONTINUOUS
 62
     1
 10
319.067470776
 20
58.927504
 30
0.0
 11
322.089970776
 21
58.927504
 31
0.0
  0
ARC
  8
0
  6
CONTINUOUS
 62
     1
 10
322.089970776
 20
59.532004
 30
0.0
 40
0.6045
 50
270.0
 51
0.0
  0
LINE
  8
0
  6
CONTINUOUS
 62
     1
 10
316.649470776
 20
58.927504
 30
0.0
 11
319.067470776
 21
58.927504
 31
0.0
  0
LINE
  8
0
  6
CONTINUOUS
 62
     1
 10
316.649470776
 20
58.927504
 30
0.0
 11
316.649470776
 21
60.499204
 31
0.0
  0
LINE
  8
0
  6
CONTINUOUS
 62
     1
 10
319.067470776
 20
112.848904
 30
0.0
 11
322.089970776
 21
112.848904
 31
0.0
  0
ARC
  8
0
  6
CONTINUOUS
 62
     1
 10
322.089970776
 20
112.244404
 30
0.0
 40
0.6045
 50
0.0
 51
90.0
  0
LINE
  8
0
  6
CONTINUOUS
 62
     1
 10
316.649470776
 20
112.848904
 30
0.0
 11
319.067470776
 21
112.848904
 31
0.0
  0
LINE
  8
0
  6
CONTINUOUS
 62
     1
 10
316.649470776
 20
112.848904
 30
0.0
 11
316.649470776
 21
111.277204
 31
0.0
  0
LINE
  8
0
  6
CONTINUOUS
 62
     1
 10
322.694470776
 20
59.532004
 30
0.0
 11
322.694470776
 21
112.244404
 31
0.0
  0
LINE
  8
0
  6
CONTINUOUS
 62
     1
 10
258.012970776
 20
66.786004
 30
0.0
 11
258.012970776
 21
68.357704
 31
0.0
  0
LINE
  8
0
  6
CONTINUOUS
 62
     1
 10
258.012970776
 20
104.990404
 30
0.0
 11
258.012970776
 21
103.418704
 31
0.0
  0
LINE
  8
0
  6
CONTINUOUS
 62
     1
 10
253.641895826
 20
104.990404
 30
0.0
 11
243.969895826
 21
104.990404
 31
0.0
  0
LINE
  8
0
  6
CONTINUOUS
 62
     1
 10
253.641895826
 20
103.418704
 30
0.0
 11
243.969895826
 21
103.418704
 31
0.0
  0
LINE
  8
0
  6
CONTINUOUS
 62
     1
 10
253.641895826
 20
99.791704
 30
0.0
 11
243.969895826
 21
99.791704
 31
0.0
  0
LINE
  8
0
  6
CONTINUOUS
 62
     1
 10
253.641895826
 20
101.363404
 30
0.0
 11
243.969895826
 21
101.363404
 31
0.0
  0
LINE
  8
0
  6
CONTINUOUS
 62
     5
 10
256.664395826
 20
104.990404
 30
0.0
 11
258.961495826
 21
104.990404
 31
0.0
  0
LINE
  8
0
  6
CONTINUOUS
 62
     1
 10
258.961495826
 20
66.786004
 30
0.0
 11
256.664395826
 21
66.786004
 31
0.0
  0
LINE
  8
0
  6
CONTINUOUS
 62
     1
 10
253.641895826
 20
70.413004
 30
0.0
 11
243.969895826
 21
70.413004
 31
0.0
  0
LINE
  8
0
  6
CONTINUOUS
 62
     1
 10
253.641895826
 20
71.984704
 30
0.0
 11
243.969895826
 21
71.984704
 31
0.0
  0
LINE
  8
0
  6
CONTINUOUS
 62
     1
 10
253.641895826
 20
68.357704
 30
0.0
 11
243.969895826
 21
68.357704
 31
0.0
  0
LINE
  8
0
  6
CONTINUOUS
 62
     1
 10
253.641895826
 20
66.786004
 30
0.0
 11
243.969895826
 21
66.786004
 31
0.0
  0
ARC
  8
0
  6
CONTINUOUS
 62
     1
 10
522.108060343
 20
85.132579
 30
0.0
 40
305.877
 50
174.868443884
 51
177.966505831
  0
ARC
  8
0
  6
CONTINUOUS
 62
     1
 10
522.108060343
 20
85.132579
 30
0.0
 40
305.877
 50
177.966505831
 51
181.219053133
  0
ARC
  8
0
  6
CONTINUOUS
 62
     1
 10
223.798270776
 20
83.047054
 30
0.0
 40
8.7048
 50
149.491893911
 51
210.530204196
  0
ARC
  8
0
  6
CONTINUOUS
 62
     1
 10
223.798270776
 20
101.182054
 30
0.0
 40
8.7048
 50
141.505131416
 51
210.508106089
  0
LINE
  8
0
  6
CONTINUOUS
 62
     1
 10
219.903862324
 20
113.090704
 30
0.0
 11
217.511470776
 21
113.090704
 31
0.0
  0
LINE
  8
0
  6
CONTINUOUS
 62
     1
 10
219.903862324
 20
113.090704
 30
0.0
 11
217.511470776
 21
113.090704
 31
0.0
  0
LINE
  8
0
  6
CONTINUOUS
 62
     1
 10
217.511470776
 20
114.012377623
 30
0.0
 11
217.511470776
 21
113.090704
 31
0.0
  0
ARC
  8
0
  6
CONTINUOUS
 62
     1
 10
217.003194428
 20
73.798204
 30
0.0
 40
0.6045
 50
160.410406908
 51
270.000077275
  0
ARC
  8
0
  6
CONTINUOUS
 62
     1
 10
522.108060343
 20
85.132579
 30
0.0
 40
305.877
 50
181.219053133
 51
182.085610173
  0
LINE
  8
0
  6
CONTINUOUS
 62
     1
 10
216.37308679
 20
59.532004
 30
0.0
 11
216.37308679
 21
72.589204
 31
0.0
  0
LINE
  8
0
  6
CONTINUOUS
 62
     1
 10
212.671586389
 20
68.357704
 30
0.0
 11
212.671586389
 21
70.775704
 31
0.0
  0
LINE
  8
0
  6
CONTINUOUS
 62
     1
 10
212.671586389
 20
70.775704
 30
0.0
 11
216.298586389
 21
70.775704
 31
0.0
  0
LINE
  8
0
  6
CONTINUOUS
 62
     1
 10
212.671586389
 20
68.357704
 30
0.0
 11
212.671586389
 21
65.939704
 31
0.0
  0
LINE
  8
0
  6
CONTINUOUS
 62
     1
 10
212.671586389
 20
65.939704
 30
0.0
 11
216.298586389
 21
65.939704
 31
0.0
  0
LINE
  8
0
  6
CONTINUOUS
 62
     1
 10
235.714692701
 20
58.806604
 30
0.0
 11
245.729530776
 21
58.806604
 31
0.0
  0
LINE
  8
0
  6
CONTINUOUS
 62
     1
 10
229.601470776
 20
58.806604
 30
0.0
 11
230.671198076
 21
58.806604
 31
0.0
  0
LINE
  8
0
  6
CONTINUOUS
 62
     1
 10
235.714692701
 20
112.969804
 30
0.0
 11
245.802070776
 21
112.969804
 31
0.0
  0
LINE
  8
0
  6
CONTINUOUS
 62
     1
 10
229.601470776
 20
112.969804
 30
0.0
 11
230.671198076
 21
112.969804
 31
0.0
  0
LINE
  8
0
  6
CONTINUOUS
 62
     1
 10
289.911895826
 20
58.806604
 30
0.0
 11
316.649470776
 21
58.806604
 31
0.0
  0
LINE
  8
0
  6
CONTINUOUS
 62
     1
 10
251.701990776
 20
58.806604
 30
0.0
 11
258.961495826
 21
58.806604
 31
0.0
  0
LINE
  8
0
  6
CONTINUOUS
 62
     2
 10
228.64
 20
58.81
 30
0.0
 11
197.82
 21
58.81
 31
0.0
  0
LINE
  8
0
  6
CONTINUOUS
 62
     2
 10
199.82
 20
58.81
 30
0.0
 11
200.467047613
 21
61.224814566
 31
0.0
  0
LINE
  8
0
  6
CONTINUOUS
 62
     2
 10
199.82
 20
58.81
 30
0.0
 11
199.172952387
 21
61.224814566
 31
0.0
  0
LINE
  8
0
  6
CONTINUOUS
 62
     2
 10
199.82
 20
113.03
 30
0.0
 11
199.172952387
 21
110.615185434
 31
0.0
  0
LINE
  8
0
  6
CONTINUOUS
 62
     2
 10
199.82
 20
113.03
 30
0.0
 11
200.467047613
 21
110.615185434
 31
0.0
  0
LINE
  8
0
  6
CONTINUOUS
 62
     2
 10
228.64
 20
113.03
 30
0.0
 11
197.82
 21
113.03
 31
0.0
  0
LINE
  8
0
  6
CONTINUOUS
 62
     1
 10
85.17
 20
215.77
 30
0.0
 11
83.9
 21
217.8
 31
0.0
  0
LINE
  8
0
  6
CONTINUOUS
 62
     1
 10
83.9
 20
217.78
 30
0.0
 11
84.76
 21
227.0
 31
0.0
  0
LINE
  8
0
  6
CONTINUOUS
 62
     1
 10
98.46
 20
215.77
 30
0.0
 11
97.19
 21
217.8
 31
0.0
  0
LINE
  8
0
  6
CONTINUOUS
 62
     1
 10
97.19
 20
217.78
 30
0.0
 11
98.05
 21
227.0
 31
0.0
  0
LINE
  8
0
  6
CONTINUOUS
 62
     1
 10
111.77
 20
215.77
 30
0.0
 11
110.5
 21
217.8
 31
0.0
  0
LINE
  8
0
  6
CONTINUOUS
 62
     1
 10
110.5
 20
217.78
 30
0.0
 11
111.36
 21
227.0
 31
0.0
  0
LINE
  8
0
  6
CONTINUOUS
 62
     1
 10
125.07
 20
215.77
 30
0.0
 11
123.8
 21
217.8
 31
0.0
  0
LINE
  8
0
  6
CONTINUOUS
 62
     1
 10
123.8
 20
217.78
 30
0.0
 11
124.66
 21
227.0
 31
0.0
  0
LINE
  8
0
  6
CONTINUOUS
 62
     1
 10
136.55
 20
240.04
 30
0.0
 11
136.22
 21
237.2
 31
0.0
  0
LINE
  8
0
  6
CONTINUOUS
 62
     1
 10
135.36
 20
237.52
 30
0.0
 11
135.96
 21
237.03
 31
0.0
  0
LINE
  8
0
  6
CONTINUOUS
 62
     1
 10
135.95
 20
237.03
 30
0.0
 11
135.2
 21
236.55
 31
0.0
  0
LINE
  8
0
  6
CONTINUOUS
 62
     1
 10
133.32
 20
237.34
 30
0.0
 11
134.23
 21
237.92
 31
0.0
  0
LINE
  8
0
  6
CONTINUOUS
 62
     1
 10
134.5
 20
239.67
 30
0.0
 11
134.23
 21
237.92
 31
0.0
  0
LINE
  8
0
  6
CONTINUOUS
 62
     1
 10
136.24
 20
236.84
 30
0.0
 11
135.25
 21
236.18
 31
0.0
  0
LINE
  8
0
  6
CONTINUOUS
 62
     1
 10
135.12
 20
234.38
 30
0.0
 11
135.266436782
 21
236.2
 31
0.0
  0
LINE
  8
0
  6
CONTINUOUS
 62
     1
 10
131.98
 20
237.42
 30
0.0
 11
131.98
 21
236.51
 31
0.0
  0
LINE
  8
0
  6
CONTINUOUS
 62
     1
 10
131.98
 20
236.51
 30
0.0
 11
129.9
 21
236.51
 31
0.0
  0
LINE
  8
0
  6
CONTINUOUS
 62
     1
 10
140.191600843
 20
237.521701412
 30
0.0
 11
139.043050843
 21
237.521701412
 31
0.0
  0
LINE
  8
0
  6
CONTINUOUS
 62
     1
 10
140.010250843
 20
236.554501412
 30
0.0
 11
138.919089782
 21
236.554501412
 31
0.0
  0
LINE
  8
0
  6
CONTINUOUS
 62
     1
 10
139.34544098
 20
240.000151412
 30
0.0
 11
140.43354098
 21
240.000151412
 31
0.0
  0
LINE
  8
0
  6
CONTINUOUS
 62
     1
 10
139.238351087
 20
240.967351412
 30
0.0
 11
140.56178563
 21
240.967351412
 31
0.0
  0
ARC
  8
0
  6
CONTINUOUS
 62
     1
 10
139.238351087
 20
240.121051412
 30
0.0
 40
0.8463
 50
138.026918328
 51
175.0
  0
LINE
  8
0
  6
CONTINUOUS
 62
     1
 10
139.317227559
 20
239.677670543
 30
0.0
 11
138.609161642
 21
240.687041105
 31
0.0
  0
ARC
  8
0
  6
CONTINUOUS
 62
     1
 10
140.56178563
 20
240.121051412
 30
0.0
 40
0.8463
 50
355.0
 51
38.377535299
  0
ARC
  8
0
  6
CONTINUOUS
 62
     1
 10
140.56178563
 20
240.121051412
 30
0.0
 40
0.8463
 50
53.660187666
 51
90.0
  0
LINE
  8
0
  6
CONTINUOUS
 62
     1
 10
140.43354098
 20
240.000151412
 30
0.0
 11
141.063280194
 21
240.802760216
 31
0.0
  0
ARC
  8
0
  6
CONTINUOUS
 62
     1
 10
139.238351087
 20
240.121051412
 30
0.0
 40
0.8463
 50
90.0
 51
123.814454226
  0
LINE
  8
0
  6
CONTINUOUS
 62
     1
 10
139.34544098
 20
240.000151412
 30
0.0
 11
138.767380708
 21
240.824194778
 31
0.0
  0
LINE
  8
0
  6
CONTINUOUS
 62
     1
 10
138.827149387
 20
234.076051412
 30
0.0
 11
138.119095183
 21
233.33867386
 31
0.0
  0
ARC
  8
0
  6
CONTINUOUS
 62
     1
 10
138.698904736
 20
233.955151412
 30
0.0
 40
0.8463
 50
227.326829743
 51
270.0
  0
ARC
  8
0
  6
CONTINUOUS
 62
     1
 10
138.698904736
 20
233.955151412
 30
0.0
 40
0.8463
 50
175.0
 51
209.51490551
  0
LINE
  8
0
  6
CONTINUOUS
 62
     1
 10
138.862062529
 20
234.475110446
 30
0.0
 11
137.962431151
 21
233.538221745
 31
0.0
  0
LINE
  8
0
  6
CONTINUOUS
 62
     1
 10
139.915249387
 20
234.076051412
 30
0.0
 11
140.51307901
 21
233.265660146
 31
0.0
  0
ARC
  8
0
  6
CONTINUOUS
 62
     1
 10
140.02233928
 20
233.955151412
 30
0.0
 40
0.8463
 50
270.0
 51
305.441046464
  0
LINE
  8
0
  6
CONTINUOUS
 62
     1
 10
139.943617222
 20
234.400297238
 30
0.0
 11
140.672059514
 21
233.412853241
 31
0.0
  0
ARC
  8
0
  6
CONTINUOUS
 62
     1
 10
140.02233928
 20
233.955151412
 30
0.0
 40
0.8463
 50
320.149459061
 51
355.0
  0
LINE
  8
0
  6
CONTINUOUS
 62
     1
 10
138.827149387
 20
234.076051412
 30
0.0
 11
139.915249387
 21
234.076051412
 31
0.0
  0
LINE
  8
0
  6
CONTINUOUS
 62
     1
 10
138.698904736
 20
233.108851412
 30
0.0
 11
140.02233928
 21
233.108851412
 31
0.0
  0
LINE
  8
0
  6
CONTINUOUS
 62
     1
 10
141.118995487
 20
236.779785697
 30
0.0
 11
140.865418852
 21
233.881391507
 31
0.0
  0
LINE
  8
0
  6
CONTINUOUS
 62
     1
 10
141.052356278
 20
236.833097065
 30
0.0
 11
141.118995487
 21
236.779785697
 31
0.0
  0
LINE
  8
0
  6
CONTINUOUS
 62
     1
 10
137.855825164
 20
234.028911317
 30
0.0
 11
138.097567207
 21
236.792035521
 31
0.0
  0
LINE
  8
0
  6
CONTINUOUS
 62
     1
 10
138.144774372
 20
237.331615891
 30
0.0
 11
138.395271515
 21
240.194811317
 31
0.0
  0
LINE
  8
0
  6
CONTINUOUS
 62
     1
 10
139.043050843
 20
237.521701412
 30
0.0
 11
138.257200843
 21
237.038101412
 31
0.0
  0
LINE
  8
0
  6
CONTINUOUS
 62
     1
 10
138.919089782
 20
236.554501412
 30
0.0
 11
138.257200843
 21
237.038101412
 31
0.0
  0
LINE
  8
0
  6
CONTINUOUS
 62
     1
 10
139.006656082
 20
236.127822307
 30
0.0
 11
138.097567207
 21
236.792035521
 31
0.0
  0
LINE
  8
0
  6
CONTINUOUS
 62
     1
 10
139.006656082
 20
236.127822307
 30
0.0
 11
138.862062529
 21
234.475110446
 31
0.0
  0
LINE
  8
0
  6
CONTINUOUS
 62
     1
 10
140.244719046
 20
237.841906849
 30
0.0
 11
141.052356278
 21
237.195797065
 31
0.0
  0
LINE
  8
0
  6
CONTINUOUS
 62
     1
 10
140.397826491
 20
239.591932947
 30
0.0
 11
141.225231462
 21
240.646468693
 31
0.0
  0
LINE
  8
0
  6
CONTINUOUS
 62
     1
 10
140.397826491
 20
239.591932947
 30
0.0
 11
140.244719046
 21
237.841906849
 31
0.0
  0
CIRCLE
  8
0
  6
CONTINUOUS
 62
     1
 10
141.666580843
 20
233.644438412
 30
0.0
 40
0.41106
  0
LINE
  8
0
  6
CONTINUOUS
 62
     1
 10
141.38
 20
240.04
 30
0.0
 11
141.05
 21
237.2
 31
0.0
  0
LINE
  8
0
  6
CONTINUOUS
 62
     1
 10
140.19
 20
237.52
 30
0.0
 11
140.79
 21
237.03
 31
0.0
  0
LINE
  8
0
  6
CONTINUOUS
 62
     1
 10
140.78
 20
237.03
 30
0.0
 11
140.03
 21
236.55
 31
0.0
  0
LINE
  8
0
  6
CONTINUOUS
 62
     1
 10
138.15
 20
237.34
 30
0.0
 11
139.06
 21
237.92
 31
0.0
  0
LINE
  8
0
  6
CONTINUOUS
 62
     1
 10
139.33
 20
239.67
 30
0.0
 11
139.06
 21
237.92
 31
0.0
  0
LINE
  8
0
  6
CONTINUOUS
 62
     1
 10
141.07
 20
236.84
 30
0.0
 11
140.08
 21
236.18
 31
0.0
  0
LINE
  8
0
  6
CONTINUOUS
 62
     1
 10
139.95
 20
234.38
 30
0.0
 11
140.096436782
 21
236.2
 31
0.0
  0
LINE
  8
0
  6
CONTINUOUS
 62
     1
 10
145.021600843
 20
237.521701412
 30
0.0
 11
143.873050843
 21
237.521701412
 31
0.0
  0
LINE
  8
0
  6
CONTINUOUS
 62
     1
 10
144.840250843
 20
236.554501412
 30
0.0
 11
143.749089782
 21
236.554501412
 31
0.0
  0
LINE
  8
0
  6
CONTINUOUS
 62
     1
 10
144.17544098
 20
240.000151412
 30
0.0
 11
145.26354098
 21
240.000151412
 31
0.0
  0
LINE
  8
0
  6
CONTINUOUS
 62
     1
 10
144.068351087
 20
240.967351412
 30
0.0
 11
145.39178563
 21
240.967351412
 31
0.0
  0
ARC
  8
0
  6
CONTINUOUS
 62
     1
 10
144.068351087
 20
240.121051412
 30
0.0
 40
0.8463
 50
138.026918328
 51
175.0
  0
LINE
  8
0
  6
CONTINUOUS
 62
     1
 10
144.147227559
 20
239.677670543
 30
0.0
 11
143.439161642
 21
240.687041105
 31
0.0
  0
ARC
  8
0
  6
CONTINUOUS
 62
     1
 10
145.39178563
 20
240.121051412
 30
0.0
 40
0.8463
 50
355.0
 51
38.377535299
  0
ARC
  8
0
  6
CONTINUOUS
 62
     1
 10
145.39178563
 20
240.121051412
 30
0.0
 40
0.8463
 50
53.660187666
 51
90.0
  0
LINE
  8
0
  6
CONTINUOUS
 62
     1
 10
145.26354098
 20
240.000151412
 30
0.0
 11
145.893280194
 21
240.802760216
 31
0.0
  0
ARC
  8
0
  6
CONTINUOUS
 62
     1
 10
144.068351087
 20
240.121051412
 30
0.0
 40
0.8463
 50
90.0
 51
123.814454226
  0
LINE
  8
0
  6
CONTINUOUS
 62
     1
 10
144.17544098
 20
240.000151412
 30
0.0
 11
143.597380708
 21
240.824194778
 31
0.0
  0
LINE
  8
0
  6
CONTINUOUS
 62
     1
 10
143.657149387
 20
234.076051412
 30
0.0
 11
142.949095183
 21
233.33867386
 31
0.0
  0
ARC
  8
0
  6
CONTINUOUS
 62
     1
 10
143.528904736
 20
233.955151412
 30
0.0
 40
0.8463
 50
227.326829743
 51
270.0
  0
ARC
  8
0
  6
CONTINUOUS
 62
     1
 10
143.528904736
 20
233.955151412
 30
0.0
 40
0.8463
 50
175.0
 51
209.51490551
  0
LINE
  8
0
  6
CONTINUOUS
 62
     1
 10
143.692062529
 20
234.475110446
 30
0.0
 11
142.792431151
 21
233.538221745
 31
0.0
  0
LINE
  8
0
  6
CONTINUOUS
 62
     1
 10
144.745249387
 20
234.076051412
 30
0.0
 11
145.34307901
 21
233.265660146
 31
0.0
  0
ARC
  8
0
  6
CONTINUOUS
 62
     1
 10
144.85233928
 20
233.955151412
 30
0.0
 40
0.8463
 50
270.0
 51
305.441046464
  0
LINE
  8
0
  6
CONTINUOUS
 62
     1
 10
144.773617222
 20
234.400297238
 30
0.0
 11
145.502059514
 21
233.412853241
 31
0.0
  0
ARC
  8
0
  6
CONTINUOUS
 62
     1
 10
144.85233928
 20
233.955151412
 30
0.0
 40
0.8463
 50
320.149459061
 51
355.0
  0
LINE
  8
0
  6
CONTINUOUS
 62
     1
 10
143.657149387
 20
234.076051412
 30
0.0
 11
144.745249387
 21
234.076051412
 31
0.0
  0
LINE
  8
0
  6
CONTINUOUS
 62
     1
 10
143.528904736
 20
233.108851412
 30
0.0
 11
144.85233928
 21
233.108851412
 31
0.0
  0
LINE
  8
0
  6
CONTINUOUS
 62
     1
 10
145.948995487
 20
236.779785697
 30
0.0
 11
145.695418852
 21
233.881391507
 31
0.0
  0
LINE
  8
0
  6
CONTINUOUS
 62
     1
 10
145.882356278
 20
236.833097065
 30
0.0
 11
145.948995487
 21
236.779785697
 31
0.0
  0
LINE
  8
0
  6
CONTINUOUS
 62
     1
 10
142.685825164
 20
234.028911317
 30
0.0
 11
142.927567207
 21
236.792035521
 31
0.0
  0
LINE
  8
0
  6
CONTINUOUS
 62
     1
 10
142.974774372
 20
237.331615891
 30
0.0
 11
143.225271515
 21
240.194811317
 31
0.0
  0
LINE
  8
0
  6
CONTINUOUS
 62
     1
 10
143.873050843
 20
237.521701412
 30
0.0
 11
143.087200843
 21
237.038101412
 31
0.0
  0
LINE
  8
0
  6
CONTINUOUS
 62
     1
 10
143.749089782
 20
236.554501412
 30
0.0
 11
143.087200843
 21
237.038101412
 31
0.0
  0
LINE
  8
0
  6
CONTINUOUS
 62
     1
 10
143.836656082
 20
236.127822307
 30
0.0
 11
142.927567207
 21
236.792035521
 31
0.0
  0
LINE
  8
0
  6
CONTINUOUS
 62
     1
 10
143.836656082
 20
236.127822307
 30
0.0
 11
143.692062529
 21
234.475110446
 31
0.0
  0
LINE
  8
0
  6
CONTINUOUS
 62
     1
 10
145.074719046
 20
237.841906849
 30
0.0
 11
145.882356278
 21
237.195797065
 31
0.0
  0
LINE
  8
0
  6
CONTINUOUS
 62
     1
 10
145.227826491
 20
239.591932947
 30
0.0
 11
146.055231462
 21
240.646468693
 31
0.0
  0
LINE
  8
0
  6
CONTINUOUS
 62
     1
 10
145.227826491
 20
239.591932947
 30
0.0
 11
145.074719046
 21
237.841906849
 31
0.0
  0
CIRCLE
  8
0
  6
CONTINUOUS
 62
     1
 10
146.496580843
 20
233.644438412
 30
0.0
 40
0.41106
  0
LINE
  8
0
  6
CONTINUOUS
 62
     1
 10
146.21
 20
240.04
 30
0.0
 11
145.88
 21
237.2
 31
0.0
  0
LINE
  8
0
  6
CONTINUOUS
 62
     1
 10
145.02
 20
237.52
 30
0.0
 11
145.62
 21
237.03
 31
0.0
  0
LINE
  8
0
  6
CONTINUOUS
 62
     1
 10
145.61
 20
237.03
 30
0.0
 11
144.86
 21
236.55
 31
0.0
  0
LINE
  8
0
  6
CONTINUOUS
 62
     1
 10
142.98
 20
237.34
 30
0.0
 11
143.89
 21
237.92
 31
0.0
  0
LINE
  8
0
  6
CONTINUOUS
 62
     1
 10
144.16
 20
239.67
 30
0.0
 11
143.89
 21
237.92
 31
0.0
  0
LINE
  8
0
  6
CONTINUOUS
 62
     1
 10
145.9
 20
236.84
 30
0.0
 11
144.91
 21
236.18
 31
0.0
  0
LINE
  8
0
  6
CONTINUOUS
 62
     1
 10
144.78
 20
234.38
 30
0.0
 11
144.926436782
 21
236.2
 31
0.0
  0
LINE
  8
0
  6
CONTINUOUS
 62
     1
 10
149.851600843
 20
237.521701412
 30
0.0
 11
148.703050843
 21
237.521701412
 31
0.0
  0
LINE
  8
0
  6
CONTINUOUS
 62
     1
 10
149.670250843
 20
236.554501412
 30
0.0
 11
148.579089782
 21
236.554501412
 31
0.0
  0
LINE
  8
0
  6
CONTINUOUS
 62
     1
 10
149.00544098
 20
240.000151412
 30
0.0
 11
150.09354098
 21
240.000151412
 31
0.0
  0
LINE
  8
0
  6
CONTINUOUS
 62
     1
 10
148.898351087
 20
240.967351412
 30
0.0
 11
150.22178563
 21
240.967351412
 31
0.0
  0
ARC
  8
0
  6
CONTINUOUS
 62
     1
 10
148.898351087
 20
240.121051412
 30
0.0
 40
0.8463
 50
138.026918328
 51
175.0
  0
LINE
  8
0
  6
CONTINUOUS
 62
     1
 10
148.977227559
 20
239.677670543
 30
0.0
 11
148.269161642
 21
240.687041105
 31
0.0
  0
ARC
  8
0
  6
CONTINUOUS
 62
     1
 10
150.22178563
 20
240.121051412
 30
0.0
 40
0.8463
 50
355.0
 51
38.377535299
  0
ARC
  8
0
  6
CONTINUOUS
 62
     1
 10
150.22178563
 20
240.121051412
 30
0.0
 40
0.8463
 50
53.660187666
 51
90.0
  0
LINE
  8
0
  6
CONTINUOUS
 62
     1
 10
150.09354098
 20
240.000151412
 30
0.0
 11
150.723280194
 21
240.802760216
 31
0.0
  0
ARC
  8
0
  6
CONTINUOUS
 62
     1
 10
148.898351087
 20
240.121051412
 30
0.0
 40
0.8463
 50
90.0
 51
123.814454226
  0
LINE
  8
0
  6
CONTINUOUS
 62
     1
 10
149.00544098
 20
240.000151412
 30
0.0
 11
148.427380708
 21
240.824194778
 31
0.0
  0
LINE
  8
0
  6
CONTINUOUS
 62
     1
 10
148.487149387
 20
234.076051412
 30
0.0
 11
147.779095183
 21
233.33867386
 31
0.0
  0
ARC
  8
0
  6
CONTINUOUS
 62
     1
 10
148.358904736
 20
233.955151412
 30
0.0
 40
0.8463
 50
227.326829743
 51
270.0
  0
ARC
  8
0
  6
CONTINUOUS
 62
     1
 10
148.358904736
 20
233.955151412
 30
0.0
 40
0.8463
 50
175.0
 51
209.51490551
  0
LINE
  8
0
  6
CONTINUOUS
 62
     1
 10
148.522062529
 20
234.475110446
 30
0.0
 11
147.622431151
 21
233.538221745
 31
0.0
  0
LINE
  8
0
  6
CONTINUOUS
 62
     1
 10
149.575249387
 20
234.076051412
 30
0.0
 11
150.17307901
 21
233.265660146
 31
0.0
  0
ARC
  8
0
  6
CONTINUOUS
 62
     1
 10
149.68233928
 20
233.955151412
 30
0.0
 40
0.8463
 50
270.0
 51
305.441046464
  0
LINE
  8
0
  6
CONTINUOUS
 62
     1
 10
149.603617222
 20
234.400297238
 30
0.0
 11
150.332059514
 21
233.412853241
 31
0.0
  0
ARC
  8
0
  6
CONTINUOUS
 62
     1
 10
149.68233928
 20
233.955151412
 30
0.0
 40
0.8463
 50
320.149459061
 51
355.0
  0
LINE
  8
0
  6
CONTINUOUS
 62
     1
 10
148.487149387
 20
234.076051412
 30
0.0
 11
149.575249387
 21
234.076051412
 31
0.0
  0
LINE
  8
0
  6
CONTINUOUS
 62
     1
 10
148.358904736
 20
233.108851412
 30
0.0
 11
149.68233928
 21
233.108851412
 31
0.0
  0
LINE
  8
0
  6
CONTINUOUS
 62
     1
 10
150.778995487
 20
236.779785697
 30
0.0
 11
150.525418852
 21
233.881391507
 31
0.0
  0
LINE
  8
0
  6
CONTINUOUS
 62
     1
 10
150.712356278
 20
236.833097065
 30
0.0
 11
150.778995487
 21
236.779785697
 31
0.0
  0
LINE
  8
0
  6
CONTINUOUS
 62
     1
 10
147.515825164
 20
234.028911317
 30
0.0
 11
147.757567207
 21
236.792035521
 31
0.0
  0
LINE
  8
0
  6
CONTINUOUS
 62
     1
 10
147.804774372
 20
237.331615891
 30
0.0
 11
148.055271515
 21
240.194811317
 31
0.0
  0
LINE
  8
0
  6
CONTINUOUS
 62
     1
 10
148.703050843
 20
237.521701412
 30
0.0
 11
147.917200843
 21
237.038101412
 31
0.0
  0
LINE
  8
0
  6
CONTINUOUS
 62
     1
 10
148.579089782
 20
236.554501412
 30
0.0
 11
147.917200843
 21
237.038101412
 31
0.0
  0
LINE
  8
0
  6
CONTINUOUS
 62
     1
 10
148.666656082
 20
236.127822307
 30
0.0
 11
147.757567207
 21
236.792035521
 31
0.0
  0
LINE
  8
0
  6
CONTINUOUS
 62
     1
 10
148.666656082
 20
236.127822307
 30
0.0
 11
148.522062529
 21
234.475110446
 31
0.0
  0
LINE
  8
0
  6
CONTINUOUS
 62
     1
 10
149.904719046
 20
237.841906849
 30
0.0
 11
150.712356278
 21
237.195797065
 31
0.0
  0
LINE
  8
0
  6
CONTINUOUS
 62
     1
 10
150.057826491
 20
239.591932947
 30
0.0
 11
150.885231462
 21
240.646468693
 31
0.0
  0
LINE
  8
0
  6
CONTINUOUS
 62
     1
 10
150.057826491
 20
239.591932947
 30
0.0
 11
149.904719046
 21
237.841906849
 31
0.0
  0
CIRCLE
  8
0
  6
CONTINUOUS
 62
     1
 10
151.326580843
 20
233.644438412
 30
0.0
 40
0.41106
  0
LINE
  8
0
  6
CONTINUOUS
 62
     1
 10
151.04
 20
240.04
 30
0.0
 11
150.71
 21
237.2
 31
0.0
  0
LINE
  8
0
  6
CONTINUOUS
 62
     1
 10
149.85
 20
237.52
 30
0.0
 11
150.45
 21
237.03
 31
0.0
  0
LINE
  8
0
  6
CONTINUOUS
 62
     1
 10
150.44
 20
237.03
 30
0.0
 11
149.69
 21
236.55
 31
0.0
  0
LINE
  8
0
  6
CONTINUOUS
 62
     1
 10
147.81
 20
237.34
 30
0.0
 11
148.72
 21
237.92
 31
0.0
  0
LINE
  8
0
  6
CONTINUOUS
 62
     1
 10
148.99
 20
239.67
 30
0.0
 11
148.72
 21
237.92
 31
0.0
  0
LINE
  8
0
  6
CONTINUOUS
 62
     1
 10
150.73
 20
236.84
 30
0.0
 11
149.74
 21
236.18
 31
0.0
  0
LINE
  8
0
  6
CONTINUOUS
 62
     1
 10
149.61
 20
234.38
 30
0.0
 11
149.756436782
 21
236.2
 31
0.0
  0
LINE
  8
0
  6
CONTINUOUS
 62
     1
 10
129.873036
 20
218.988231412
 30
0.0
 11
129.873036
 21
219.894981412
 31
0.0
  0
LINE
  8
0
  6
CONTINUOUS
 62
     1
 10
131.988786
 20
219.894981412
 30
0.0
 11
129.873036
 21
219.894981412
 31
0.0
  0
LINE
  8
0
  6
CONTINUOUS
 62
     1
 10
135.361600843
 20
219.991701412
 30
0.0
 11
134.213050843
 21
219.991701412
 31
0.0
  0
LINE
  8
0
  6
CONTINUOUS
 62
     1
 10
135.180250843
 20
219.024501412
 30
0.0
 11
134.089089782
 21
219.024501412
 31
0.0
  0
LINE
  8
0
  6
CONTINUOUS
 62
     1
 10
134.51544098
 20
222.470151412
 30
0.0
 11
135.60354098
 21
222.470151412
 31
0.0
  0
LINE
  8
0
  6
CONTINUOUS
 62
     1
 10
134.408351087
 20
223.437351412
 30
0.0
 11
135.73178563
 21
223.437351412
 31
0.0
  0
ARC
  8
0
  6
CONTINUOUS
 62
     1
 10
134.408351087
 20
222.591051412
 30
0.0
 40
0.8463
 50
138.026918328
 51
175.0
  0
LINE
  8
0
  6
CONTINUOUS
 62
     1
 10
134.487227559
 20
222.147670543
 30
0.0
 11
133.779161642
 21
223.157041105
 31
0.0
  0
ARC
  8
0
  6
CONTINUOUS
 62
     1
 10
135.73178563
 20
222.591051412
 30
0.0
 40
0.8463
 50
355.0
 51
38.377535299
  0
ARC
  8
0
  6
CONTINUOUS
 62
     1
 10
135.73178563
 20
222.591051412
 30
0.0
 40
0.8463
 50
53.660187666
 51
90.0
  0
LINE
  8
0
  6
CONTINUOUS
 62
     1
 10
135.60354098
 20
222.470151412
 30
0.0
 11
136.233280194
 21
223.272760216
 31
0.0
  0
ARC
  8
0
  6
CONTINUOUS
 62
     1
 10
134.408351087
 20
222.591051412
 30
0.0
 40
0.8463
 50
90.0
 51
123.814454226
  0
LINE
  8
0
  6
CONTINUOUS
 62
     1
 10
134.51544098
 20
222.470151412
 30
0.0
 11
133.937380708
 21
223.294194778
 31
0.0
  0
LINE
  8
0
  6
CONTINUOUS
 62
     1
 10
133.997149387
 20
216.546051412
 30
0.0
 11
133.289095183
 21
215.80867386
 31
0.0
  0
ARC
  8
0
  6
CONTINUOUS
 62
     1
 10
133.868904736
 20
216.425151412
 30
0.0
 40
0.8463
 50
227.326829743
 51
270.0
  0
ARC
  8
0
  6
CONTINUOUS
 62
     1
 10
133.868904736
 20
216.425151412
 30
0.0
 40
0.8463
 50
175.0
 51
209.51490551
  0
LINE
  8
0
  6
CONTINUOUS
 62
     1
 10
134.032062529
 20
216.945110446
 30
0.0
 11
133.132431151
 21
216.008221745
 31
0.0
  0
LINE
  8
0
  6
CONTINUOUS
 62
     1
 10
135.085249387
 20
216.546051412
 30
0.0
 11
135.68307901
 21
215.735660146
 31
0.0
  0
ARC
  8
0
  6
CONTINUOUS
 62
     1
 10
135.19233928
 20
216.425151412
 30
0.0
 40
0.8463
 50
270.0
 51
305.441046464
  0
LINE
  8
0
  6
CONTINUOUS
 62
     1
 10
135.113617222
 20
216.870297238
 30
0.0
 11
135.842059514
 21
215.882853241
 31
0.0
  0
ARC
  8
0
  6
CONTINUOUS
 62
     1
 10
135.19233928
 20
216.425151412
 30
0.0
 40
0.8463
 50
320.149459061
 51
355.0
  0
LINE
  8
0
  6
CONTINUOUS
 62
     1
 10
133.997149387
 20
216.546051412
 30
0.0
 11
135.085249387
 21
216.546051412
 31
0.0
  0
LINE
  8
0
  6
CONTINUOUS
 62
     1
 10
133.868904736
 20
215.578851412
 30
0.0
 11
135.19233928
 21
215.578851412
 31
0.0
  0
LINE
  8
0
  6
CONTINUOUS
 62
     1
 10
136.288995487
 20
219.249785697
 30
0.0
 11
136.035418852
 21
216.351391507
 31
0.0
  0
LINE
  8
0
  6
CONTINUOUS
 62
     1
 10
136.222356278
 20
219.303097065
 30
0.0
 11
136.288995487
 21
219.249785697
 31
0.0
  0
LINE
  8
0
  6
CONTINUOUS
 62
     1
 10
133.025825164
 20
216.498911317
 30
0.0
 11
133.267567207
 21
219.262035521
 31
0.0
  0
LINE
  8
0
  6
CONTINUOUS
 62
     1
 10
133.314774372
 20
219.801615891
 30
0.0
 11
133.565271515
 21
222.664811317
 31
0.0
  0
LINE
  8
0
  6
CONTINUOUS
 62
     1
 10
134.213050843
 20
219.991701412
 30
0.0
 11
133.427200843
 21
219.508101412
 31
0.0
  0
LINE
  8
0
  6
CONTINUOUS
 62
     1
 10
134.089089782
 20
219.024501412
 30
0.0
 11
133.427200843
 21
219.508101412
 31
0.0
  0
LINE
  8
0
  6
CONTINUOUS
 62
     1
 10
134.176656082
 20
218.597822307
 30
0.0
 11
133.267567207
 21
219.262035521
 31
0.0
  0
LINE
  8
0
  6
CONTINUOUS
 62
     1
 10
134.176656082
 20
218.597822307
 30
0.0
 11
134.032062529
 21
216.945110446
 31
0.0
  0
LINE
  8
0
  6
CONTINUOUS
 62
     1
 10
135.414719046
 20
220.311906849
 30
0.0
 11
136.222356278
 21
219.665797065
 31
0.0
  0
LINE
  8
0
  6
CONTINUOUS
 62
     1
 10
135.567826491
 20
222.061932947
 30
0.0
 11
136.395231462
 21
223.116468693
 31
0.0
  0
LINE
  8
0
  6
CONTINUOUS
 62
     1
 10
135.567826491
 20
222.061932947
 30
0.0
 11
135.414719046
 21
220.311906849
 31
0.0
  0
CIRCLE
  8
0
  6
CONTINUOUS
 62
     1
 10
136.836580843
 20
216.114438412
 30
0.0
 40
0.41106
  0
LINE
  8
0
  6
CONTINUOUS
 62
     1
 10
136.55
 20
222.51
 30
0.0
 11
136.22
 21
219.67
 31
0.0
  0
LINE
  8
0
  6
CONTINUOUS
 62
     1
 10
135.36
 20
219.99
 30
0.0
 11
135.96
 21
219.5
 31
0.0
  0
LINE
  8
0
  6
CONTINUOUS
 62
     1
 10
135.95
 20
219.5
 30
0.0
 11
135.2
 21
219.02
 31
0.0
  0
LINE
  8
0
  6
CONTINUOUS
 62
     1
 10
133.32
 20
219.81
 30
0.0
 11
134.23
 21
220.39
 31
0.0
  0
LINE
  8
0
  6
CONTINUOUS
 62
     1
 10
134.5
 20
222.14
 30
0.0
 11
134.23
 21
220.39
 31
0.0
  0
LINE
  8
0
  6
CONTINUOUS
 62
     1
 10
136.24
 20
219.31
 30
0.0
 11
135.25
 21
218.65
 31
0.0
  0
LINE
  8
0
  6
CONTINUOUS
 62
     1
 10
135.12
 20
216.85
 30
0.0
 11
135.266436782
 21
218.67
 31
0.0
  0
LINE
  8
0
  6
CONTINUOUS
 62
     1
 10
131.98
 20
219.89
 30
0.0
 11
131.98
 21
218.98
 31
0.0
  0
LINE
  8
0
  6
CONTINUOUS
 62
     1
 10
131.98
 20
218.98
 30
0.0
 11
129.9
 21
218.98
 31
0.0
  0
LINE
  8
0
  6
CONTINUOUS
 62
     1
 10
140.191600843
 20
219.991701412
 30
0.0
 11
139.043050843
 21
219.991701412
 31
0.0
  0
LINE
  8
0
  6
CONTINUOUS
 62
     1
 10
140.010250843
 20
219.024501412
 30
0.0
 11
138.919089782
 21
219.024501412
 31
0.0
  0
LINE
  8
0
  6
CONTINUOUS
 62
     1
 10
139.34544098
 20
222.470151412
 30
0.0
 11
140.43354098
 21
222.470151412
 31
0.0
  0
LINE
  8
0
  6
CONTINUOUS
 62
     1
 10
139.238351087
 20
223.437351412
 30
0.0
 11
140.56178563
 21
223.437351412
 31
0.0
  0
ARC
  8
0
  6
CONTINUOUS
 62
     1
 10
139.238351087
 20
222.591051412
 30
0.0
 40
0.8463
 50
138.026918328
 51
175.0
  0
LINE
  8
0
  6
CONTINUOUS
 62
     1
 10
139.317227559
 20
222.147670543
 30
0.0
 11
138.609161642
 21
223.157041105
 31
0.0
  0
ARC
  8
0
  6
CONTINUOUS
 62
     1
 10
140.56178563
 20
222.591051412
 30
0.0
 40
0.8463
 50
355.0
 51
38.377535299
  0
ARC
  8
0
  6
CONTINUOUS
 62
     1
 10
140.56178563
 20
222.591051412
 30
0.0
 40
0.8463
 50
53.660187666
 51
90.0
  0
LINE
  8
0
  6
CONTINUOUS
 62
     1
 10
140.43354098
 20
222.470151412
 30
0.0
 11
141.063280194
 21
223.272760216
 31
0.0
  0
ARC
  8
0
  6
CONTINUOUS
 62
     1
 10
139.238351087
 20
222.591051412
 30
0.0
 40
0.8463
 50
90.0
 51
123.814454226
  0
LINE
  8
0
  6
CONTINUOUS
 62
     1
 10
139.34544098
 20
222.470151412
 30
0.0
 11
138.767380708
 21
223.294194778
 31
0.0
  0
LINE
  8
0
  6
CONTINUOUS
 62
     1
 10
138.827149387
 20
216.546051412
 30
0.0
 11
138.119095183
 21
215.80867386
 31
0.0
  0
ARC
  8
0
  6
CONTINUOUS
 62
     1
 10
138.698904736
 20
216.425151412
 30
0.0
 40
0.8463
 50
227.326829743
 51
270.0
  0
ARC
  8
0
  6
CONTINUOUS
 62
     1
 10
138.698904736
 20
216.425151412
 30
0.0
 40
0.8463
 50
175.0
 51
209.51490551
  0
LINE
  8
0
  6
CONTINUOUS
 62
     1
 10
138.862062529
 20
216.945110446
 30
0.0
 11
137.962431151
 21
216.008221745
 31
0.0
  0
LINE
  8
0
  6
CONTINUOUS
 62
     1
 10
139.915249387
 20
216.546051412
 30
0.0
 11
140.51307901
 21
215.735660146
 31
0.0
  0
ARC
  8
0
  6
CONTINUOUS
 62
     1
 10
140.02233928
 20
216.425151412
 30
0.0
 40
0.8463
 50
270.0
 51
305.441046464
  0
LINE
  8
0
  6
CONTINUOUS
 62
     1
 10
139.943617222
 20
216.870297238
 30
0.0
 11
140.672059514
 21
215.882853241
 31
0.0
  0
ARC
  8
0
  6
CONTINUOUS
 62
     1
 10
140.02233928
 20
216.425151412
 30
0.0
 40
0.8463
 50
320.149459061
 51
355.0
  0
LINE
  8
0
  6
CONTINUOUS
 62
     1
 10
138.827149387
 20
216.546051412
 30
0.0
 11
139.915249387
 21
216.546051412
 31
0.0
  0
LINE
  8
0
  6
CONTINUOUS
 62
     1
 10
138.698904736
 20
215.578851412
 30
0.0
 11
140.02233928
 21
215.578851412
 31
0.0
  0
LINE
  8
0
  6
CONTINUOUS
 62
     1
 10
141.118995487
 20
219.249785697
 30
0.0
 11
140.865418852
 21
216.351391507
 31
0.0
  0
LINE
  8
0
  6
CONTINUOUS
 62
     1
 10
141.052356278
 20
219.303097065
 30
0.0
 11
141.118995487
 21
219.249785697
 31
0.0
  0
LINE
  8
0
  6
CONTINUOUS
 62
     1
 10
137.855825164
 20
216.498911317
 30
0.0
 11
138.097567207
 21
219.262035521
 31
0.0
  0
LINE
  8
0
  6
CONTINUOUS
 62
     1
 10
138.144774372
 20
219.801615891
 30
0.0
 11
138.395271515
 21
222.664811317
 31
0.0
  0
LINE
  8
0
  6
CONTINUOUS
 62
     1
 10
139.043050843
 20
219.991701412
 30
0.0
 11
138.257200843
 21
219.508101412
 31
0.0
  0
LINE
  8
0
  6
CONTINUOUS
 62
     1
 10
138.919089782
 20
219.024501412
 30
0.0
 11
138.257200843
 21
219.508101412
 31
0.0
  0
LINE
  8
0
  6
CONTINUOUS
 62
     1
 10
139.006656082
 20
218.597822307
 30
0.0
 11
138.097567207
 21
219.262035521
 31
0.0
  0
LINE
  8
0
  6
CONTINUOUS
 62
     1
 10
139.006656082
 20
218.597822307
 30
0.0
 11
138.862062529
 21
216.945110446
 31
0.0
  0
LINE
  8
0
  6
CONTINUOUS
 62
     1
 10
140.244719046
 20
220.311906849
 30
0.0
 11
141.052356278
 21
219.665797065
 31
0.0
  0
LINE
  8
0
  6
CONTINUOUS
 62
     1
 10
140.397826491
 20
222.061932947
 30
0.0
 11
141.225231462
 21
223.116468693
 31
0.0
  0
LINE
  8
0
  6
CONTINUOUS
 62
     1
 10
140.397826491
 20
222.061932947
 30
0.0
 11
140.244719046
 21
220.311906849
 31
0.0
  0
CIRCLE
  8
0
  6
CONTINUOUS
 62
     1
 10
141.666580843
 20
216.114438412
 30
0.0
 40
0.41106
  0
LINE
  8
0
  6
CONTINUOUS
 62
     1
 10
141.38
 20
222.51
 30
0.0
 11
141.05
 21
219.67
 31
0.0
  0
LINE
  8
0
  6
CONTINUOUS
 62
     1
 10
140.19
 20
219.99
 30
0.0
 11
140.79
 21
219.5
 31
0.0
  0
LINE
  8
0
  6
CONTINUOUS
 62
     1
 10
140.78
 20
219.5
 30
0.0
 11
140.03
 21
219.02
 31
0.0
  0
LINE
  8
0
  6
CONTINUOUS
 62
     1
 10
138.15
 20
219.81
 30
0.0
 11
139.06
 21
220.39
 31
0.0
  0
LINE
  8
0
  6
CONTINUOUS
 62
     1
 10
139.33
 20
222.14
 30
0.0
 11
139.06
 21
220.39
 31
0.0
  0
LINE
  8
0
  6
CONTINUOUS
 62
     1
 10
141.07
 20
219.31
 30
0.0
 11
140.08
 21
218.65
 31
0.0
  0
LINE
  8
0
  6
CONTINUOUS
 62
     1
 10
139.95
 20
216.85
 30
0.0
 11
140.096436782
 21
218.67
 31
0.0
  0
LINE
  8
0
  6
CONTINUOUS
 62
     1
 10
145.021600843
 20
219.991701412
 30
0.0
 11
143.873050843
 21
219.991701412
 31
0.0
  0
LINE
  8
0
  6
CONTINUOUS
 62
     1
 10
144.840250843
 20
219.024501412
 30
0.0
 11
143.749089782
 21
219.024501412
 31
0.0
  0
LINE
  8
0
  6
CONTINUOUS
 62
     1
 10
144.17544098
 20
222.470151412
 30
0.0
 11
145.26354098
 21
222.470151412
 31
0.0
  0
LINE
  8
0
  6
CONTINUOUS
 62
     1
 10
144.068351087
 20
223.437351412
 30
0.0
 11
145.39178563
 21
223.437351412
 31
0.0
  0
ARC
  8
0
  6
CONTINUOUS
 62
     1
 10
144.068351087
 20
222.591051412
 30
0.0
 40
0.8463
 50
138.026918328
 51
175.0
  0
LINE
  8
0
  6
CONTINUOUS
 62
     1
 10
144.147227559
 20
222.147670543
 30
0.0
 11
143.439161642
 21
223.157041105
 31
0.0
  0
ARC
  8
0
  6
CONTINUOUS
 62
     1
 10
145.39178563
 20
222.591051412
 30
0.0
 40
0.8463
 50
355.0
 51
38.377535299
  0
ARC
  8
0
  6
CONTINUOUS
 62
     1
 10
145.39178563
 20
222.591051412
 30
0.0
 40
0.8463
 50
53.660187666
 51
90.0
  0
LINE
  8
0
  6
CONTINUOUS
 62
     1
 10
145.26354098
 20
222.470151412
 30
0.0
 11
145.893280194
 21
223.272760216
 31
0.0
  0
ARC
  8
0
  6
CONTINUOUS
 62
     1
 10
144.068351087
 20
222.591051412
 30
0.0
 40
0.8463
 50
90.0
 51
123.814454226
  0
LINE
  8
0
  6
CONTINUOUS
 62
     1
 10
144.17544098
 20
222.470151412
 30
0.0
 11
143.597380708
 21
223.294194778
 31
0.0
  0
LINE
  8
0
  6
CONTINUOUS
 62
     1
 10
143.657149387
 20
216.546051412
 30
0.0
 11
142.949095183
 21
215.80867386
 31
0.0
  0
ARC
  8
0
  6
CONTINUOUS
 62
     1
 10
143.528904736
 20
216.425151412
 30
0.0
 40
0.8463
 50
227.326829743
 51
270.0
  0
ARC
  8
0
  6
CONTINUOUS
 62
     1
 10
143.528904736
 20
216.425151412
 30
0.0
 40
0.8463
 50
175.0
 51
209.51490551
  0
LINE
  8
0
  6
CONTINUOUS
 62
     1
 10
143.692062529
 20
216.945110446
 30
0.0
 11
142.792431151
 21
216.008221745
 31
0.0
  0
LINE
  8
0
  6
CONTINUOUS
 62
     1
 10
144.745249387
 20
216.546051412
 30
0.0
 11
145.34307901
 21
215.735660146
 31
0.0
  0
ARC
  8
0
  6
CONTINUOUS
 62
     1
 10
144.85233928
 20
216.425151412
 30
0.0
 40
0.8463
 50
270.0
 51
305.441046464
  0
LINE
  8
0
  6
CONTINUOUS
 62
     1
 10
144.773617222
 20
216.870297238
 30
0.0
 11
145.502059514
 21
215.882853241
 31
0.0
  0
ARC
  8
0
  6
CONTINUOUS
 62
     1
 10
144.85233928
 20
216.425151412
 30
0.0
 40
0.8463
 50
320.149459061
 51
355.0
  0
LINE
  8
0
  6
CONTINUOUS
 62
     1
 10
143.657149387
 20
216.546051412
 30
0.0
 11
144.745249387
 21
216.546051412
 31
0.0
  0
LINE
  8
0
  6
CONTINUOUS
 62
     1
 10
143.528904736
 20
215.578851412
 30
0.0
 11
144.85233928
 21
215.578851412
 31
0.0
  0
LINE
  8
0
  6
CONTINUOUS
 62
     1
 10
145.948995487
 20
219.249785697
 30
0.0
 11
145.695418852
 21
216.351391507
 31
0.0
  0
LINE
  8
0
  6
CONTINUOUS
 62
     1
 10
145.882356278
 20
219.303097065
 30
0.0
 11
145.948995487
 21
219.249785697
 31
0.0
  0
LINE
  8
0
  6
CONTINUOUS
 62
     1
 10
142.685825164
 20
216.498911317
 30
0.0
 11
142.927567207
 21
219.262035521
 31
0.0
  0
LINE
  8
0
  6
CONTINUOUS
 62
     1
 10
142.974774372
 20
219.801615891
 30
0.0
 11
143.225271515
 21
222.664811317
 31
0.0
  0
LINE
  8
0
  6
CONTINUOUS
 62
     1
 10
143.873050843
 20
219.991701412
 30
0.0
 11
143.087200843
 21
219.508101412
 31
0.0
  0
LINE
  8
0
  6
CONTINUOUS
 62
     1
 10
143.749089782
 20
219.024501412
 30
0.0
 11
143.087200843
 21
219.508101412
 31
0.0
  0
LINE
  8
0
  6
CONTINUOUS
 62
     1
 10
143.836656082
 20
218.597822307
 30
0.0
 11
142.927567207
 21
219.262035521
 31
0.0
  0
LINE
  8
0
  6
CONTINUOUS
 62
     1
 10
143.836656082
 20
218.597822307
 30
0.0
 11
143.692062529
 21
216.945110446
 31
0.0
  0
LINE
  8
0
  6
CONTINUOUS
 62
     1
 10
145.074719046
 20
220.311906849
 30
0.0
 11
145.882356278
 21
219.665797065
 31
0.0
  0
LINE
  8
0
  6
CONTINUOUS
 62
     1
 10
145.227826491
 20
222.061932947
 30
0.0
 11
146.055231462
 21
223.116468693
 31
0.0
  0
LINE
  8
0
  6
CONTINUOUS
 62
     1
 10
145.227826491
 20
222.061932947
 30
0.0
 11
145.074719046
 21
220.311906849
 31
0.0
  0
CIRCLE
  8
0
  6
CONTINUOUS
 62
     1
 10
146.496580843
 20
216.114438412
 30
0.0
 40
0.41106
  0
LINE
  8
0
  6
CONTINUOUS
 62
     1
 10
146.21
 20
222.51
 30
0.0
 11
145.88
 21
219.67
 31
0.0
  0
LINE
  8
0
  6
CONTINUOUS
 62
     1
 10
145.02
 20
219.99
 30
0.0
 11
145.62
 21
219.5
 31
0.0
  0
LINE
  8
0
  6
CONTINUOUS
 62
     1
 10
145.61
 20
219.5
 30
0.0
 11
144.86
 21
219.02
 31
0.0
  0
LINE
  8
0
  6
CONTINUOUS
 62
     1
 10
142.98
 20
219.81
 30
0.0
 11
143.89
 21
220.39
 31
0.0
  0
LINE
  8
0
  6
CONTINUOUS
 62
     1
 10
144.16
 20
222.14
 30
0.0
 11
143.89
 21
220.39
 31
0.0
  0
LINE
  8
0
  6
CONTINUOUS
 62
     1
 10
145.9
 20
219.31
 30
0.0
 11
144.91
 21
218.65
 31
0.0
  0
LINE
  8
0
  6
CONTINUOUS
 62
     1
 10
144.78
 20
216.85
 30
0.0
 11
144.926436782
 21
218.67
 31
0.0
  0
LINE
  8
0
  6
CONTINUOUS
 62
     1
 10
149.851600843
 20
219.991701412
 30
0.0
 11
148.703050843
 21
219.991701412
 31
0.0
  0
LINE
  8
0
  6
CONTINUOUS
 62
     1
 10
149.670250843
 20
219.024501412
 30
0.0
 11
148.579089782
 21
219.024501412
 31
0.0
  0
LINE
  8
0
  6
CONTINUOUS
 62
     1
 10
149.00544098
 20
222.470151412
 30
0.0
 11
150.09354098
 21
222.470151412
 31
0.0
  0
LINE
  8
0
  6
CONTINUOUS
 62
     1
 10
148.898351087
 20
223.437351412
 30
0.0
 11
150.22178563
 21
223.437351412
 31
0.0
  0
ARC
  8
0
  6
CONTINUOUS
 62
     1
 10
148.898351087
 20
222.591051412
 30
0.0
 40
0.8463
 50
138.026918328
 51
175.0
  0
LINE
  8
0
  6
CONTINUOUS
 62
     1
 10
148.977227559
 20
222.147670543
 30
0.0
 11
148.269161642
 21
223.157041105
 31
0.0
  0
ARC
  8
0
  6
CONTINUOUS
 62
     1
 10
150.22178563
 20
222.591051412
 30
0.0
 40
0.8463
 50
355.0
 51
38.377535299
  0
ARC
  8
0
  6
CONTINUOUS
 62
     1
 10
150.22178563
 20
222.591051412
 30
0.0
 40
0.8463
 50
53.660187666
 51
90.0
  0
LINE
  8
0
  6
CONTINUOUS
 62
     1
 10
150.09354098
 20
222.470151412
 30
0.0
 11
150.723280194
 21
223.272760216
 31
0.0
  0
ARC
  8
0
  6
CONTINUOUS
 62
     1
 10
148.898351087
 20
222.591051412
 30
0.0
 40
0.8463
 50
90.0
 51
123.814454226
  0
LINE
  8
0
  6
CONTINUOUS
 62
     1
 10
149.00544098
 20
222.470151412
 30
0.0
 11
148.427380708
 21
223.294194778
 31
0.0
  0
LINE
  8
0
  6
CONTINUOUS
 62
     1
 10
148.487149387
 20
216.546051412
 30
0.0
 11
147.779095183
 21
215.80867386
 31
0.0
  0
ARC
  8
0
  6
CONTINUOUS
 62
     1
 10
148.358904736
 20
216.425151412
 30
0.0
 40
0.8463
 50
227.326829743
 51
270.0
  0
ARC
  8
0
  6
CONTINUOUS
 62
     1
 10
148.358904736
 20
216.425151412
 30
0.0
 40
0.8463
 50
175.0
 51
209.51490551
  0
LINE
  8
0
  6
CONTINUOUS
 62
     1
 10
148.522062529
 20
216.945110446
 30
0.0
 11
147.622431151
 21
216.008221745
 31
0.0
  0
LINE
  8
0
  6
CONTINUOUS
 62
     1
 10
149.575249387
 20
216.546051412
 30
0.0
 11
150.17307901
 21
215.735660146
 31
0.0
  0
ARC
  8
0
  6
CONTINUOUS
 62
     1
 10
149.68233928
 20
216.425151412
 30
0.0
 40
0.8463
 50
270.0
 51
305.441046464
  0
LINE
  8
0
  6
CONTINUOUS
 62
     1
 10
149.603617222
 20
216.870297238
 30
0.0
 11
150.332059514
 21
215.882853241
 31
0.0
  0
ARC
  8
0
  6
CONTINUOUS
 62
     1
 10
149.68233928
 20
216.425151412
 30
0.0
 40
0.8463
 50
320.149459061
 51
355.0
  0
LINE
  8
0
  6
CONTINUOUS
 62
     1
 10
148.487149387
 20
216.546051412
 30
0.0
 11
149.575249387
 21
216.546051412
 31
0.0
  0
LINE
  8
0
  6
CONTINUOUS
 62
     1
 10
148.358904736
 20
215.578851412
 30
0.0
 11
149.68233928
 21
215.578851412
 31
0.0
  0
LINE
  8
0
  6
CONTINUOUS
 62
     1
 10
150.778995487
 20
219.249785697
 30
0.0
 11
150.525418852
 21
216.351391507
 31
0.0
  0
LINE
  8
0
  6
CONTINUOUS
 62
     1
 10
150.712356278
 20
219.303097065
 30
0.0
 11
150.778995487
 21
219.249785697
 31
0.0
  0
LINE
  8
0
  6
CONTINUOUS
 62
     1
 10
147.515825164
 20
216.498911317
 30
0.0
 11
147.757567207
 21
219.262035521
 31
0.0
  0
LINE
  8
0
  6
CONTINUOUS
 62
     1
 10
147.804774372
 20
219.801615891
 30
0.0
 11
148.055271515
 21
222.664811317
 31
0.0
  0
LINE
  8
0
  6
CONTINUOUS
 62
     1
 10
148.703050843
 20
219.991701412
 30
0.0
 11
147.917200843
 21
219.508101412
 31
0.0
  0
LINE
  8
0
  6
CONTINUOUS
 62
     1
 10
148.579089782
 20
219.024501412
 30
0.0
 11
147.917200843
 21
219.508101412
 31
0.0
  0
LINE
  8
0
  6
CONTINUOUS
 62
     1
 10
148.666656082
 20
218.597822307
 30
0.0
 11
147.757567207
 21
219.262035521
 31
0.0
  0
LINE
  8
0
  6
CONTINUOUS
 62
     1
 10
148.666656082
 20
218.597822307
 30
0.0
 11
148.522062529
 21
216.945110446
 31
0.0
  0
LINE
  8
0
  6
CONTINUOUS
 62
     1
 10
149.904719046
 20
220.311906849
 30
0.0
 11
150.712356278
 21
219.665797065
 31
0.0
  0
LINE
  8
0
  6
CONTINUOUS
 62
     1
 10
150.057826491
 20
222.061932947
 30
0.0
 11
150.885231462
 21
223.116468693
 31
0.0
  0
LINE
  8
0
  6
CONTINUOUS
 62
     1
 10
150.057826491
 20
222.061932947
 30
0.0
 11
149.904719046
 21
220.311906849
 31
0.0
  0
CIRCLE
  8
0
  6
CONTINUOUS
 62
     1
 10
151.326580843
 20
216.114438412
 30
0.0
 40
0.41106
  0
LINE
  8
0
  6
CONTINUOUS
 62
     1
 10
151.04
 20
222.51
 30
0.0
 11
150.71
 21
219.67
 31
0.0
  0
LINE
  8
0
  6
CONTINUOUS
 62
     1
 10
149.85
 20
219.99
 30
0.0
 11
150.45
 21
219.5
 31
0.0
  0
LINE
  8
0
  6
CONTINUOUS
 62
     1
 10
150.44
 20
219.5
 30
0.0
 11
149.69
 21
219.02
 31
0.0
  0
LINE
  8
0
  6
CONTINUOUS
 62
     1
 10
147.81
 20
219.81
 30
0.0
 11
148.72
 21
220.39
 31
0.0
  0
LINE
  8
0
  6
CONTINUOUS
 62
     1
 10
148.99
 20
222.14
 30
0.0
 11
148.72
 21
220.39
 31
0.0
  0
LINE
  8
0
  6
CONTINUOUS
 62
     1
 10
150.73
 20
219.31
 30
0.0
 11
149.74
 21
218.65
 31
0.0
  0
LINE
  8
0
  6
CONTINUOUS
 62
     1
 10
149.61
 20
216.85
 30
0.0
 11
149.756436782
 21
218.67
 31
0.0
  0
LINE
  8
0
  6
CONTINUOUS
 62
     1
 10
140.115980072
 20
113.454689618
 30
0.0
 11
109.105880143
 21
113.454689618
 31
0.0
  0
LINE
  8
0
  6
CONTINUOUS
 62
     1
 10
76.877095064
 20
113.454689618
 30
0.0
 11
109.105880143
 21
113.454689618
 31
0.0
  0
LINE
  8
0
  6
CONTINUOUS
 62
     1
 10
162.422773568
 20
165.735718418
 30
0.0
 11
164.250781568
 21
165.735718418
 31
0.0
  0
ARC
  8
0
  6
CONTINUOUS
 62
     1
 10
51.218953568
 20
112.723486418
 30
0.0
 40
1.218672
 50
180.0
 51
270.0
  0
LINE
  8
0
  6
CONTINUOUS
 62
     1
 10
50.000281568
 20
168.782398418
 30
0.0
 11
50.000281568
 21
112.723486418
 31
0.0
  0
ARC
  8
0
  6
CONTINUOUS
 62
     1
 10
51.218953568
 20
168.782398418
 30
0.0
 40
1.218672
 50
90.0
 51
180.0
  0
LINE
  8
0
  6
CONTINUOUS
 62
     1
 10
165.774121568
 20
170.001070418
 30
0.0
 11
51.218953568
 21
170.001070418
 31
0.0
  0
ARC
  8
0
  6
CONTINUOUS
 62
     1
 10
165.774121568
 20
168.782398418
 30
0.0
 40
1.218672
 50
0.0
 51
90.0
  0
LINE
  8
0
  6
CONTINUOUS
 62
     1
 10
166.992793568
 20
112.723486418
 30
0.0
 11
166.992793568
 21
168.782398418
 31
0.0
  0
LINE
  8
0
  6
CONTINUOUS
 62
     1
 10
51.218953568
 20
111.504814418
 30
0.0
 11
165.774121568
 21
111.504814418
 31
0.0
  0
ARC
  8
0
  6
CONTINUOUS
 62
     1
 10
165.774121568
 20
112.723486418
 30
0.0
 40
1.218672
 50
270.0
 51
0.0
  0
LINE
  8
0
  6
CONTINUOUS
 62
     1
 10
140.115980072
 20
168.051195218
 30
0.0
 11
109.105880143
 21
168.051195218
 31
0.0
  0
LINE
  8
0
  6
CONTINUOUS
 62
     1
 10
76.877095064
 20
168.051195218
 30
0.0
 11
109.105880143
 21
168.051195218
 31
0.0
  0
ARC
  8
0
  6
CONTINUOUS
 62
     1
 10
164.007047168
 20
167.807460818
 30
0.0
 40
0.2437344
 50
0.0
 51
90.0
  0
ARC
  8
0
  6
CONTINUOUS
 62
     1
 10
163.951161788
 20
167.685593618
 30
0.0
 40
0.3656016
 50
90.0
 51
170.537427171
  0
ARC
  8
0
  6
CONTINUOUS
 62
     1
 10
161.952437869
 20
167.685593618
 30
0.0
 40
0.3656016
 50
11.309932474
 51
90.0
  0
LINE
  8
0
  6
CONTINUOUS
 62
     1
 10
163.397711168
 20
166.588788818
 30
0.0
 11
162.544640768
 21
166.588788818
 31
0.0
  0
LINE
  8
0
  6
CONTINUOUS
 62
     1
 10
162.544640768
 20
166.588788818
 30
0.0
 11
162.310939734
 21
167.75729399
 31
0.0
  0
LINE
  8
0
  6
CONTINUOUS
 62
     1
 10
163.907400054
 20
168.051195218
 30
0.0
 11
164.007047168
 21
168.051195218
 31
0.0
  0
LINE
  8
0
  6
CONTINUOUS
 62
     1
 10
163.397711168
 20
166.588788818
 30
0.0
 11
163.597781885
 21
167.789180738
 31
0.0
  0
LINE
  8
0
  6
CONTINUOUS
 62
     1
 10
163.951161788
 20
168.051195218
 30
0.0
 11
140.115980072
 21
168.051195218
 31
0.0
  0
LINE
  8
0
  6
CONTINUOUS
 62
     1
 10
164.250781568
 20
140.752942418
 30
0.0
 11
164.250781568
 21
167.807460818
 31
0.0
  0
ARC
  8
0
  6
CONTINUOUS
 62
     1
 10
161.952437869
 20
113.820291218
 30
0.0
 40
0.3656016
 50
270.0
 51
348.690067526
  0
LINE
  8
0
  6
CONTINUOUS
 62
     1
 10
163.397711168
 20
114.917096018
 30
0.0
 11
162.544640768
 21
114.917096018
 31
0.0
  0
LINE
  8
0
  6
CONTINUOUS
 62
     1
 10
162.544640768
 20
114.917096018
 30
0.0
 11
162.310939734
 21
113.748590845
 31
0.0
  0
LINE
  8
0
  6
CONTINUOUS
 62
     1
 10
163.907400054
 20
113.454689618
 30
0.0
 11
164.007047168
 21
113.454689618
 31
0.0
  0
LINE
  8
0
  6
CONTINUOUS
 62
     1
 10
163.397711168
 20
114.917096018
 30
0.0
 11
163.597781885
 21
113.716704098
 31
0.0
  0
LINE
  8
0
  6
CONTINUOUS
 62
     1
 10
164.250781568
 20
140.752942418
 30
0.0
 11
164.250781568
 21
113.698424018
 31
0.0
  0
ARC
  8
0
  6
CONTINUOUS
 62
     1
 10
164.007047168
 20
113.698424018
 30
0.0
 40
0.2437344
 50
270.0
 51
0.0
  0
LINE
  8
0
  6
CONTINUOUS
 62
     1
 10
163.951161788
 20
113.454689618
 30
0.0
 11
140.115980072
 21
113.454689618
 31
0.0
  0
ARC
  8
0
  6
CONTINUOUS
 62
     1
 10
163.951161788
 20
113.820291218
 30
0.0
 40
0.3656016
 50
189.462572829
 51
270.0
  0
LINE
  8
0
  6
CONTINUOUS
 62
     1
 10
162.422773568
 20
115.770166418
 30
0.0
 11
164.250781568
 21
115.770166418
 31
0.0
  0
ARC
  8
0
  6
CONTINUOUS
 62
     1
 10
52.986027968
 20
167.807460818
 30
0.0
 40
0.2437344
 50
90.0
 51
180.0
  0
ARC
  8
0
  6
CONTINUOUS
 62
     1
 10
53.041913348
 20
167.685593618
 30
0.0
 40
0.3656016
 50
9.462572829
 51
90.0
  0
ARC
  8
0
  6
CONTINUOUS
 62
     1
 10
55.040637267
 20
167.685593618
 30
0.0
 40
0.3656016
 50
90.0
 51
168.690067526
  0
LINE
  8
0
  6
CONTINUOUS
 62
     1
 10
53.595363968
 20
166.588788818
 30
0.0
 11
54.448434368
 21
166.588788818
 31
0.0
  0
LINE
  8
0
  6
CONTINUOUS
 62
     1
 10
54.448434368
 20
166.588788818
 30
0.0
 11
54.682135402
 21
167.75729399
 31
0.0
  0
LINE
  8
0
  6
CONTINUOUS
 62
     1
 10
53.085675082
 20
168.051195218
 30
0.0
 11
52.986027968
 21
168.051195218
 31
0.0
  0
LINE
  8
0
  6
CONTINUOUS
 62
     1
 10
53.595363968
 20
166.588788818
 30
0.0
 11
53.395293251
 21
167.789180738
 31
0.0
  0
LINE
  8
0
  6
CONTINUOUS
 62
     1
 10
53.041913348
 20
168.051195218
 30
0.0
 11
76.877095064
 21
168.051195218
 31
0.0
  0
LINE
  8
0
  6
CONTINUOUS
 62
     1
 10
52.742293568
 20
140.752942418
 30
0.0
 11
52.742293568
 21
167.807460818
 31
0.0
  0
LINE
  8
0
  6
CONTINUOUS
 62
     1
 10
52.742293568
 20
115.770166418
 30
0.0
 11
54.570301568
 21
115.770166418
 31
0.0
  0
LINE
  8
0
  6
CONTINUOUS
 62
     1
 10
54.570301568
 20
115.770166418
 30
0.0
 11
52.742293568
 21
115.770166418
 31
0.0
  0
ARC
  8
0
  6
CONTINUOUS
 62
     1
 10
52.986027968
 20
113.698424018
 30
0.0
 40
0.2437344
 50
180.0
 51
270.0
  0
ARC
  8
0
  6
CONTINUOUS
 62
     1
 10
53.041913348
 20
113.820291218
 30
0.0
 40
0.3656016
 50
270.0
 51
350.537427171
  0
ARC
  8
0
  6
CONTINUOUS
 62
     1
 10
55.040637267
 20
113.820291218
 30
0.0
 40
0.3656016
 50
191.309932474
 51
270.0
  0
LINE
  8
0
  6
CONTINUOUS
 62
     1
 10
53.595363968
 20
114.917096018
 30
0.0
 11
54.448434368
 21
114.917096018
 31
0.0
  0
LINE
  8
0
  6
CONTINUOUS
 62
     1
 10
54.448434368
 20
114.917096018
 30
0.0
 11
54.682135402
 21
113.748590845
 31
0.0
  0
LINE
  8
0
  6
CONTINUOUS
 62
     1
 10
53.085675082
 20
113.454689618
 30
0.0
 11
52.986027968
 21
113.454689618
 31
0.0
  0
LINE
  8
0
  6
CONTINUOUS
 62
     1
 10
53.595363968
 20
114.917096018
 30
0.0
 11
53.395293251
 21
113.716704098
 31
0.0
  0
LINE
  8
0
  6
CONTINUOUS
 62
     1
 10
52.742293568
 20
140.752942418
 30
0.0
 11
52.742293568
 21
113.698424018
 31
0.0
  0
LINE
  8
0
  6
CONTINUOUS
 62
     1
 10
52.986027968
 20
113.454689618
 30
0.0
 11
76.877095064
 21
113.454689618
 31
0.0
  0
LINE
  8
0
  6
CONTINUOUS
 62
     1
 10
52.742293568
 20
165.735718418
 30
0.0
 11
54.570301568
 21
165.735718418
 31
0.0
  0
LINE
  8
0
  6
CONTINUOUS
 62
     1
 10
54.570301568
 20
165.735718418
 30
0.0
 11
52.742293568
 21
165.735718418
 31
0.0
  0
LINE
  8
0
  6
CONTINUOUS
 62
     1
 10
67.914759968
 20
167.076257618
 30
0.0
 11
72.850381568
 21
167.076257618
 31
0.0
  0
LINE
  8
0
  6
CONTINUOUS
 62
     1
 10
58.713786368
 20
167.076257618
 30
0.0
 11
72.850381568
 21
167.076257618
 31
0.0
  0
LINE
  8
0
  6
CONTINUOUS
 62
     1
 10
58.713786368
 20
116.257635218
 30
0.0
 11
58.713786368
 21
116.379502418
 31
0.0
  0
LINE
  8
0
  6
CONTINUOUS
 62
     1
 10
67.914759968
 20
114.429627218
 30
0.0
 11
72.850381568
 21
114.429627218
 31
0.0
  0
LINE
  8
0
  6
CONTINUOUS
 62
     1
 10
58.713786368
 20
114.429627218
 30
0.0
 11
72.850381568
 21
114.429627218
 31
0.0
  0
POINT
  8
0
  6
CONTINUOUS
 62
     1
 10
62.796337568
 20
114.429627218
 30
0.0
  0
LINE
  8
0
  6
CONTINUOUS
 62
     1
 10
78.334405568
 20
162.993706418
 30
0.0
 11
78.334405568
 21
144.104290418
 31
0.0
  0
ARC
  8
0
  6
CONTINUOUS
 62
     1
 10
76.506397568
 20
161.165698418
 30
0.0
 40
0.609336
 50
0.0
 51
90.0
  0
ARC
  8
0
  6
CONTINUOUS
 62
     1
 10
76.506397568
 20
145.932298418
 30
0.0
 40
0.609336
 50
270.0
 51
0.0
  0
LINE
  8
0
  6
CONTINUOUS
 62
     1
 10
80.314747568
 20
165.248249618
 30
0.0
 11
80.314747568
 21
162.567171218
 31
0.0
  0
LINE
  8
0
  6
CONTINUOUS
 62
     1
 10
74.586989168
 20
166.345054418
 30
0.0
 11
79.949145968
 21
166.345054418
 31
0.0
  0
LINE
  8
0
  6
CONTINUOUS
 62
     1
 10
80.314747568
 20
116.257635218
 30
0.0
 11
80.314747568
 21
162.567171218
 31
0.0
  0
LINE
  8
0
  6
CONTINUOUS
 62
     1
 10
74.586989168
 20
115.160830418
 30
0.0
 11
79.949145968
 21
115.160830418
 31
0.0
  0
LINE
  8
0
  6
CONTINUOUS
 62
     1
 10
79.949145968
 20
115.160830418
 30
0.0
 11
74.586989168
 21
115.160830418
 31
0.0
  0
LINE
  8
0
  6
CONTINUOUS
 62
     1
 10
56.032707968
 20
166.345054418
 30
0.0
 11
57.495114368
 21
166.345054418
 31
0.0
  0
LINE
  8
0
  6
CONTINUOUS
 62
     1
 10
56.032707968
 20
115.160830418
 30
0.0
 11
57.495114368
 21
115.160830418
 31
0.0
  0
LINE
  8
0
  6
CONTINUOUS
 62
     1
 10
76.506397568
 20
154.767670418
 30
0.0
 11
74.190920768
 21
154.767670418
 31
0.0
  0
LINE
  8
0
  6
CONTINUOUS
 62
     1
 10
76.536864368
 20
152.330326418
 30
0.0
 11
74.221387568
 21
152.330326418
 31
0.0
  0
LINE
  8
0
  6
CONTINUOUS
 62
     1
 10
77.115733568
 20
161.165698418
 30
0.0
 11
77.115733568
 21
155.377008061
 31
0.0
  0
ARC
  8
0
  6
CONTINUOUS
 62
     1
 10
76.506397568
 20
155.377006418
 30
0.0
 40
0.609336
 50
270.0
 51
0.00015455
  0
ARC
  8
0
  6
CONTINUOUS
 62
     1
 10
76.536864368
 20
151.720990418
 30
0.0
 40
0.609336
 50
18.194872339
 51
90.0
  0
LINE
  8
0
  6
CONTINUOUS
 62
     1
 10
77.115733568
 20
151.911255523
 30
0.0
 11
77.115733568
 21
145.932298418
 31
0.0
  0
LINE
  8
0
  6
CONTINUOUS
 62
     1
 10
76.506397568
 20
154.767670418
 30
0.0
 11
73.977653168
 21
154.767670418
 31
0.0
  0
LINE
  8
0
  6
CONTINUOUS
 62
     1
 10
76.536864368
 20
152.330326418
 30
0.0
 11
73.977653168
 21
152.330326418
 31
0.0
  0
LINE
  8
0
  6
CONTINUOUS
 62
     1
 10
73.977653168
 20
165.248249618
 30
0.0
 11
80.314747568
 21
165.248249618
 31
0.0
  0
LINE
  8
0
  6
CONTINUOUS
 62
     1
 10
73.977653168
 20
162.993706418
 30
0.0
 11
73.977653168
 21
165.248249618
 31
0.0
  0
LINE
  8
0
  6
CONTINUOUS
 62
     1
 10
73.977653168
 20
116.257635218
 30
0.0
 11
80.314747568
 21
116.257635218
 31
0.0
  0
LINE
  8
0
  6
CONTINUOUS
 62
     1
 10
81.167817968
 20
167.929328018
 30
0.0
 11
64.319677568
 21
167.929328018
 31
0.0
  0
LINE
  8
0
  6
CONTINUOUS
 62
     1
 10
64.319677568
 20
167.929328018
 30
0.0
 11
54.935903168
 21
167.929328018
 31
0.0
  0
LINE
  8
0
  6
CONTINUOUS
 62
     1
 10
54.935903168
 20
167.929328018
 30
0.0
 11
54.570301568
 21
166.588788818
 31
0.0
  0
ARC
  8
0
  6
CONTINUOUS
 62
     1
 10
81.167817968
 20
167.563726418
 30
0.0
 40
0.3656016
 50
0.0
 51
90.0
  0
LINE
  8
0
  6
CONTINUOUS
 62
     1
 10
81.533419568
 20
114.124959218
 30
0.0
 11
81.533419568
 21
167.563726418
 31
0.0
  0
LINE
  8
0
  6
CONTINUOUS
 62
     1
 10
57.495114368
 20
166.345054418
 30
0.0
 11
57.495114368
 21
167.929328018
 31
0.0
  0
LINE
  8
0
  6
CONTINUOUS
 62
     1
 10
56.032707968
 20
167.929328018
 30
0.0
 11
56.032707968
 21
166.345054418
 31
0.0
  0
LINE
  8
0
  6
CONTINUOUS
 62
     1
 10
74.586989168
 20
166.345054418
 30
0.0
 11
74.586989168
 21
167.929328018
 31
0.0
  0
LINE
  8
0
  6
CONTINUOUS
 62
     1
 10
79.949145968
 20
166.345054418
 30
0.0
 11
79.949145968
 21
167.929328018
 31
0.0
  0
LINE
  8
0
  6
CONTINUOUS
 62
     1
 10
64.319677568
 20
113.576556818
 30
0.0
 11
54.935903168
 21
113.576556818
 31
0.0
  0
LINE
  8
0
  6
CONTINUOUS
 62
     1
 10
81.167817968
 20
113.576556818
 30
0.0
 11
64.319677568
 21
113.576556818
 31
0.0
  0
ARC
  8
0
  6
CONTINUOUS
 62
     1
 10
81.167817968
 20
113.942158418
 30
0.0
 40
0.3656016
 50
270.0
 51
0.0
  0
LINE
  8
0
  6
CONTINUOUS
 62
     1
 10
81.533419568
 20
113.942158418
 30
0.0
 11
81.533419568
 21
167.380925618
 31
0.0
  0
LINE
  8
0
  6
CONTINUOUS
 62
     1
 10
79.949145968
 20
115.160830418
 30
0.0
 11
79.949145968
 21
113.576556818
 31
0.0
  0
LINE
  8
0
  6
CONTINUOUS
 62
     1
 10
74.586989168
 20
115.160830418
 30
0.0
 11
74.586989168
 21
113.576556818
 31
0.0
  0
LINE
  8
0
  6
CONTINUOUS
 62
     1
 10
57.495114368
 20
115.160830418
 30
0.0
 11
57.495114368
 21
113.576556818
 31
0.0
  0
LINE
  8
0
  6
CONTINUOUS
 62
     1
 10
56.032707968
 20
113.576556818
 30
0.0
 11
56.032707968
 21
115.160830418
 31
0.0
  0
LINE
  8
0
  6
CONTINUOUS
 62
     1
 10
54.935903168
 20
113.576556818
 30
0.0
 11
54.570301568
 21
114.917096018
 31
0.0
  0
LINE
  8
0
  6
CONTINUOUS
 62
     1
 10
54.570301568
 20
114.917096018
 30
0.0
 11
54.570301568
 21
166.588788818
 31
0.0
  0
LINE
  8
0
  6
CONTINUOUS
 62
     1
 10
74.404188368
 20
162.993706418
 30
0.0
 11
74.404188368
 21
161.409432818
 31
0.0
  0
LINE
  8
0
  6
CONTINUOUS
 62
     1
 10
72.850381568
 20
161.409432818
 30
0.0
 11
74.404188368
 21
161.409432818
 31
0.0
  0
LINE
  8
0
  6
CONTINUOUS
 62
     1
 10
149.078315168
 20
114.429627218
 30
0.0
 11
144.142693568
 21
114.429627218
 31
0.0
  0
LINE
  8
0
  6
CONTINUOUS
 62
     1
 10
158.279288768
 20
114.429627218
 30
0.0
 11
144.142693568
 21
114.429627218
 31
0.0
  0
LINE
  8
0
  6
CONTINUOUS
 62
     1
 10
158.279288768
 20
165.248249618
 30
0.0
 11
158.279288768
 21
165.126382418
 31
0.0
  0
LINE
  8
0
  6
CONTINUOUS
 62
     1
 10
149.078315168
 20
167.076257618
 30
0.0
 11
144.142693568
 21
167.076257618
 31
0.0
  0
LINE
  8
0
  6
CONTINUOUS
 62
     1
 10
158.279288768
 20
167.076257618
 30
0.0
 11
144.142693568
 21
167.076257618
 31
0.0
  0
POINT
  8
0
  6
CONTINUOUS
 62
     1
 10
154.196737568
 20
167.076257618
 30
0.0
  0
LINE
  8
0
  6
CONTINUOUS
 62
     1
 10
158.279288768
 20
167.076257618
 30
0.0
 11
158.279288768
 21
114.429627218
 31
0.0
  0
LINE
  8
0
  6
CONTINUOUS
 62
     1
 10
144.142693568
 20
140.752942418
 30
0.0
 11
144.142693568
 21
114.429627218
 31
0.0
  0
LINE
  8
0
  6
CONTINUOUS
 62
     1
 10
138.658669568
 20
118.512178418
 30
0.0
 11
138.658669568
 21
137.401594418
 31
0.0
  0
LINE
  8
0
  6
CONTINUOUS
 62
     1
 10
144.142693568
 20
167.076257618
 30
0.0
 11
144.142693568
 21
140.752942418
 31
0.0
  0
ARC
  8
0
  6
CONTINUOUS
 62
     1
 10
140.486677568
 20
120.340186418
 30
0.0
 40
0.609336
 50
180.0
 51
270.0
  0
ARC
  8
0
  6
CONTINUOUS
 62
     1
 10
140.486677568
 20
135.573586418
 30
0.0
 40
0.609336
 50
90.0
 51
180.0
  0
LINE
  8
0
  6
CONTINUOUS
 62
     1
 10
136.678327568
 20
116.257635218
 30
0.0
 11
136.678327568
 21
118.938713618
 31
0.0
  0
LINE
  8
0
  6
CONTINUOUS
 62
     1
 10
142.406085968
 20
115.160830418
 30
0.0
 11
137.043929168
 21
115.160830418
 31
0.0
  0
LINE
  8
0
  6
CONTINUOUS
 62
     1
 10
136.678327568
 20
165.248249618
 30
0.0
 11
136.678327568
 21
118.938713618
 31
0.0
  0
LINE
  8
0
  6
CONTINUOUS
 62
     1
 10
142.406085968
 20
166.345054418
 30
0.0
 11
137.043929168
 21
166.345054418
 31
0.0
  0
LINE
  8
0
  6
CONTINUOUS
 62
     1
 10
137.043929168
 20
166.345054418
 30
0.0
 11
142.406085968
 21
166.345054418
 31
0.0
  0
LINE
  8
0
  6
CONTINUOUS
 62
     1
 10
160.960367168
 20
115.160830418
 30
0.0
 11
159.497960768
 21
115.160830418
 31
0.0
  0
LINE
  8
0
  6
CONTINUOUS
 62
     1
 10
160.960367168
 20
166.345054418
 30
0.0
 11
159.497960768
 21
166.345054418
 31
0.0
  0
ARC
  8
0
  6
CONTINUOUS
 62
     1
 10
154.867007168
 20
118.451244818
 30
0.0
 40
0.609336
 50
359.99984545
 51
0.0
  0
LINE
  8
0
  6
CONTINUOUS
 62
     1
 10
140.486677568
 20
126.738214418
 30
0.0
 11
142.802154368
 21
126.738214418
 31
0.0
  0
LINE
  8
0
  6
CONTINUOUS
 62
     1
 10
140.456210768
 20
129.175558418
 30
0.0
 11
142.771687568
 21
129.175558418
 31
0.0
  0
LINE
  8
0
  6
CONTINUOUS
 62
     1
 10
139.877341568
 20
120.340186418
 30
0.0
 11
139.877341568
 21
126.128876774
 31
0.0
  0
ARC
  8
0
  6
CONTINUOUS
 62
     1
 10
140.486677568
 20
126.128878418
 30
0.0
 40
0.609336
 50
90.0
 51
180.00015455
  0
ARC
  8
0
  6
CONTINUOUS
 62
     1
 10
140.456210768
 20
129.784894418
 30
0.0
 40
0.609336
 50
198.194872339
 51
270.0
  0
LINE
  8
0
  6
CONTINUOUS
 62
     1
 10
139.877341568
 20
129.594629313
 30
0.0
 11
139.877341568
 21
135.573586418
 31
0.0
  0
LINE
  8
0
  6
CONTINUOUS
 62
     1
 10
140.486677568
 20
126.738214418
 30
0.0
 11
143.015421968
 21
126.738214418
 31
0.0
  0
LINE
  8
0
  6
CONTINUOUS
 62
     1
 10
140.456210768
 20
129.175558418
 30
0.0
 11
143.015421968
 21
129.175558418
 31
0.0
  0
LINE
  8
0
  6
CONTINUOUS
 62
     1
 10
143.015421968
 20
116.257635218
 30
0.0
 11
136.678327568
 21
116.257635218
 31
0.0
  0
LINE
  8
0
  6
CONTINUOUS
 62
     1
 10
143.015421968
 20
118.512178418
 30
0.0
 11
143.015421968
 21
116.257635218
 31
0.0
  0
LINE
  8
0
  6
CONTINUOUS
 62
     1
 10
143.015421968
 20
165.248249618
 30
0.0
 11
136.678327568
 21
165.248249618
 31
0.0
  0
LINE
  8
0
  6
CONTINUOUS
 62
     1
 10
143.015421968
 20
165.248249618
 30
0.0
 11
143.015421968
 21
137.401594418
 31
0.0
  0
LINE
  8
0
  6
CONTINUOUS
 62
     1
 10
135.825257168
 20
113.576556818
 30
0.0
 11
152.673397568
 21
113.576556818
 31
0.0
  0
LINE
  8
0
  6
CONTINUOUS
 62
     1
 10
152.673397568
 20
113.576556818
 30
0.0
 11
162.057171968
 21
113.576556818
 31
0.0
  0
LINE
  8
0
  6
CONTINUOUS
 62
     1
 10
162.057171968
 20
113.576556818
 30
0.0
 11
162.422773568
 21
114.917096018
 31
0.0
  0
ARC
  8
0
  6
CONTINUOUS
 62
     1
 10
135.825257168
 20
113.942158418
 30
0.0
 40
0.3656016
 50
180.0
 51
270.0
  0
LINE
  8
0
  6
CONTINUOUS
 62
     1
 10
135.459655568
 20
167.380925618
 30
0.0
 11
135.459655568
 21
113.942158418
 31
0.0
  0
LINE
  8
0
  6
CONTINUOUS
 62
     1
 10
159.497960768
 20
115.160830418
 30
0.0
 11
159.497960768
 21
113.576556818
 31
0.0
  0
LINE
  8
0
  6
CONTINUOUS
 62
     1
 10
160.960367168
 20
113.576556818
 30
0.0
 11
160.960367168
 21
115.160830418
 31
0.0
  0
LINE
  8
0
  6
CONTINUOUS
 62
     1
 10
142.406085968
 20
115.160830418
 30
0.0
 11
142.406085968
 21
113.576556818
 31
0.0
  0
LINE
  8
0
  6
CONTINUOUS
 62
     1
 10
137.043929168
 20
115.160830418
 30
0.0
 11
137.043929168
 21
113.576556818
 31
0.0
  0
LINE
  8
0
  6
CONTINUOUS
 62
     1
 10
152.673397568
 20
167.929328018
 30
0.0
 11
162.057171968
 21
167.929328018
 31
0.0
  0
LINE
  8
0
  6
CONTINUOUS
 62
     1
 10
135.825257168
 20
167.929328018
 30
0.0
 11
152.673397568
 21
167.929328018
 31
0.0
  0
ARC
  8
0
  6
CONTINUOUS
 62
     1
 10
135.825257168
 20
167.563726418
 30
0.0
 40
0.3656016
 50
90.0
 51
180.0
  0
LINE
  8
0
  6
CONTINUOUS
 62
     1
 10
135.459655568
 20
167.563726418
 30
0.0
 11
135.459655568
 21
114.124959218
 31
0.0
  0
LINE
  8
0
  6
CONTINUOUS
 62
     1
 10
137.043929168
 20
166.345054418
 30
0.0
 11
137.043929168
 21
167.929328018
 31
0.0
  0
LINE
  8
0
  6
CONTINUOUS
 62
     1
 10
142.406085968
 20
166.345054418
 30
0.0
 11
142.406085968
 21
167.929328018
 31
0.0
  0
LINE
  8
0
  6
CONTINUOUS
 62
     1
 10
159.497960768
 20
166.345054418
 30
0.0
 11
159.497960768
 21
167.929328018
 31
0.0
  0
LINE
  8
0
  6
CONTINUOUS
 62
     1
 10
160.960367168
 20
167.929328018
 30
0.0
 11
160.960367168
 21
166.345054418
 31
0.0
  0
LINE
  8
0
  6
CONTINUOUS
 62
     1
 10
162.057171968
 20
167.929328018
 30
0.0
 11
162.422773568
 21
166.588788818
 31
0.0
  0
LINE
  8
0
  6
CONTINUOUS
 62
     1
 10
162.422773568
 20
166.588788818
 30
0.0
 11
162.422773568
 21
114.917096018
 31
0.0
  0
LINE
  8
0
  6
CONTINUOUS
 62
     1
 10
142.588886768
 20
118.512178418
 30
0.0
 11
142.588886768
 21
120.096452018
 31
0.0
  0
LINE
  8
0
  6
CONTINUOUS
 62
     1
 10
144.142693568
 20
120.096452018
 30
0.0
 11
142.588886768
 21
120.096452018
 31
0.0
  0
LINE
  8
0
  6
CONTINUOUS
 62
     1
 10
142.588886768
 20
135.817320818
 30
0.0
 11
142.588886768
 21
137.401594418
 31
0.0
  0
LINE
  8
0
  6
CONTINUOUS
 62
     1
 10
140.486677568
 20
136.182922418
 30
0.0
 11
142.588886768
 21
136.182922418
 31
0.0
  0
LINE
  8
0
  6
CONTINUOUS
 62
     1
 10
143.015421968
 20
135.817320818
 30
0.0
 11
143.015421968
 21
120.096452018
 31
0.0
  0
LINE
  8
0
  6
CONTINUOUS
 62
     1
 10
142.588886768
 20
135.817320818
 30
0.0
 11
144.142693568
 21
135.817320818
 31
0.0
  0
POINT
  8
0
  6
CONTINUOUS
 62
     1
 10
127.233619568
 20
167.076257618
 30
0.0
  0
LINE
  8
0
  6
CONTINUOUS
 62
     1
 10
108.862139168
 20
113.576556818
 30
0.0
 11
125.710279568
 21
113.576556818
 31
0.0
  0
LINE
  8
0
  6
CONTINUOUS
 62
     1
 10
125.710279568
 20
113.576556818
 30
0.0
 11
135.094053968
 21
113.576556818
 31
0.0
  0
LINE
  8
0
  6
CONTINUOUS
 62
     1
 10
135.094053968
 20
113.576556818
 30
0.0
 11
135.459655568
 21
114.917096018
 31
0.0
  0
ARC
  8
0
  6
CONTINUOUS
 62
     1
 10
108.862139168
 20
113.942158418
 30
0.0
 40
0.3656016
 50
180.0
 51
270.0
  0
LINE
  8
0
  6
CONTINUOUS
 62
     1
 10
108.496537568
 20
167.380925618
 30
0.0
 11
108.496537568
 21
113.942158418
 31
0.0
  0
LINE
  8
0
  6
CONTINUOUS
 62
     1
 10
125.710279568
 20
167.929328018
 30
0.0
 11
135.094053968
 21
167.929328018
 31
0.0
  0
LINE
  8
0
  6
CONTINUOUS
 62
     1
 10
108.862139168
 20
167.929328018
 30
0.0
 11
125.710279568
 21
167.929328018
 31
0.0
  0
ARC
  8
0
  6
CONTINUOUS
 62
     1
 10
108.862139168
 20
167.563726418
 30
0.0
 40
0.3656016
 50
90.0
 51
180.0
  0
LINE
  8
0
  6
CONTINUOUS
 62
     1
 10
108.496537568
 20
167.563726418
 30
0.0
 11
108.496537568
 21
114.124959218
 31
0.0
  0
LINE
  8
0
  6
CONTINUOUS
 62
     1
 10
135.094053968
 20
167.929328018
 30
0.0
 11
135.459655568
 21
166.588788818
 31
0.0
  0
LINE
  8
0
  6
CONTINUOUS
 62
     1
 10
135.459655568
 20
166.588788818
 30
0.0
 11
135.459655568
 21
114.917096018
 31
0.0
  0
LINE
  8
0
  6
CONTINUOUS
 62
     1
 10
81.899021168
 20
113.576556818
 30
0.0
 11
98.747161568
 21
113.576556818
 31
0.0
  0
LINE
  8
0
  6
CONTINUOUS
 62
     1
 10
98.747161568
 20
113.576556818
 30
0.0
 11
108.130935968
 21
113.576556818
 31
0.0
  0
LINE
  8
0
  6
CONTINUOUS
 62
     1
 10
108.130935968
 20
113.576556818
 30
0.0
 11
108.496537568
 21
114.917096018
 31
0.0
  0
ARC
  8
0
  6
CONTINUOUS
 62
     1
 10
81.899021168
 20
113.942158418
 30
0.0
 40
0.3656016
 50
180.0
 51
270.0
  0
LINE
  8
0
  6
CONTINUOUS
 62
     1
 10
81.533419568
 20
167.380925618
 30
0.0
 11
81.533419568
 21
113.942158418
 31
0.0
  0
LINE
  8
0
  6
CONTINUOUS
 62
     1
 10
98.747161568
 20
167.929328018
 30
0.0
 11
108.130935968
 21
167.929328018
 31
0.0
  0
LINE
  8
0
  6
CONTINUOUS
 62
     1
 10
81.899021168
 20
167.929328018
 30
0.0
 11
98.747161568
 21
167.929328018
 31
0.0
  0
ARC
  8
0
  6
CONTINUOUS
 62
     1
 10
81.899021168
 20
167.563726418
 30
0.0
 40
0.3656016
 50
90.0
 51
180.0
  0
LINE
  8
0
  6
CONTINUOUS
 62
     1
 10
81.533419568
 20
167.563726418
 30
0.0
 11
81.533419568
 21
114.124959218
 31
0.0
  0
LINE
  8
0
  6
CONTINUOUS
 62
     1
 10
108.130935968
 20
167.929328018
 30
0.0
 11
108.496537568
 21
166.588788818
 31
0.0
  0
LINE
  8
0
  6
CONTINUOUS
 62
     1
 10
108.496537568
 20
166.588788818
 30
0.0
 11
108.496537568
 21
114.917096018
 31
0.0
  0
LINE
  8
0
  6
CONTINUOUS
 62
     1
 10
140.486677568
 20
119.730850418
 30
0.0
 11
142.588886768
 21
119.730850418
 31
0.0
  0
LINE
  8
0
  6
CONTINUOUS
 62
     1
 10
76.506397568
 20
161.775034418
 30
0.0
 11
74.404188368
 21
161.775034418
 31
0.0
  0
LINE
  8
0
  6
CONTINUOUS
 62
     1
 10
72.606647168
 20
165.857585618
 30
0.0
 11
58.713786368
 21
165.857585618
 31
0.0
  0
LINE
  8
0
  6
CONTINUOUS
 62
     1
 10
72.606647168
 20
158.301819218
 30
0.0
 11
58.713786368
 21
158.301819218
 31
0.0
  0
LINE
  8
0
  6
CONTINUOUS
 62
     1
 10
66.025818368
 20
159.642358418
 30
0.0
 11
66.635154368
 21
159.642358418
 31
0.0
  0
LINE
  8
0
  6
CONTINUOUS
 62
     1
 10
66.635154368
 20
161.470366418
 30
0.0
 11
68.463162368
 21
161.470366418
 31
0.0
  0
LINE
  8
0
  6
CONTINUOUS
 62
     1
 10
66.635154368
 20
159.642358418
 30
0.0
 11
66.635154368
 21
161.470366418
 31
0.0
  0
LINE
  8
0
  6
CONTINUOUS
 62
     1
 10
66.635154368
 20
164.517046418
 30
0.0
 11
65.416482368
 21
164.517046418
 31
0.0
  0
LINE
  8
0
  6
CONTINUOUS
 62
     1
 10
68.463162368
 20
162.689038418
 30
0.0
 11
66.635154368
 21
162.689038418
 31
0.0
  0
LINE
  8
0
  6
CONTINUOUS
 62
     1
 10
65.416482368
 20
162.689038418
 30
0.0
 11
63.588474368
 21
162.689038418
 31
0.0
  0
LINE
  8
0
  6
CONTINUOUS
 62
     1
 10
68.463162368
 20
161.470366418
 30
0.0
 11
68.463162368
 21
162.689038418
 31
0.0
  0
LINE
  8
0
  6
CONTINUOUS
 62
     1
 10
66.635154368
 20
162.689038418
 30
0.0
 11
66.635154368
 21
164.517046418
 31
0.0
  0
LINE
  8
0
  6
CONTINUOUS
 62
     1
 10
65.416482368
 20
164.517046418
 30
0.0
 11
65.416482368
 21
162.689038418
 31
0.0
  0
LINE
  8
0
  6
CONTINUOUS
 62
     1
 10
65.416482368
 20
159.642358418
 30
0.0
 11
66.025818368
 21
159.642358418
 31
0.0
  0
LINE
  8
0
  6
CONTINUOUS
 62
     1
 10
63.588474368
 20
161.470366418
 30
0.0
 11
65.416482368
 21
161.470366418
 31
0.0
  0
LINE
  8
0
  6
CONTINUOUS
 62
     1
 10
65.416482368
 20
161.470366418
 30
0.0
 11
65.416482368
 21
159.642358418
 31
0.0
  0
CIRCLE
  8
0
  6
CONTINUOUS
 62
     1
 10
66.025818368
 20
162.079702418
 30
0.0
 40
3.4122816
  0
LINE
  8
0
  6
CONTINUOUS
 62
     1
 10
63.588474368
 20
162.689038418
 30
0.0
 11
63.588474368
 21
161.470366418
 31
0.0
  0
LINE
  8
0
  6
CONTINUOUS
 62
     1
 10
68.463162368
 20
154.158334418
 30
0.0
 11
66.635154368
 21
154.158334418
 31
0.0
  0
LINE
  8
0
  6
CONTINUOUS
 62
     1
 10
65.416482368
 20
154.158334418
 30
0.0
 11
63.588474368
 21
154.158334418
 31
0.0
  0
LINE
  8
0
  6
CONTINUOUS
 62
     1
 10
66.635154368
 20
155.986342418
 30
0.0
 11
65.416482368
 21
155.986342418
 31
0.0
  0
LINE
  8
0
  6
CONTINUOUS
 62
     1
 10
66.635154368
 20
154.158334418
 30
0.0
 11
66.635154368
 21
155.986342418
 31
0.0
  0
LINE
  8
0
  6
CONTINUOUS
 62
     1
 10
65.416482368
 20
155.986342418
 30
0.0
 11
65.416482368
 21
154.158334418
 31
0.0
  0
LINE
  8
0
  6
CONTINUOUS
 62
     1
 10
66.635154368
 20
152.939662418
 30
0.0
 11
68.463162368
 21
152.939662418
 31
0.0
  0
LINE
  8
0
  6
CONTINUOUS
 62
     1
 10
63.588474368
 20
152.939662418
 30
0.0
 11
65.416482368
 21
152.939662418
 31
0.0
  0
LINE
  8
0
  6
CONTINUOUS
 62
     1
 10
68.463162368
 20
152.939662418
 30
0.0
 11
68.463162368
 21
154.158334418
 31
0.0
  0
LINE
  8
0
  6
CONTINUOUS
 62
     1
 10
72.606647168
 20
157.326881618
 30
0.0
 11
58.713786368
 21
157.326881618
 31
0.0
  0
LINE
  8
0
  6
CONTINUOUS
 62
     1
 10
72.850381568
 20
140.752942418
 30
0.0
 11
72.850381568
 21
167.076257618
 31
0.0
  0
LINE
  8
0
  6
CONTINUOUS
 62
     1
 10
74.404188368
 20
145.688564018
 30
0.0
 11
74.404188368
 21
144.104290418
 31
0.0
  0
LINE
  8
0
  6
CONTINUOUS
 62
     1
 10
76.506397568
 20
145.322962418
 30
0.0
 11
74.404188368
 21
145.322962418
 31
0.0
  0
LINE
  8
0
  6
CONTINUOUS
 62
     1
 10
73.977653168
 20
145.688564018
 30
0.0
 11
73.977653168
 21
161.409432818
 31
0.0
  0
LINE
  8
0
  6
CONTINUOUS
 62
     1
 10
74.404188368
 20
145.688564018
 30
0.0
 11
72.850381568
 21
145.688564018
 31
0.0
  0
LINE
  8
0
  6
CONTINUOUS
 62
     1
 10
66.025818368
 20
142.580950418
 30
0.0
 11
66.635154368
 21
142.580950418
 31
0.0
  0
LINE
  8
0
  6
CONTINUOUS
 62
     1
 10
65.416482368
 20
142.580950418
 30
0.0
 11
66.025818368
 21
142.580950418
 31
0.0
  0
LINE
  8
0
  6
CONTINUOUS
 62
     1
 10
68.463162368
 20
145.627630418
 30
0.0
 11
66.635154368
 21
145.627630418
 31
0.0
  0
LINE
  8
0
  6
CONTINUOUS
 62
     1
 10
65.416482368
 20
145.627630418
 30
0.0
 11
63.588474368
 21
145.627630418
 31
0.0
  0
LINE
  8
0
  6
CONTINUOUS
 62
     1
 10
66.635154368
 20
147.455638418
 30
0.0
 11
65.416482368
 21
147.455638418
 31
0.0
  0
LINE
  8
0
  6
CONTINUOUS
 62
     1
 10
66.635154368
 20
145.627630418
 30
0.0
 11
66.635154368
 21
147.455638418
 31
0.0
  0
LINE
  8
0
  6
CONTINUOUS
 62
     1
 10
65.416482368
 20
147.455638418
 30
0.0
 11
65.416482368
 21
145.627630418
 31
0.0
  0
LINE
  8
0
  6
CONTINUOUS
 62
     1
 10
66.635154368
 20
144.408958418
 30
0.0
 11
68.463162368
 21
144.408958418
 31
0.0
  0
LINE
  8
0
  6
CONTINUOUS
 62
     1
 10
63.588474368
 20
144.408958418
 30
0.0
 11
65.416482368
 21
144.408958418
 31
0.0
  0
LINE
  8
0
  6
CONTINUOUS
 62
     1
 10
66.635154368
 20
142.580950418
 30
0.0
 11
66.635154368
 21
144.408958418
 31
0.0
  0
LINE
  8
0
  6
CONTINUOUS
 62
     1
 10
65.416482368
 20
144.408958418
 30
0.0
 11
65.416482368
 21
142.580950418
 31
0.0
  0
LINE
  8
0
  6
CONTINUOUS
 62
     1
 10
68.463162368
 20
144.408958418
 30
0.0
 11
68.463162368
 21
145.627630418
 31
0.0
  0
LINE
  8
0
  6
CONTINUOUS
 62
     1
 10
63.588474368
 20
145.627630418
 30
0.0
 11
63.588474368
 21
144.408958418
 31
0.0
  0
CIRCLE
  8
0
  6
CONTINUOUS
 62
     1
 10
66.025818368
 20
145.018294418
 30
0.0
 40
3.4122816
  0
LINE
  8
0
  6
CONTINUOUS
 62
     1
 10
72.606647168
 20
141.240411218
 30
0.0
 11
58.713786368
 21
141.240411218
 31
0.0
  0
LINE
  8
0
  6
CONTINUOUS
 62
     1
 10
72.606647168
 20
148.796177618
 30
0.0
 11
58.713786368
 21
148.796177618
 31
0.0
  0
LINE
  8
0
  6
CONTINUOUS
 62
     1
 10
66.025818368
 20
151.111654418
 30
0.0
 11
66.635154368
 21
151.111654418
 31
0.0
  0
LINE
  8
0
  6
CONTINUOUS
 62
     1
 10
65.416482368
 20
151.111654418
 30
0.0
 11
66.025818368
 21
151.111654418
 31
0.0
  0
LINE
  8
0
  6
CONTINUOUS
 62
     1
 10
72.606647168
 20
149.771115218
 30
0.0
 11
58.713786368
 21
149.771115218
 31
0.0
  0
LINE
  8
0
  6
CONTINUOUS
 62
     1
 10
66.025818368
 20
138.924934418
 30
0.0
 11
66.635154368
 21
138.924934418
 31
0.0
  0
LINE
  8
0
  6
CONTINUOUS
 62
     1
 10
65.416482368
 20
138.924934418
 30
0.0
 11
66.025818368
 21
138.924934418
 31
0.0
  0
LINE
  8
0
  6
CONTINUOUS
 62
     1
 10
68.463162368
 20
135.878254418
 30
0.0
 11
66.635154368
 21
135.878254418
 31
0.0
  0
LINE
  8
0
  6
CONTINUOUS
 62
     1
 10
65.416482368
 20
135.878254418
 30
0.0
 11
63.588474368
 21
135.878254418
 31
0.0
  0
LINE
  8
0
  6
CONTINUOUS
 62
     1
 10
66.635154368
 20
134.050246418
 30
0.0
 11
65.416482368
 21
134.050246418
 31
0.0
  0
LINE
  8
0
  6
CONTINUOUS
 62
     1
 10
66.635154368
 20
135.878254418
 30
0.0
 11
66.635154368
 21
134.050246418
 31
0.0
  0
LINE
  8
0
  6
CONTINUOUS
 62
     1
 10
65.416482368
 20
134.050246418
 30
0.0
 11
65.416482368
 21
135.878254418
 31
0.0
  0
LINE
  8
0
  6
CONTINUOUS
 62
     1
 10
66.635154368
 20
137.096926418
 30
0.0
 11
68.463162368
 21
137.096926418
 31
0.0
  0
LINE
  8
0
  6
CONTINUOUS
 62
     1
 10
63.588474368
 20
137.096926418
 30
0.0
 11
65.416482368
 21
137.096926418
 31
0.0
  0
LINE
  8
0
  6
CONTINUOUS
 62
     1
 10
66.635154368
 20
138.924934418
 30
0.0
 11
66.635154368
 21
137.096926418
 31
0.0
  0
LINE
  8
0
  6
CONTINUOUS
 62
     1
 10
65.416482368
 20
137.096926418
 30
0.0
 11
65.416482368
 21
138.924934418
 31
0.0
  0
LINE
  8
0
  6
CONTINUOUS
 62
     1
 10
68.463162368
 20
137.096926418
 30
0.0
 11
68.463162368
 21
135.878254418
 31
0.0
  0
LINE
  8
0
  6
CONTINUOUS
 62
     1
 10
63.588474368
 20
135.878254418
 30
0.0
 11
63.588474368
 21
137.096926418
 31
0.0
  0
CIRCLE
  8
0
  6
CONTINUOUS
 62
     1
 10
66.025818368
 20
136.487590418
 30
0.0
 40
3.4122816
  0
LINE
  8
0
  6
CONTINUOUS
 62
     1
 10
72.606647168
 20
140.265473618
 30
0.0
 11
58.713786368
 21
140.265473618
 31
0.0
  0
LINE
  8
0
  6
CONTINUOUS
 62
     1
 10
66.635154368
 20
151.111654418
 30
0.0
 11
66.635154368
 21
152.939662418
 31
0.0
  0
LINE
  8
0
  6
CONTINUOUS
 62
     1
 10
65.416482368
 20
152.939662418
 30
0.0
 11
65.416482368
 21
151.111654418
 31
0.0
  0
CIRCLE
  8
0
  6
CONTINUOUS
 62
     1
 10
66.025818368
 20
153.548998418
 30
0.0
 40
3.4122816
  0
LINE
  8
0
  6
CONTINUOUS
 62
     1
 10
66.025818368
 20
130.394230418
 30
0.0
 11
66.635154368
 21
130.394230418
 31
0.0
  0
LINE
  8
0
  6
CONTINUOUS
 62
     1
 10
65.416482368
 20
130.394230418
 30
0.0
 11
66.025818368
 21
130.394230418
 31
0.0
  0
LINE
  8
0
  6
CONTINUOUS
 62
     1
 10
68.463162368
 20
127.347550418
 30
0.0
 11
66.635154368
 21
127.347550418
 31
0.0
  0
LINE
  8
0
  6
CONTINUOUS
 62
     1
 10
65.416482368
 20
127.347550418
 30
0.0
 11
63.588474368
 21
127.347550418
 31
0.0
  0
LINE
  8
0
  6
CONTINUOUS
 62
     1
 10
66.635154368
 20
125.519542418
 30
0.0
 11
65.416482368
 21
125.519542418
 31
0.0
  0
LINE
  8
0
  6
CONTINUOUS
 62
     1
 10
66.635154368
 20
127.347550418
 30
0.0
 11
66.635154368
 21
125.519542418
 31
0.0
  0
LINE
  8
0
  6
CONTINUOUS
 62
     1
 10
65.416482368
 20
125.519542418
 30
0.0
 11
65.416482368
 21
127.347550418
 31
0.0
  0
LINE
  8
0
  6
CONTINUOUS
 62
     1
 10
66.635154368
 20
128.566222418
 30
0.0
 11
68.463162368
 21
128.566222418
 31
0.0
  0
LINE
  8
0
  6
CONTINUOUS
 62
     1
 10
63.588474368
 20
128.566222418
 30
0.0
 11
65.416482368
 21
128.566222418
 31
0.0
  0
LINE
  8
0
  6
CONTINUOUS
 62
     1
 10
66.635154368
 20
130.394230418
 30
0.0
 11
66.635154368
 21
128.566222418
 31
0.0
  0
LINE
  8
0
  6
CONTINUOUS
 62
     1
 10
65.416482368
 20
128.566222418
 30
0.0
 11
65.416482368
 21
130.394230418
 31
0.0
  0
LINE
  8
0
  6
CONTINUOUS
 62
     1
 10
68.463162368
 20
128.566222418
 30
0.0
 11
68.463162368
 21
127.347550418
 31
0.0
  0
LINE
  8
0
  6
CONTINUOUS
 62
     1
 10
63.588474368
 20
127.347550418
 30
0.0
 11
63.588474368
 21
128.566222418
 31
0.0
  0
LINE
  8
0
  6
CONTINUOUS
 62
     1
 10
72.606647168
 20
124.179003218
 30
0.0
 11
58.713786368
 21
124.179003218
 31
0.0
  0
LINE
  8
0
  6
CONTINUOUS
 62
     1
 10
72.606647168
 20
123.204065618
 30
0.0
 11
58.713786368
 21
123.204065618
 31
0.0
  0
LINE
  8
0
  6
CONTINUOUS
 62
     1
 10
72.850381568
 20
114.429627218
 30
0.0
 11
72.850381568
 21
140.752942418
 31
0.0
  0
LINE
  8
0
  6
CONTINUOUS
 62
     1
 10
72.606647168
 20
132.709707218
 30
0.0
 11
58.713786368
 21
132.709707218
 31
0.0
  0
CIRCLE
  8
0
  6
CONTINUOUS
 62
     1
 10
66.025818368
 20
127.956886418
 30
0.0
 40
3.4122816
  0
LINE
  8
0
  6
CONTINUOUS
 62
     1
 10
72.606647168
 20
131.734769618
 30
0.0
 11
58.713786368
 21
131.734769618
 31
0.0
  0
LINE
  8
0
  6
CONTINUOUS
 62
     1
 10
72.606647168
 20
114.429627218
 30
0.0
 11
72.606647168
 21
167.076257618
 31
0.0
  0
LINE
  8
0
  6
CONTINUOUS
 62
     1
 10
66.025818368
 20
121.863526418
 30
0.0
 11
66.635154368
 21
121.863526418
 31
0.0
  0
LINE
  8
0
  6
CONTINUOUS
 62
     1
 10
65.416482368
 20
121.863526418
 30
0.0
 11
66.025818368
 21
121.863526418
 31
0.0
  0
LINE
  8
0
  6
CONTINUOUS
 62
     1
 10
68.463162368
 20
118.816846418
 30
0.0
 11
66.635154368
 21
118.816846418
 31
0.0
  0
LINE
  8
0
  6
CONTINUOUS
 62
     1
 10
65.416482368
 20
118.816846418
 30
0.0
 11
63.588474368
 21
118.816846418
 31
0.0
  0
LINE
  8
0
  6
CONTINUOUS
 62
     1
 10
66.635154368
 20
120.035518418
 30
0.0
 11
68.463162368
 21
120.035518418
 31
0.0
  0
LINE
  8
0
  6
CONTINUOUS
 62
     1
 10
63.588474368
 20
120.035518418
 30
0.0
 11
65.416482368
 21
120.035518418
 31
0.0
  0
LINE
  8
0
  6
CONTINUOUS
 62
     1
 10
66.635154368
 20
121.863526418
 30
0.0
 11
66.635154368
 21
120.035518418
 31
0.0
  0
LINE
  8
0
  6
CONTINUOUS
 62
     1
 10
65.416482368
 20
120.035518418
 30
0.0
 11
65.416482368
 21
121.863526418
 31
0.0
  0
LINE
  8
0
  6
CONTINUOUS
 62
     1
 10
68.463162368
 20
120.035518418
 30
0.0
 11
68.463162368
 21
118.816846418
 31
0.0
  0
LINE
  8
0
  6
CONTINUOUS
 62
     1
 10
63.588474368
 20
118.816846418
 30
0.0
 11
63.588474368
 21
120.035518418
 31
0.0
  0
CIRCLE
  8
0
  6
CONTINUOUS
 62
     1
 10
66.025818368
 20
119.426182418
 30
0.0
 40
3.4122816
  0
LINE
  8
0
  6
CONTINUOUS
 62
     1
 10
58.713786368
 20
114.429627218
 30
0.0
 11
58.713786368
 21
167.076257618
 31
0.0
  0
LINE
  8
0
  6
CONTINUOUS
 62
     1
 10
58.713786368
 20
165.857585618
 30
0.0
 11
58.713786368
 21
115.648299218
 31
0.0
  0
LINE
  8
0
  6
CONTINUOUS
 62
     1
 10
66.635154368
 20
116.988838418
 30
0.0
 11
65.416482368
 21
116.988838418
 31
0.0
  0
LINE
  8
0
  6
CONTINUOUS
 62
     1
 10
66.635154368
 20
118.816846418
 30
0.0
 11
66.635154368
 21
116.988838418
 31
0.0
  0
LINE
  8
0
  6
CONTINUOUS
 62
     1
 10
65.416482368
 20
116.988838418
 30
0.0
 11
65.416482368
 21
118.816846418
 31
0.0
  0
LINE
  8
0
  6
CONTINUOUS
 62
     1
 10
138.658669568
 20
137.401594418
 30
0.0
 11
144.142693568
 21
137.401594418
 31
0.0
  0
LINE
  8
0
  6
CONTINUOUS
 62
     1
 10
144.142693568
 20
118.512178418
 30
0.0
 11
138.658669568
 21
118.512178418
 31
0.0
  0
LINE
  8
0
  6
CONTINUOUS
 62
     1
 10
78.334405568
 20
162.993706418
 30
0.0
 11
73.977653168
 21
162.993706418
 31
0.0
  0
LINE
  8
0
  6
CONTINUOUS
 62
     1
 10
73.977653168
 20
144.104290418
 30
0.0
 11
78.334405568
 21
144.104290418
 31
0.0
  0
LINE
  8
0
  6
CONTINUOUS
 62
     1
 10
73.977653168
 20
116.257635218
 30
0.0
 11
73.977653168
 21
144.104290418
 31
0.0
  0
LINE
  8
0
  6
CONTINUOUS
 62
     1
 10
150.967256768
 20
151.111654418
 30
0.0
 11
150.357920768
 21
151.111654418
 31
0.0
  0
LINE
  8
0
  6
CONTINUOUS
 62
     1
 10
151.576592768
 20
151.111654418
 30
0.0
 11
150.967256768
 21
151.111654418
 31
0.0
  0
LINE
  8
0
  6
CONTINUOUS
 62
     1
 10
148.529912768
 20
154.158334418
 30
0.0
 11
150.357920768
 21
154.158334418
 31
0.0
  0
LINE
  8
0
  6
CONTINUOUS
 62
     1
 10
151.576592768
 20
154.158334418
 30
0.0
 11
153.404600768
 21
154.158334418
 31
0.0
  0
LINE
  8
0
  6
CONTINUOUS
 62
     1
 10
150.357920768
 20
155.986342418
 30
0.0
 11
151.576592768
 21
155.986342418
 31
0.0
  0
LINE
  8
0
  6
CONTINUOUS
 62
     1
 10
150.357920768
 20
154.158334418
 30
0.0
 11
150.357920768
 21
155.986342418
 31
0.0
  0
LINE
  8
0
  6
CONTINUOUS
 62
     1
 10
151.576592768
 20
155.986342418
 30
0.0
 11
151.576592768
 21
154.158334418
 31
0.0
  0
LINE
  8
0
  6
CONTINUOUS
 62
     1
 10
150.357920768
 20
152.939662418
 30
0.0
 11
148.529912768
 21
152.939662418
 31
0.0
  0
LINE
  8
0
  6
CONTINUOUS
 62
     1
 10
153.404600768
 20
152.939662418
 30
0.0
 11
151.576592768
 21
152.939662418
 31
0.0
  0
LINE
  8
0
  6
CONTINUOUS
 62
     1
 10
150.357920768
 20
151.111654418
 30
0.0
 11
150.357920768
 21
152.939662418
 31
0.0
  0
LINE
  8
0
  6
CONTINUOUS
 62
     1
 10
151.576592768
 20
152.939662418
 30
0.0
 11
151.576592768
 21
151.111654418
 31
0.0
  0
LINE
  8
0
  6
CONTINUOUS
 62
     1
 10
148.529912768
 20
152.939662418
 30
0.0
 11
148.529912768
 21
154.158334418
 31
0.0
  0
LINE
  8
0
  6
CONTINUOUS
 62
     1
 10
153.404600768
 20
154.158334418
 30
0.0
 11
153.404600768
 21
152.939662418
 31
0.0
  0
LINE
  8
0
  6
CONTINUOUS
 62
     1
 10
144.386427968
 20
157.326881618
 30
0.0
 11
158.279288768
 21
157.326881618
 31
0.0
  0
LINE
  8
0
  6
CONTINUOUS
 62
     1
 10
150.967256768
 20
159.642358418
 30
0.0
 11
150.357920768
 21
159.642358418
 31
0.0
  0
LINE
  8
0
  6
CONTINUOUS
 62
     1
 10
151.576592768
 20
159.642358418
 30
0.0
 11
150.967256768
 21
159.642358418
 31
0.0
  0
LINE
  8
0
  6
CONTINUOUS
 62
     1
 10
148.529912768
 20
162.689038418
 30
0.0
 11
150.357920768
 21
162.689038418
 31
0.0
  0
LINE
  8
0
  6
CONTINUOUS
 62
     1
 10
151.576592768
 20
162.689038418
 30
0.0
 11
153.404600768
 21
162.689038418
 31
0.0
  0
LINE
  8
0
  6
CONTINUOUS
 62
     1
 10
150.357920768
 20
164.517046418
 30
0.0
 11
151.576592768
 21
164.517046418
 31
0.0
  0
LINE
  8
0
  6
CONTINUOUS
 62
     1
 10
150.357920768
 20
162.689038418
 30
0.0
 11
150.357920768
 21
164.517046418
 31
0.0
  0
LINE
  8
0
  6
CONTINUOUS
 62
     1
 10
151.576592768
 20
164.517046418
 30
0.0
 11
151.576592768
 21
162.689038418
 31
0.0
  0
LINE
  8
0
  6
CONTINUOUS
 62
     1
 10
150.357920768
 20
161.470366418
 30
0.0
 11
148.529912768
 21
161.470366418
 31
0.0
  0
LINE
  8
0
  6
CONTINUOUS
 62
     1
 10
153.404600768
 20
161.470366418
 30
0.0
 11
151.576592768
 21
161.470366418
 31
0.0
  0
LINE
  8
0
  6
CONTINUOUS
 62
     1
 10
150.357920768
 20
159.642358418
 30
0.0
 11
150.357920768
 21
161.470366418
 31
0.0
  0
LINE
  8
0
  6
CONTINUOUS
 62
     1
 10
151.576592768
 20
161.470366418
 30
0.0
 11
151.576592768
 21
159.642358418
 31
0.0
  0
LINE
  8
0
  6
CONTINUOUS
 62
     1
 10
148.529912768
 20
161.470366418
 30
0.0
 11
148.529912768
 21
162.689038418
 31
0.0
  0
LINE
  8
0
  6
CONTINUOUS
 62
     1
 10
153.404600768
 20
162.689038418
 30
0.0
 11
153.404600768
 21
161.470366418
 31
0.0
  0
CIRCLE
  8
0
  6
CONTINUOUS
 62
     1
 10
150.967256768
 20
162.079702418
 30
0.0
 40
3.4122816
  0
LINE
  8
0
  6
CONTINUOUS
 62
     1
 10
144.386427968
 20
158.301819218
 30
0.0
 11
158.279288768
 21
158.301819218
 31
0.0
  0
LINE
  8
0
  6
CONTINUOUS
 62
     1
 10
144.386427968
 20
165.857585618
 30
0.0
 11
158.279288768
 21
165.857585618
 31
0.0
  0
LINE
  8
0
  6
CONTINUOUS
 62
     1
 10
148.529912768
 20
135.878254418
 30
0.0
 11
150.357920768
 21
135.878254418
 31
0.0
  0
LINE
  8
0
  6
CONTINUOUS
 62
     1
 10
151.576592768
 20
135.878254418
 30
0.0
 11
153.404600768
 21
135.878254418
 31
0.0
  0
LINE
  8
0
  6
CONTINUOUS
 62
     1
 10
150.357920768
 20
134.050246418
 30
0.0
 11
151.576592768
 21
134.050246418
 31
0.0
  0
LINE
  8
0
  6
CONTINUOUS
 62
     1
 10
150.357920768
 20
135.878254418
 30
0.0
 11
150.357920768
 21
134.050246418
 31
0.0
  0
LINE
  8
0
  6
CONTINUOUS
 62
     1
 10
151.576592768
 20
134.050246418
 30
0.0
 11
151.576592768
 21
135.878254418
 31
0.0
  0
LINE
  8
0
  6
CONTINUOUS
 62
     1
 10
150.357920768
 20
137.096926418
 30
0.0
 11
148.529912768
 21
137.096926418
 31
0.0
  0
LINE
  8
0
  6
CONTINUOUS
 62
     1
 10
153.404600768
 20
137.096926418
 30
0.0
 11
151.576592768
 21
137.096926418
 31
0.0
  0
LINE
  8
0
  6
CONTINUOUS
 62
     1
 10
148.529912768
 20
137.096926418
 30
0.0
 11
148.529912768
 21
135.878254418
 31
0.0
  0
LINE
  8
0
  6
CONTINUOUS
 62
     1
 10
153.404600768
 20
135.878254418
 30
0.0
 11
153.404600768
 21
137.096926418
 31
0.0
  0
LINE
  8
0
  6
CONTINUOUS
 62
     1
 10
144.386427968
 20
132.709707218
 30
0.0
 11
158.279288768
 21
132.709707218
 31
0.0
  0
LINE
  8
0
  6
CONTINUOUS
 62
     1
 10
150.967256768
 20
130.394230418
 30
0.0
 11
150.357920768
 21
130.394230418
 31
0.0
  0
LINE
  8
0
  6
CONTINUOUS
 62
     1
 10
151.576592768
 20
130.394230418
 30
0.0
 11
150.967256768
 21
130.394230418
 31
0.0
  0
LINE
  8
0
  6
CONTINUOUS
 62
     1
 10
148.529912768
 20
127.347550418
 30
0.0
 11
150.357920768
 21
127.347550418
 31
0.0
  0
LINE
  8
0
  6
CONTINUOUS
 62
     1
 10
151.576592768
 20
127.347550418
 30
0.0
 11
153.404600768
 21
127.347550418
 31
0.0
  0
LINE
  8
0
  6
CONTINUOUS
 62
     1
 10
150.357920768
 20
125.519542418
 30
0.0
 11
151.576592768
 21
125.519542418
 31
0.0
  0
LINE
  8
0
  6
CONTINUOUS
 62
     1
 10
150.357920768
 20
127.347550418
 30
0.0
 11
150.357920768
 21
125.519542418
 31
0.0
  0
LINE
  8
0
  6
CONTINUOUS
 62
     1
 10
151.576592768
 20
125.519542418
 30
0.0
 11
151.576592768
 21
127.347550418
 31
0.0
  0
LINE
  8
0
  6
CONTINUOUS
 62
     1
 10
150.357920768
 20
128.566222418
 30
0.0
 11
148.529912768
 21
128.566222418
 31
0.0
  0
LINE
  8
0
  6
CONTINUOUS
 62
     1
 10
153.404600768
 20
128.566222418
 30
0.0
 11
151.576592768
 21
128.566222418
 31
0.0
  0
LINE
  8
0
  6
CONTINUOUS
 62
     1
 10
150.357920768
 20
130.394230418
 30
0.0
 11
150.357920768
 21
128.566222418
 31
0.0
  0
LINE
  8
0
  6
CONTINUOUS
 62
     1
 10
151.576592768
 20
128.566222418
 30
0.0
 11
151.576592768
 21
130.394230418
 31
0.0
  0
LINE
  8
0
  6
CONTINUOUS
 62
     1
 10
148.529912768
 20
128.566222418
 30
0.0
 11
148.529912768
 21
127.347550418
 31
0.0
  0
LINE
  8
0
  6
CONTINUOUS
 62
     1
 10
153.404600768
 20
127.347550418
 30
0.0
 11
153.404600768
 21
128.566222418
 31
0.0
  0
CIRCLE
  8
0
  6
CONTINUOUS
 62
     1
 10
150.967256768
 20
127.956886418
 30
0.0
 40
3.4122816
  0
LINE
  8
0
  6
CONTINUOUS
 62
     1
 10
144.386427968
 20
131.734769618
 30
0.0
 11
158.279288768
 21
131.734769618
 31
0.0
  0
LINE
  8
0
  6
CONTINUOUS
 62
     1
 10
144.386427968
 20
124.179003218
 30
0.0
 11
158.279288768
 21
124.179003218
 31
0.0
  0
LINE
  8
0
  6
CONTINUOUS
 62
     1
 10
150.967256768
 20
121.863526418
 30
0.0
 11
150.357920768
 21
121.863526418
 31
0.0
  0
LINE
  8
0
  6
CONTINUOUS
 62
     1
 10
151.576592768
 20
121.863526418
 30
0.0
 11
150.967256768
 21
121.863526418
 31
0.0
  0
LINE
  8
0
  6
CONTINUOUS
 62
     1
 10
148.529912768
 20
118.816846418
 30
0.0
 11
150.357920768
 21
118.816846418
 31
0.0
  0
LINE
  8
0
  6
CONTINUOUS
 62
     1
 10
151.576592768
 20
118.816846418
 30
0.0
 11
153.404600768
 21
118.816846418
 31
0.0
  0
LINE
  8
0
  6
CONTINUOUS
 62
     1
 10
150.357920768
 20
116.988838418
 30
0.0
 11
151.576592768
 21
116.988838418
 31
0.0
  0
LINE
  8
0
  6
CONTINUOUS
 62
     1
 10
150.357920768
 20
118.816846418
 30
0.0
 11
150.357920768
 21
116.988838418
 31
0.0
  0
LINE
  8
0
  6
CONTINUOUS
 62
     1
 10
151.576592768
 20
116.988838418
 30
0.0
 11
151.576592768
 21
118.816846418
 31
0.0
  0
LINE
  8
0
  6
CONTINUOUS
 62
     1
 10
150.357920768
 20
120.035518418
 30
0.0
 11
148.529912768
 21
120.035518418
 31
0.0
  0
LINE
  8
0
  6
CONTINUOUS
 62
     1
 10
153.404600768
 20
120.035518418
 30
0.0
 11
151.576592768
 21
120.035518418
 31
0.0
  0
LINE
  8
0
  6
CONTINUOUS
 62
     1
 10
150.357920768
 20
121.863526418
 30
0.0
 11
150.357920768
 21
120.035518418
 31
0.0
  0
LINE
  8
0
  6
CONTINUOUS
 62
     1
 10
151.576592768
 20
120.035518418
 30
0.0
 11
151.576592768
 21
121.863526418
 31
0.0
  0
LINE
  8
0
  6
CONTINUOUS
 62
     1
 10
148.529912768
 20
120.035518418
 30
0.0
 11
148.529912768
 21
118.816846418
 31
0.0
  0
LINE
  8
0
  6
CONTINUOUS
 62
     1
 10
153.404600768
 20
118.816846418
 30
0.0
 11
153.404600768
 21
120.035518418
 31
0.0
  0
CIRCLE
  8
0
  6
CONTINUOUS
 62
     1
 10
150.967256768
 20
119.426182418
 30
0.0
 40
3.4122816
  0
LINE
  8
0
  6
CONTINUOUS
 62
     1
 10
144.386427968
 20
123.204065618
 30
0.0
 11
158.279288768
 21
123.204065618
 31
0.0
  0
LINE
  8
0
  6
CONTINUOUS
 62
     1
 10
144.386427968
 20
115.648299218
 30
0.0
 11
158.279288768
 21
115.648299218
 31
0.0
  0
LINE
  8
0
  6
CONTINUOUS
 62
     1
 10
150.967256768
 20
138.924934418
 30
0.0
 11
150.357920768
 21
138.924934418
 31
0.0
  0
LINE
  8
0
  6
CONTINUOUS
 62
     1
 10
151.576592768
 20
138.924934418
 30
0.0
 11
150.967256768
 21
138.924934418
 31
0.0
  0
LINE
  8
0
  6
CONTINUOUS
 62
     1
 10
144.386427968
 20
140.265473618
 30
0.0
 11
158.279288768
 21
140.265473618
 31
0.0
  0
LINE
  8
0
  6
CONTINUOUS
 62
     1
 10
150.357920768
 20
138.924934418
 30
0.0
 11
150.357920768
 21
137.096926418
 31
0.0
  0
LINE
  8
0
  6
CONTINUOUS
 62
     1
 10
151.576592768
 20
137.096926418
 30
0.0
 11
151.576592768
 21
138.924934418
 31
0.0
  0
CIRCLE
  8
0
  6
CONTINUOUS
 62
     1
 10
150.967256768
 20
136.487590418
 30
0.0
 40
3.4122816
  0
LINE
  8
0
  6
CONTINUOUS
 62
     1
 10
150.967256768
 20
142.580950418
 30
0.0
 11
150.357920768
 21
142.580950418
 31
0.0
  0
LINE
  8
0
  6
CONTINUOUS
 62
     1
 10
151.576592768
 20
142.580950418
 30
0.0
 11
150.967256768
 21
142.580950418
 31
0.0
  0
LINE
  8
0
  6
CONTINUOUS
 62
     1
 10
148.529912768
 20
145.627630418
 30
0.0
 11
150.357920768
 21
145.627630418
 31
0.0
  0
LINE
  8
0
  6
CONTINUOUS
 62
     1
 10
151.576592768
 20
145.627630418
 30
0.0
 11
153.404600768
 21
145.627630418
 31
0.0
  0
LINE
  8
0
  6
CONTINUOUS
 62
     1
 10
150.357920768
 20
144.408958418
 30
0.0
 11
148.529912768
 21
144.408958418
 31
0.0
  0
LINE
  8
0
  6
CONTINUOUS
 62
     1
 10
153.404600768
 20
144.408958418
 30
0.0
 11
151.576592768
 21
144.408958418
 31
0.0
  0
LINE
  8
0
  6
CONTINUOUS
 62
     1
 10
150.357920768
 20
142.580950418
 30
0.0
 11
150.357920768
 21
144.408958418
 31
0.0
  0
LINE
  8
0
  6
CONTINUOUS
 62
     1
 10
151.576592768
 20
144.408958418
 30
0.0
 11
151.576592768
 21
142.580950418
 31
0.0
  0
LINE
  8
0
  6
CONTINUOUS
 62
     1
 10
148.529912768
 20
144.408958418
 30
0.0
 11
148.529912768
 21
145.627630418
 31
0.0
  0
LINE
  8
0
  6
CONTINUOUS
 62
     1
 10
153.404600768
 20
145.627630418
 30
0.0
 11
153.404600768
 21
144.408958418
 31
0.0
  0
LINE
  8
0
  6
CONTINUOUS
 62
     1
 10
150.357920768
 20
147.455638418
 30
0.0
 11
151.576592768
 21
147.455638418
 31
0.0
  0
LINE
  8
0
  6
CONTINUOUS
 62
     1
 10
150.357920768
 20
145.627630418
 30
0.0
 11
150.357920768
 21
147.455638418
 31
0.0
  0
LINE
  8
0
  6
CONTINUOUS
 62
     1
 10
151.576592768
 20
147.455638418
 30
0.0
 11
151.576592768
 21
145.627630418
 31
0.0
  0
LINE
  8
0
  6
CONTINUOUS
 62
     1
 10
144.386427968
 20
148.796177618
 30
0.0
 11
158.279288768
 21
148.796177618
 31
0.0
  0
CIRCLE
  8
0
  6
CONTINUOUS
 62
     1
 10
150.967256768
 20
153.548998418
 30
0.0
 40
3.4122816
  0
LINE
  8
0
  6
CONTINUOUS
 62
     1
 10
144.386427968
 20
149.771115218
 30
0.0
 11
158.279288768
 21
149.771115218
 31
0.0
  0
LINE
  8
0
  6
CONTINUOUS
 62
     1
 10
144.386427968
 20
141.240411218
 30
0.0
 11
158.279288768
 21
141.240411218
 31
0.0
  0
CIRCLE
  8
0
  6
CONTINUOUS
 62
     1
 10
150.967256768
 20
145.018294418
 30
0.0
 40
3.4122816
  0
LINE
  8
0
  6
CONTINUOUS
 62
     1
 10
158.279288768
 20
115.648299218
 30
0.0
 11
158.279288768
 21
165.857585618
 31
0.0
  0
LINE
  8
0
  6
CONTINUOUS
 62
     1
 10
144.386427968
 20
167.076257618
 30
0.0
 11
144.386427968
 21
114.429627218
 31
0.0
  0
LINE
  8
0
  6
CONTINUOUS
 62
     1
 10
94.895559968
 20
167.076257618
 30
0.0
 11
99.831181568
 21
167.076257618
 31
0.0
  0
LINE
  8
0
  6
CONTINUOUS
 62
     1
 10
85.694586368
 20
167.076257618
 30
0.0
 11
99.831181568
 21
167.076257618
 31
0.0
  0
LINE
  8
0
  6
CONTINUOUS
 62
     1
 10
85.694586368
 20
116.257635218
 30
0.0
 11
85.694586368
 21
116.379502418
 31
0.0
  0
LINE
  8
0
  6
CONTINUOUS
 62
     1
 10
94.895559968
 20
114.429627218
 30
0.0
 11
99.831181568
 21
114.429627218
 31
0.0
  0
LINE
  8
0
  6
CONTINUOUS
 62
     1
 10
85.694586368
 20
114.429627218
 30
0.0
 11
99.831181568
 21
114.429627218
 31
0.0
  0
POINT
  8
0
  6
CONTINUOUS
 62
     1
 10
89.777137568
 20
114.429627218
 30
0.0
  0
LINE
  8
0
  6
CONTINUOUS
 62
     1
 10
105.315205568
 20
162.993706418
 30
0.0
 11
105.315205568
 21
144.104290418
 31
0.0
  0
ARC
  8
0
  6
CONTINUOUS
 62
     1
 10
103.487197568
 20
161.165698418
 30
0.0
 40
0.609336
 50
0.0
 51
90.0
  0
ARC
  8
0
  6
CONTINUOUS
 62
     1
 10
103.487197568
 20
145.932298418
 30
0.0
 40
0.609336
 50
270.0
 51
0.0
  0
LINE
  8
0
  6
CONTINUOUS
 62
     1
 10
107.295547568
 20
165.248249618
 30
0.0
 11
107.295547568
 21
162.567171218
 31
0.0
  0
LINE
  8
0
  6
CONTINUOUS
 62
     1
 10
101.567789168
 20
166.345054418
 30
0.0
 11
106.929945968
 21
166.345054418
 31
0.0
  0
LINE
  8
0
  6
CONTINUOUS
 62
     1
 10
107.295547568
 20
116.257635218
 30
0.0
 11
107.295547568
 21
162.567171218
 31
0.0
  0
LINE
  8
0
  6
CONTINUOUS
 62
     1
 10
101.567789168
 20
115.160830418
 30
0.0
 11
106.929945968
 21
115.160830418
 31
0.0
  0
LINE
  8
0
  6
CONTINUOUS
 62
     1
 10
106.929945968
 20
115.160830418
 30
0.0
 11
101.567789168
 21
115.160830418
 31
0.0
  0
LINE
  8
0
  6
CONTINUOUS
 62
     1
 10
83.013507968
 20
166.345054418
 30
0.0
 11
84.475914368
 21
166.345054418
 31
0.0
  0
LINE
  8
0
  6
CONTINUOUS
 62
     1
 10
83.013507968
 20
115.160830418
 30
0.0
 11
84.475914368
 21
115.160830418
 31
0.0
  0
LINE
  8
0
  6
CONTINUOUS
 62
     1
 10
103.487197568
 20
154.767670418
 30
0.0
 11
101.171720768
 21
154.767670418
 31
0.0
  0
LINE
  8
0
  6
CONTINUOUS
 62
     1
 10
103.517664368
 20
152.330326418
 30
0.0
 11
101.202187568
 21
152.330326418
 31
0.0
  0
LINE
  8
0
  6
CONTINUOUS
 62
     1
 10
104.096533568
 20
161.165698418
 30
0.0
 11
104.096533568
 21
155.377008061
 31
0.0
  0
ARC
  8
0
  6
CONTINUOUS
 62
     1
 10
103.487197568
 20
155.377006418
 30
0.0
 40
0.609336
 50
270.0
 51
0.00015455
  0
ARC
  8
0
  6
CONTINUOUS
 62
     1
 10
103.517664368
 20
151.720990418
 30
0.0
 40
0.609336
 50
18.194872339
 51
90.0
  0
LINE
  8
0
  6
CONTINUOUS
 62
     1
 10
104.096533568
 20
151.911255523
 30
0.0
 11
104.096533568
 21
145.932298418
 31
0.0
  0
LINE
  8
0
  6
CONTINUOUS
 62
     1
 10
103.487197568
 20
154.767670418
 30
0.0
 11
100.958453168
 21
154.767670418
 31
0.0
  0
LINE
  8
0
  6
CONTINUOUS
 62
     1
 10
103.517664368
 20
152.330326418
 30
0.0
 11
100.958453168
 21
152.330326418
 31
0.0
  0
LINE
  8
0
  6
CONTINUOUS
 62
     1
 10
100.958453168
 20
165.248249618
 30
0.0
 11
107.295547568
 21
165.248249618
 31
0.0
  0
LINE
  8
0
  6
CONTINUOUS
 62
     1
 10
100.958453168
 20
162.993706418
 30
0.0
 11
100.958453168
 21
165.248249618
 31
0.0
  0
LINE
  8
0
  6
CONTINUOUS
 62
     1
 10
100.958453168
 20
116.257635218
 30
0.0
 11
107.295547568
 21
116.257635218
 31
0.0
  0
LINE
  8
0
  6
CONTINUOUS
 62
     1
 10
84.475914368
 20
166.345054418
 30
0.0
 11
84.475914368
 21
167.929328018
 31
0.0
  0
LINE
  8
0
  6
CONTINUOUS
 62
     1
 10
83.013507968
 20
167.929328018
 30
0.0
 11
83.013507968
 21
166.345054418
 31
0.0
  0
LINE
  8
0
  6
CONTINUOUS
 62
     1
 10
101.567789168
 20
166.345054418
 30
0.0
 11
101.567789168
 21
167.929328018
 31
0.0
  0
LINE
  8
0
  6
CONTINUOUS
 62
     1
 10
106.929945968
 20
166.345054418
 30
0.0
 11
106.929945968
 21
167.929328018
 31
0.0
  0
LINE
  8
0
  6
CONTINUOUS
 62
     1
 10
106.929945968
 20
115.160830418
 30
0.0
 11
106.929945968
 21
113.576556818
 31
0.0
  0
LINE
  8
0
  6
CONTINUOUS
 62
     1
 10
101.567789168
 20
115.160830418
 30
0.0
 11
101.567789168
 21
113.576556818
 31
0.0
  0
LINE
  8
0
  6
CONTINUOUS
 62
     1
 10
84.475914368
 20
115.160830418
 30
0.0
 11
84.475914368
 21
113.576556818
 31
0.0
  0
LINE
  8
0
  6
CONTINUOUS
 62
     1
 10
83.013507968
 20
113.576556818
 30
0.0
 11
83.013507968
 21
115.160830418
 31
0.0
  0
LINE
  8
0
  6
CONTINUOUS
 62
     1
 10
101.384988368
 20
162.993706418
 30
0.0
 11
101.384988368
 21
161.409432818
 31
0.0
  0
LINE
  8
0
  6
CONTINUOUS
 62
     1
 10
99.831181568
 20
161.409432818
 30
0.0
 11
101.384988368
 21
161.409432818
 31
0.0
  0
LINE
  8
0
  6
CONTINUOUS
 62
     1
 10
103.487197568
 20
161.775034418
 30
0.0
 11
101.384988368
 21
161.775034418
 31
0.0
  0
LINE
  8
0
  6
CONTINUOUS
 62
     1
 10
99.587447168
 20
165.857585618
 30
0.0
 11
85.694586368
 21
165.857585618
 31
0.0
  0
LINE
  8
0
  6
CONTINUOUS
 62
     1
 10
99.587447168
 20
158.301819218
 30
0.0
 11
85.694586368
 21
158.301819218
 31
0.0
  0
LINE
  8
0
  6
CONTINUOUS
 62
     1
 10
93.006618368
 20
159.642358418
 30
0.0
 11
93.615954368
 21
159.642358418
 31
0.0
  0
LINE
  8
0
  6
CONTINUOUS
 62
     1
 10
93.615954368
 20
161.470366418
 30
0.0
 11
95.443962368
 21
161.470366418
 31
0.0
  0
LINE
  8
0
  6
CONTINUOUS
 62
     1
 10
93.615954368
 20
159.642358418
 30
0.0
 11
93.615954368
 21
161.470366418
 31
0.0
  0
LINE
  8
0
  6
CONTINUOUS
 62
     1
 10
93.615954368
 20
164.517046418
 30
0.0
 11
92.397282368
 21
164.517046418
 31
0.0
  0
LINE
  8
0
  6
CONTINUOUS
 62
     1
 10
95.443962368
 20
162.689038418
 30
0.0
 11
93.615954368
 21
162.689038418
 31
0.0
  0
LINE
  8
0
  6
CONTINUOUS
 62
     1
 10
92.397282368
 20
162.689038418
 30
0.0
 11
90.569274368
 21
162.689038418
 31
0.0
  0
LINE
  8
0
  6
CONTINUOUS
 62
     1
 10
95.443962368
 20
161.470366418
 30
0.0
 11
95.443962368
 21
162.689038418
 31
0.0
  0
LINE
  8
0
  6
CONTINUOUS
 62
     1
 10
93.615954368
 20
162.689038418
 30
0.0
 11
93.615954368
 21
164.517046418
 31
0.0
  0
LINE
  8
0
  6
CONTINUOUS
 62
     1
 10
92.397282368
 20
164.517046418
 30
0.0
 11
92.397282368
 21
162.689038418
 31
0.0
  0
LINE
  8
0
  6
CONTINUOUS
 62
     1
 10
92.397282368
 20
159.642358418
 30
0.0
 11
93.006618368
 21
159.642358418
 31
0.0
  0
LINE
  8
0
  6
CONTINUOUS
 62
     1
 10
90.569274368
 20
161.470366418
 30
0.0
 11
92.397282368
 21
161.470366418
 31
0.0
  0
LINE
  8
0
  6
CONTINUOUS
 62
     1
 10
92.397282368
 20
161.470366418
 30
0.0
 11
92.397282368
 21
159.642358418
 31
0.0
  0
CIRCLE
  8
0
  6
CONTINUOUS
 62
     1
 10
93.006618368
 20
162.079702418
 30
0.0
 40
3.4122816
  0
LINE
  8
0
  6
CONTINUOUS
 62
     1
 10
90.569274368
 20
162.689038418
 30
0.0
 11
90.569274368
 21
161.470366418
 31
0.0
  0
LINE
  8
0
  6
CONTINUOUS
 62
     1
 10
95.443962368
 20
154.158334418
 30
0.0
 11
93.615954368
 21
154.158334418
 31
0.0
  0
LINE
  8
0
  6
CONTINUOUS
 62
     1
 10
92.397282368
 20
154.158334418
 30
0.0
 11
90.569274368
 21
154.158334418
 31
0.0
  0
LINE
  8
0
  6
CONTINUOUS
 62
     1
 10
93.615954368
 20
155.986342418
 30
0.0
 11
92.397282368
 21
155.986342418
 31
0.0
  0
LINE
  8
0
  6
CONTINUOUS
 62
     1
 10
93.615954368
 20
154.158334418
 30
0.0
 11
93.615954368
 21
155.986342418
 31
0.0
  0
LINE
  8
0
  6
CONTINUOUS
 62
     1
 10
92.397282368
 20
155.986342418
 30
0.0
 11
92.397282368
 21
154.158334418
 31
0.0
  0
LINE
  8
0
  6
CONTINUOUS
 62
     1
 10
93.615954368
 20
152.939662418
 30
0.0
 11
95.443962368
 21
152.939662418
 31
0.0
  0
LINE
  8
0
  6
CONTINUOUS
 62
     1
 10
90.569274368
 20
152.939662418
 30
0.0
 11
92.397282368
 21
152.939662418
 31
0.0
  0
LINE
  8
0
  6
CONTINUOUS
 62
     1
 10
95.443962368
 20
152.939662418
 30
0.0
 11
95.443962368
 21
154.158334418
 31
0.0
  0
LINE
  8
0
  6
CONTINUOUS
 62
     1
 10
99.587447168
 20
157.326881618
 30
0.0
 11
85.694586368
 21
157.326881618
 31
0.0
  0
LINE
  8
0
  6
CONTINUOUS
 62
     1
 10
99.831181568
 20
140.752942418
 30
0.0
 11
99.831181568
 21
167.076257618
 31
0.0
  0
LINE
  8
0
  6
CONTINUOUS
 62
     1
 10
101.384988368
 20
145.688564018
 30
0.0
 11
101.384988368
 21
144.104290418
 31
0.0
  0
LINE
  8
0
  6
CONTINUOUS
 62
     1
 10
103.487197568
 20
145.322962418
 30
0.0
 11
101.384988368
 21
145.322962418
 31
0.0
  0
LINE
  8
0
  6
CONTINUOUS
 62
     1
 10
100.958453168
 20
145.688564018
 30
0.0
 11
100.958453168
 21
161.409432818
 31
0.0
  0
LINE
  8
0
  6
CONTINUOUS
 62
     1
 10
101.384988368
 20
145.688564018
 30
0.0
 11
99.831181568
 21
145.688564018
 31
0.0
  0
LINE
  8
0
  6
CONTINUOUS
 62
     1
 10
93.006618368
 20
142.580950418
 30
0.0
 11
93.615954368
 21
142.580950418
 31
0.0
  0
LINE
  8
0
  6
CONTINUOUS
 62
     1
 10
92.397282368
 20
142.580950418
 30
0.0
 11
93.006618368
 21
142.580950418
 31
0.0
  0
LINE
  8
0
  6
CONTINUOUS
 62
     1
 10
95.443962368
 20
145.627630418
 30
0.0
 11
93.615954368
 21
145.627630418
 31
0.0
  0
LINE
  8
0
  6
CONTINUOUS
 62
     1
 10
92.397282368
 20
145.627630418
 30
0.0
 11
90.569274368
 21
145.627630418
 31
0.0
  0
LINE
  8
0
  6
CONTINUOUS
 62
     1
 10
93.615954368
 20
147.455638418
 30
0.0
 11
92.397282368
 21
147.455638418
 31
0.0
  0
LINE
  8
0
  6
CONTINUOUS
 62
     1
 10
93.615954368
 20
145.627630418
 30
0.0
 11
93.615954368
 21
147.455638418
 31
0.0
  0
LINE
  8
0
  6
CONTINUOUS
 62
     1
 10
92.397282368
 20
147.455638418
 30
0.0
 11
92.397282368
 21
145.627630418
 31
0.0
  0
LINE
  8
0
  6
CONTINUOUS
 62
     1
 10
93.615954368
 20
144.408958418
 30
0.0
 11
95.443962368
 21
144.408958418
 31
0.0
  0
LINE
  8
0
  6
CONTINUOUS
 62
     1
 10
90.569274368
 20
144.408958418
 30
0.0
 11
92.397282368
 21
144.408958418
 31
0.0
  0
LINE
  8
0
  6
CONTINUOUS
 62
     1
 10
93.615954368
 20
142.580950418
 30
0.0
 11
93.615954368
 21
144.408958418
 31
0.0
  0
LINE
  8
0
  6
CONTINUOUS
 62
     1
 10
92.397282368
 20
144.408958418
 30
0.0
 11
92.397282368
 21
142.580950418
 31
0.0
  0
LINE
  8
0
  6
CONTINUOUS
 62
     1
 10
95.443962368
 20
144.408958418
 30
0.0
 11
95.443962368
 21
145.627630418
 31
0.0
  0
LINE
  8
0
  6
CONTINUOUS
 62
     1
 10
90.569274368
 20
145.627630418
 30
0.0
 11
90.569274368
 21
144.408958418
 31
0.0
  0
CIRCLE
  8
0
  6
CONTINUOUS
 62
     1
 10
93.006618368
 20
145.018294418
 30
0.0
 40
3.4122816
  0
LINE
  8
0
  6
CONTINUOUS
 62
     1
 10
99.587447168
 20
141.240411218
 30
0.0
 11
85.694586368
 21
141.240411218
 31
0.0
  0
LINE
  8
0
  6
CONTINUOUS
 62
     1
 10
99.587447168
 20
148.796177618
 30
0.0
 11
85.694586368
 21
148.796177618
 31
0.0
  0
LINE
  8
0
  6
CONTINUOUS
 62
     1
 10
93.006618368
 20
151.111654418
 30
0.0
 11
93.615954368
 21
151.111654418
 31
0.0
  0
LINE
  8
0
  6
CONTINUOUS
 62
     1
 10
92.397282368
 20
151.111654418
 30
0.0
 11
93.006618368
 21
151.111654418
 31
0.0
  0
LINE
  8
0
  6
CONTINUOUS
 62
     1
 10
99.587447168
 20
149.771115218
 30
0.0
 11
85.694586368
 21
149.771115218
 31
0.0
  0
LINE
  8
0
  6
CONTINUOUS
 62
     1
 10
93.006618368
 20
138.924934418
 30
0.0
 11
93.615954368
 21
138.924934418
 31
0.0
  0
LINE
  8
0
  6
CONTINUOUS
 62
     1
 10
92.397282368
 20
138.924934418
 30
0.0
 11
93.006618368
 21
138.924934418
 31
0.0
  0
LINE
  8
0
  6
CONTINUOUS
 62
     1
 10
95.443962368
 20
135.878254418
 30
0.0
 11
93.615954368
 21
135.878254418
 31
0.0
  0
LINE
  8
0
  6
CONTINUOUS
 62
     1
 10
92.397282368
 20
135.878254418
 30
0.0
 11
90.569274368
 21
135.878254418
 31
0.0
  0
LINE
  8
0
  6
CONTINUOUS
 62
     1
 10
93.615954368
 20
134.050246418
 30
0.0
 11
92.397282368
 21
134.050246418
 31
0.0
  0
LINE
  8
0
  6
CONTINUOUS
 62
     1
 10
93.615954368
 20
135.878254418
 30
0.0
 11
93.615954368
 21
134.050246418
 31
0.0
  0
LINE
  8
0
  6
CONTINUOUS
 62
     1
 10
92.397282368
 20
134.050246418
 30
0.0
 11
92.397282368
 21
135.878254418
 31
0.0
  0
LINE
  8
0
  6
CONTINUOUS
 62
     1
 10
93.615954368
 20
137.096926418
 30
0.0
 11
95.443962368
 21
137.096926418
 31
0.0
  0
LINE
  8
0
  6
CONTINUOUS
 62
     1
 10
90.569274368
 20
137.096926418
 30
0.0
 11
92.397282368
 21
137.096926418
 31
0.0
  0
LINE
  8
0
  6
CONTINUOUS
 62
     1
 10
93.615954368
 20
138.924934418
 30
0.0
 11
93.615954368
 21
137.096926418
 31
0.0
  0
LINE
  8
0
  6
CONTINUOUS
 62
     1
 10
92.397282368
 20
137.096926418
 30
0.0
 11
92.397282368
 21
138.924934418
 31
0.0
  0
LINE
  8
0
  6
CONTINUOUS
 62
     1
 10
95.443962368
 20
137.096926418
 30
0.0
 11
95.443962368
 21
135.878254418
 31
0.0
  0
LINE
  8
0
  6
CONTINUOUS
 62
     1
 10
90.569274368
 20
135.878254418
 30
0.0
 11
90.569274368
 21
137.096926418
 31
0.0
  0
CIRCLE
  8
0
  6
CONTINUOUS
 62
     1
 10
93.006618368
 20
136.487590418
 30
0.0
 40
3.4122816
  0
LINE
  8
0
  6
CONTINUOUS
 62
     1
 10
99.587447168
 20
140.265473618
 30
0.0
 11
85.694586368
 21
140.265473618
 31
0.0
  0
LINE
  8
0
  6
CONTINUOUS
 62
     1
 10
93.615954368
 20
151.111654418
 30
0.0
 11
93.615954368
 21
152.939662418
 31
0.0
  0
LINE
  8
0
  6
CONTINUOUS
 62
     1
 10
92.397282368
 20
152.939662418
 30
0.0
 11
92.397282368
 21
151.111654418
 31
0.0
  0
CIRCLE
  8
0
  6
CONTINUOUS
 62
     1
 10
93.006618368
 20
153.548998418
 30
0.0
 40
3.4122816
  0
LINE
  8
0
  6
CONTINUOUS
 62
     1
 10
93.006618368
 20
130.394230418
 30
0.0
 11
93.615954368
 21
130.394230418
 31
0.0
  0
LINE
  8
0
  6
CONTINUOUS
 62
     1
 10
92.397282368
 20
130.394230418
 30
0.0
 11
93.006618368
 21
130.394230418
 31
0.0
  0
LINE
  8
0
  6
CONTINUOUS
 62
     1
 10
95.443962368
 20
127.347550418
 30
0.0
 11
93.615954368
 21
127.347550418
 31
0.0
  0
LINE
  8
0
  6
CONTINUOUS
 62
     1
 10
92.397282368
 20
127.347550418
 30
0.0
 11
90.569274368
 21
127.347550418
 31
0.0
  0
LINE
  8
0
  6
CONTINUOUS
 62
     1
 10
93.615954368
 20
125.519542418
 30
0.0
 11
92.397282368
 21
125.519542418
 31
0.0
  0
LINE
  8
0
  6
CONTINUOUS
 62
     1
 10
93.615954368
 20
127.347550418
 30
0.0
 11
93.615954368
 21
125.519542418
 31
0.0
  0
LINE
  8
0
  6
CONTINUOUS
 62
     1
 10
92.397282368
 20
125.519542418
 30
0.0
 11
92.397282368
 21
127.347550418
 31
0.0
  0
LINE
  8
0
  6
CONTINUOUS
 62
     1
 10
93.615954368
 20
128.566222418
 30
0.0
 11
95.443962368
 21
128.566222418
 31
0.0
  0
LINE
  8
0
  6
CONTINUOUS
 62
     1
 10
90.569274368
 20
128.566222418
 30
0.0
 11
92.397282368
 21
128.566222418
 31
0.0
  0
LINE
  8
0
  6
CONTINUOUS
 62
     1
 10
93.615954368
 20
130.394230418
 30
0.0
 11
93.615954368
 21
128.566222418
 31
0.0
  0
LINE
  8
0
  6
CONTINUOUS
 62
     1
 10
92.397282368
 20
128.566222418
 30
0.0
 11
92.397282368
 21
130.394230418
 31
0.0
  0
LINE
  8
0
  6
CONTINUOUS
 62
     1
 10
95.443962368
 20
128.566222418
 30
0.0
 11
95.443962368
 21
127.347550418
 31
0.0
  0
LINE
  8
0
  6
CONTINUOUS
 62
     1
 10
90.569274368
 20
127.347550418
 30
0.0
 11
90.569274368
 21
128.566222418
 31
0.0
  0
LINE
  8
0
  6
CONTINUOUS
 62
     1
 10
99.587447168
 20
124.179003218
 30
0.0
 11
85.694586368
 21
124.179003218
 31
0.0
  0
LINE
  8
0
  6
CONTINUOUS
 62
     1
 10
99.587447168
 20
123.204065618
 30
0.0
 11
85.694586368
 21
123.204065618
 31
0.0
  0
LINE
  8
0
  6
CONTINUOUS
 62
     1
 10
99.831181568
 20
114.429627218
 30
0.0
 11
99.831181568
 21
140.752942418
 31
0.0
  0
LINE
  8
0
  6
CONTINUOUS
 62
     1
 10
99.587447168
 20
132.709707218
 30
0.0
 11
85.694586368
 21
132.709707218
 31
0.0
  0
CIRCLE
  8
0
  6
CONTINUOUS
 62
     1
 10
93.006618368
 20
127.956886418
 30
0.0
 40
3.4122816
  0
LINE
  8
0
  6
CONTINUOUS
 62
     1
 10
99.587447168
 20
131.734769618
 30
0.0
 11
85.694586368
 21
131.734769618
 31
0.0
  0
LINE
  8
0
  6
CONTINUOUS
 62
     1
 10
99.587447168
 20
114.429627218
 30
0.0
 11
99.587447168
 21
167.076257618
 31
0.0
  0
LINE
  8
0
  6
CONTINUOUS
 62
     1
 10
93.006618368
 20
121.863526418
 30
0.0
 11
93.615954368
 21
121.863526418
 31
0.0
  0
LINE
  8
0
  6
CONTINUOUS
 62
     1
 10
92.397282368
 20
121.863526418
 30
0.0
 11
93.006618368
 21
121.863526418
 31
0.0
  0
LINE
  8
0
  6
CONTINUOUS
 62
     1
 10
95.443962368
 20
118.816846418
 30
0.0
 11
93.615954368
 21
118.816846418
 31
0.0
  0
LINE
  8
0
  6
CONTINUOUS
 62
     1
 10
92.397282368
 20
118.816846418
 30
0.0
 11
90.569274368
 21
118.816846418
 31
0.0
  0
LINE
  8
0
  6
CONTINUOUS
 62
     1
 10
93.615954368
 20
120.035518418
 30
0.0
 11
95.443962368
 21
120.035518418
 31
0.0
  0
LINE
  8
0
  6
CONTINUOUS
 62
     1
 10
90.569274368
 20
120.035518418
 30
0.0
 11
92.397282368
 21
120.035518418
 31
0.0
  0
LINE
  8
0
  6
CONTINUOUS
 62
     1
 10
93.615954368
 20
121.863526418
 30
0.0
 11
93.615954368
 21
120.035518418
 31
0.0
  0
LINE
  8
0
  6
CONTINUOUS
 62
     1
 10
92.397282368
 20
120.035518418
 30
0.0
 11
92.397282368
 21
121.863526418
 31
0.0
  0
LINE
  8
0
  6
CONTINUOUS
 62
     1
 10
95.443962368
 20
120.035518418
 30
0.0
 11
95.443962368
 21
118.816846418
 31
0.0
  0
LINE
  8
0
  6
CONTINUOUS
 62
     1
 10
90.569274368
 20
118.816846418
 30
0.0
 11
90.569274368
 21
120.035518418
 31
0.0
  0
CIRCLE
  8
0
  6
CONTINUOUS
 62
     1
 10
93.006618368
 20
119.426182418
 30
0.0
 40
3.4122816
  0
LINE
  8
0
  6
CONTINUOUS
 62
     1
 10
85.694586368
 20
114.429627218
 30
0.0
 11
85.694586368
 21
167.076257618
 31
0.0
  0
LINE
  8
0
  6
CONTINUOUS
 62
     1
 10
85.694586368
 20
165.857585618
 30
0.0
 11
85.694586368
 21
115.648299218
 31
0.0
  0
LINE
  8
0
  6
CONTINUOUS
 62
     1
 10
93.615954368
 20
116.988838418
 30
0.0
 11
92.397282368
 21
116.988838418
 31
0.0
  0
LINE
  8
0
  6
CONTINUOUS
 62
     1
 10
93.615954368
 20
118.816846418
 30
0.0
 11
93.615954368
 21
116.988838418
 31
0.0
  0
LINE
  8
0
  6
CONTINUOUS
 62
     1
 10
92.397282368
 20
116.988838418
 30
0.0
 11
92.397282368
 21
118.816846418
 31
0.0
  0
LINE
  8
0
  6
CONTINUOUS
 62
     1
 10
105.315205568
 20
162.993706418
 30
0.0
 11
100.958453168
 21
162.993706418
 31
0.0
  0
LINE
  8
0
  6
CONTINUOUS
 62
     1
 10
100.958453168
 20
144.104290418
 30
0.0
 11
105.315205568
 21
144.104290418
 31
0.0
  0
LINE
  8
0
  6
CONTINUOUS
 62
     1
 10
100.958453168
 20
116.257635218
 30
0.0
 11
100.958453168
 21
144.104290418
 31
0.0
  0
LINE
  8
0
  6
CONTINUOUS
 62
     1
 10
121.894402832
 20
167.139972782
 30
0.0
 11
126.830024432
 21
167.139972782
 31
0.0
  0
LINE
  8
0
  6
CONTINUOUS
 62
     1
 10
112.693429232
 20
167.139972782
 30
0.0
 11
126.830024432
 21
167.139972782
 31
0.0
  0
LINE
  8
0
  6
CONTINUOUS
 62
     1
 10
112.693429232
 20
116.321350382
 30
0.0
 11
112.693429232
 21
116.443217582
 31
0.0
  0
LINE
  8
0
  6
CONTINUOUS
 62
     1
 10
112.693429232
 20
114.493342382
 30
0.0
 11
112.693429232
 21
167.139972782
 31
0.0
  0
LINE
  8
0
  6
CONTINUOUS
 62
     1
 10
126.830024432
 20
140.816657582
 30
0.0
 11
126.830024432
 21
167.139972782
 31
0.0
  0
LINE
  8
0
  6
CONTINUOUS
 62
     1
 10
132.314048432
 20
163.057421582
 30
0.0
 11
132.314048432
 21
144.168005582
 31
0.0
  0
LINE
  8
0
  6
CONTINUOUS
 62
     1
 10
126.830024432
 20
114.493342382
 30
0.0
 11
126.830024432
 21
140.816657582
 31
0.0
  0
ARC
  8
0
  6
CONTINUOUS
 62
     1
 10
130.486040432
 20
161.229413582
 30
0.0
 40
0.609336
 50
0.0
 51
90.0
  0
ARC
  8
0
  6
CONTINUOUS
 62
     1
 10
130.486040432
 20
145.996013582
 30
0.0
 40
0.609336
 50
270.0
 51
0.0
  0
LINE
  8
0
  6
CONTINUOUS
 62
     1
 10
134.294390432
 20
165.311964782
 30
0.0
 11
134.294390432
 21
162.630886382
 31
0.0
  0
LINE
  8
0
  6
CONTINUOUS
 62
     1
 10
128.566632032
 20
166.408769582
 30
0.0
 11
133.928788832
 21
166.408769582
 31
0.0
  0
LINE
  8
0
  6
CONTINUOUS
 62
     1
 10
134.294390432
 20
116.321350382
 30
0.0
 11
134.294390432
 21
162.630886382
 31
0.0
  0
LINE
  8
0
  6
CONTINUOUS
 62
     1
 10
128.566632032
 20
115.224545582
 30
0.0
 11
133.928788832
 21
115.224545582
 31
0.0
  0
LINE
  8
0
  6
CONTINUOUS
 62
     1
 10
133.928788832
 20
115.224545582
 30
0.0
 11
128.566632032
 21
115.224545582
 31
0.0
  0
LINE
  8
0
  6
CONTINUOUS
 62
     1
 10
110.012350832
 20
166.408769582
 30
0.0
 11
111.474757232
 21
166.408769582
 31
0.0
  0
LINE
  8
0
  6
CONTINUOUS
 62
     1
 10
110.012350832
 20
115.224545582
 30
0.0
 11
111.474757232
 21
115.224545582
 31
0.0
  0
LINE
  8
0
  6
CONTINUOUS
 62
     1
 10
130.486040432
 20
154.831385582
 30
0.0
 11
128.170563632
 21
154.831385582
 31
0.0
  0
LINE
  8
0
  6
CONTINUOUS
 62
     1
 10
130.516507232
 20
152.394041582
 30
0.0
 11
128.201030432
 21
152.394041582
 31
0.0
  0
LINE
  8
0
  6
CONTINUOUS
 62
     1
 10
131.095376432
 20
161.229413582
 30
0.0
 11
131.095376432
 21
155.440723226
 31
0.0
  0
ARC
  8
0
  6
CONTINUOUS
 62
     1
 10
130.486040432
 20
155.440721582
 30
0.0
 40
0.609336
 50
270.0
 51
0.00015455
  0
ARC
  8
0
  6
CONTINUOUS
 62
     1
 10
130.516507232
 20
151.784705582
 30
0.0
 40
0.609336
 50
18.194872339
 51
90.0
  0
LINE
  8
0
  6
CONTINUOUS
 62
     1
 10
131.095376432
 20
151.974970687
 30
0.0
 11
131.095376432
 21
145.996013582
 31
0.0
  0
LINE
  8
0
  6
CONTINUOUS
 62
     1
 10
130.486040432
 20
154.831385582
 30
0.0
 11
127.957296032
 21
154.831385582
 31
0.0
  0
LINE
  8
0
  6
CONTINUOUS
 62
     1
 10
130.516507232
 20
152.394041582
 30
0.0
 11
127.957296032
 21
152.394041582
 31
0.0
  0
LINE
  8
0
  6
CONTINUOUS
 62
     1
 10
127.957296032
 20
165.311964782
 30
0.0
 11
134.294390432
 21
165.311964782
 31
0.0
  0
LINE
  8
0
  6
CONTINUOUS
 62
     1
 10
127.957296032
 20
163.057421582
 30
0.0
 11
127.957296032
 21
165.311964782
 31
0.0
  0
LINE
  8
0
  6
CONTINUOUS
 62
     1
 10
127.957296032
 20
116.321350382
 30
0.0
 11
134.294390432
 21
116.321350382
 31
0.0
  0
LINE
  8
0
  6
CONTINUOUS
 62
     1
 10
127.957296032
 20
116.321350382
 30
0.0
 11
127.957296032
 21
144.168005582
 31
0.0
  0
LINE
  8
0
  6
CONTINUOUS
 62
     1
 10
111.474757232
 20
166.408769582
 30
0.0
 11
111.474757232
 21
167.993043182
 31
0.0
  0
LINE
  8
0
  6
CONTINUOUS
 62
     1
 10
110.012350832
 20
167.993043182
 30
0.0
 11
110.012350832
 21
166.408769582
 31
0.0
  0
LINE
  8
0
  6
CONTINUOUS
 62
     1
 10
128.566632032
 20
166.408769582
 30
0.0
 11
128.566632032
 21
167.993043182
 31
0.0
  0
LINE
  8
0
  6
CONTINUOUS
 62
     1
 10
133.928788832
 20
166.408769582
 30
0.0
 11
133.928788832
 21
167.993043182
 31
0.0
  0
LINE
  8
0
  6
CONTINUOUS
 62
     1
 10
133.928788832
 20
115.224545582
 30
0.0
 11
133.928788832
 21
113.640271982
 31
0.0
  0
LINE
  8
0
  6
CONTINUOUS
 62
     1
 10
128.566632032
 20
115.224545582
 30
0.0
 11
128.566632032
 21
113.640271982
 31
0.0
  0
LINE
  8
0
  6
CONTINUOUS
 62
     1
 10
111.474757232
 20
115.224545582
 30
0.0
 11
111.474757232
 21
113.640271982
 31
0.0
  0
LINE
  8
0
  6
CONTINUOUS
 62
     1
 10
110.012350832
 20
113.640271982
 30
0.0
 11
110.012350832
 21
115.224545582
 31
0.0
  0
LINE
  8
0
  6
CONTINUOUS
 62
     1
 10
128.383831232
 20
163.057421582
 30
0.0
 11
128.383831232
 21
161.473147982
 31
0.0
  0
LINE
  8
0
  6
CONTINUOUS
 62
     1
 10
126.830024432
 20
161.473147982
 30
0.0
 11
128.383831232
 21
161.473147982
 31
0.0
  0
LINE
  8
0
  6
CONTINUOUS
 62
     1
 10
128.383831232
 20
145.752279182
 30
0.0
 11
128.383831232
 21
144.168005582
 31
0.0
  0
LINE
  8
0
  6
CONTINUOUS
 62
     1
 10
130.486040432
 20
145.386677582
 30
0.0
 11
128.383831232
 21
145.386677582
 31
0.0
  0
LINE
  8
0
  6
CONTINUOUS
 62
     1
 10
127.957296032
 20
145.752279182
 30
0.0
 11
127.957296032
 21
161.473147982
 31
0.0
  0
LINE
  8
0
  6
CONTINUOUS
 62
     1
 10
128.383831232
 20
145.752279182
 30
0.0
 11
126.830024432
 21
145.752279182
 31
0.0
  0
LINE
  8
0
  6
CONTINUOUS
 62
     1
 10
130.486040432
 20
161.838749582
 30
0.0
 11
128.383831232
 21
161.838749582
 31
0.0
  0
LINE
  8
0
  6
CONTINUOUS
 62
     1
 10
126.8096
 20
114.4928
 30
0.0
 11
112.7144
 21
114.4928
 31
0.0
  0
LINE
  8
0
  6
CONTINUOUS
 62
     1
 10
127.92
 20
163.057421582
 30
0.0
 11
132.314048432
 21
163.057421582
 31
0.0
  0
LINE
  8
0
  6
CONTINUOUS
 62
     1
 10
132.314048432
 20
144.168005582
 30
0.0
 11
127.98
 21
144.168005582
 31
0.0
  0
LINE
  8
0
  6
CONTINUOUS
 62
     1
 10
124.9844
 20
167.274
 30
0.0
 11
124.9844
 21
114.69
 31
0.0
  0
LINE
  8
0
  6
CONTINUOUS
 62
     1
 10
116.5844
 20
114.69
 30
0.0
 11
116.5844
 21
167.274
 31
0.0
  0
CIRCLE
  8
0
  6
CONTINUOUS
 62
     1
 10
120.7844
 20
163.074
 30
0.0
 40
1.68
  0
LINE
  8
0
  6
CONTINUOUS
 62
     1
 10
119.4404
 20
163.41
 30
0.0
 11
122.1284
 21
163.41
 31
0.0
  0
LINE
  8
0
  6
CONTINUOUS
 62
     1
 10
122.1284
 20
163.41
 30
0.0
 11
122.1284
 21
162.738
 31
0.0
  0
LINE
  8
0
  6
CONTINUOUS
 62
     1
 10
122.1284
 20
162.738
 30
0.0
 11
119.4404
 21
162.738
 31
0.0
  0
LINE
  8
0
  6
CONTINUOUS
 62
     1
 10
119.4404
 20
162.738
 30
0.0
 11
119.4404
 21
163.41
 31
0.0
  0
CIRCLE
  8
0
  6
CONTINUOUS
 62
     1
 10
120.7844
 20
158.034
 30
0.0
 40
1.68
  0
LINE
  8
0
  6
CONTINUOUS
 62
     1
 10
119.4404
 20
158.37
 30
0.0
 11
122.1284
 21
158.37
 31
0.0
  0
LINE
  8
0
  6
CONTINUOUS
 62
     1
 10
122.1284
 20
158.37
 30
0.0
 11
122.1284
 21
157.698
 31
0.0
  0
LINE
  8
0
  6
CONTINUOUS
 62
     1
 10
122.1284
 20
157.698
 30
0.0
 11
119.4404
 21
157.698
 31
0.0
  0
LINE
  8
0
  6
CONTINUOUS
 62
     1
 10
119.4404
 20
157.698
 30
0.0
 11
119.4404
 21
158.37
 31
0.0
  0
CIRCLE
  8
0
  6
CONTINUOUS
 62
     1
 10
120.7844
 20
152.994
 30
0.0
 40
1.68
  0
LINE
  8
0
  6
CONTINUOUS
 62
     1
 10
119.4404
 20
153.33
 30
0.0
 11
122.1284
 21
153.33
 31
0.0
  0
LINE
  8
0
  6
CONTINUOUS
 62
     1
 10
122.1284
 20
153.33
 30
0.0
 11
122.1284
 21
152.658
 31
0.0
  0
LINE
  8
0
  6
CONTINUOUS
 62
     1
 10
122.1284
 20
152.658
 30
0.0
 11
119.4404
 21
152.658
 31
0.0
  0
LINE
  8
0
  6
CONTINUOUS
 62
     1
 10
119.4404
 20
152.658
 30
0.0
 11
119.4404
 21
153.33
 31
0.0
  0
CIRCLE
  8
0
  6
CONTINUOUS
 62
     1
 10
120.7844
 20
147.954
 30
0.0
 40
1.68
  0
LINE
  8
0
  6
CONTINUOUS
 62
     1
 10
119.4404
 20
148.29
 30
0.0
 11
122.1284
 21
148.29
 31
0.0
  0
LINE
  8
0
  6
CONTINUOUS
 62
     1
 10
122.1284
 20
148.29
 30
0.0
 11
122.1284
 21
147.618
 31
0.0
  0
LINE
  8
0
  6
CONTINUOUS
 62
     1
 10
122.1284
 20
147.618
 30
0.0
 11
119.4404
 21
147.618
 31
0.0
  0
LINE
  8
0
  6
CONTINUOUS
 62
     1
 10
119.4404
 20
147.618
 30
0.0
 11
119.4404
 21
148.29
 31
0.0
  0
CIRCLE
  8
0
  6
CONTINUOUS
 62
     1
 10
120.7844
 20
142.914
 30
0.0
 40
1.68
  0
LINE
  8
0
  6
CONTINUOUS
 62
     1
 10
119.4404
 20
143.25
 30
0.0
 11
122.1284
 21
143.25
 31
0.0
  0
LINE
  8
0
  6
CONTINUOUS
 62
     1
 10
122.1284
 20
143.25
 30
0.0
 11
122.1284
 21
142.578
 31
0.0
  0
LINE
  8
0
  6
CONTINUOUS
 62
     1
 10
122.1284
 20
142.578
 30
0.0
 11
119.4404
 21
142.578
 31
0.0
  0
LINE
  8
0
  6
CONTINUOUS
 62
     1
 10
119.4404
 20
142.578
 30
0.0
 11
119.4404
 21
143.25
 31
0.0
  0
CIRCLE
  8
0
  6
CONTINUOUS
 62
     1
 10
120.7844
 20
137.874
 30
0.0
 40
1.68
  0
LINE
  8
0
  6
CONTINUOUS
 62
     1
 10
119.4404
 20
138.21
 30
0.0
 11
122.1284
 21
138.21
 31
0.0
  0
LINE
  8
0
  6
CONTINUOUS
 62
     1
 10
122.1284
 20
138.21
 30
0.0
 11
122.1284
 21
137.538
 31
0.0
  0
LINE
  8
0
  6
CONTINUOUS
 62
     1
 10
122.1284
 20
137.538
 30
0.0
 11
119.4404
 21
137.538
 31
0.0
  0
LINE
  8
0
  6
CONTINUOUS
 62
     1
 10
119.4404
 20
137.538
 30
0.0
 11
119.4404
 21
138.21
 31
0.0
  0
CIRCLE
  8
0
  6
CONTINUOUS
 62
     1
 10
120.7844
 20
132.834
 30
0.0
 40
1.68
  0
LINE
  8
0
  6
CONTINUOUS
 62
     1
 10
119.4404
 20
133.17
 30
0.0
 11
122.1284
 21
133.17
 31
0.0
  0
LINE
  8
0
  6
CONTINUOUS
 62
     1
 10
122.1284
 20
133.17
 30
0.0
 11
122.1284
 21
132.498
 31
0.0
  0
LINE
  8
0
  6
CONTINUOUS
 62
     1
 10
122.1284
 20
132.498
 30
0.0
 11
119.4404
 21
132.498
 31
0.0
  0
LINE
  8
0
  6
CONTINUOUS
 62
     1
 10
119.4404
 20
132.498
 30
0.0
 11
119.4404
 21
133.17
 31
0.0
  0
CIRCLE
  8
0
  6
CONTINUOUS
 62
     1
 10
120.7844
 20
127.794
 30
0.0
 40
1.68
  0
LINE
  8
0
  6
CONTINUOUS
 62
     1
 10
119.4404
 20
128.13
 30
0.0
 11
122.1284
 21
128.13
 31
0.0
  0
LINE
  8
0
  6
CONTINUOUS
 62
     1
 10
122.1284
 20
128.13
 30
0.0
 11
122.1284
 21
127.458
 31
0.0
  0
LINE
  8
0
  6
CONTINUOUS
 62
     1
 10
122.1284
 20
127.458
 30
0.0
 11
119.4404
 21
127.458
 31
0.0
  0
LINE
  8
0
  6
CONTINUOUS
 62
     1
 10
119.4404
 20
127.458
 30
0.0
 11
119.4404
 21
128.13
 31
0.0
  0
CIRCLE
  8
0
  6
CONTINUOUS
 62
     1
 10
120.7844
 20
122.754
 30
0.0
 40
1.68
  0
LINE
  8
0
  6
CONTINUOUS
 62
     1
 10
119.4404
 20
123.09
 30
0.0
 11
122.1284
 21
123.09
 31
0.0
  0
LINE
  8
0
  6
CONTINUOUS
 62
     1
 10
122.1284
 20
123.09
 30
0.0
 11
122.1284
 21
122.418
 31
0.0
  0
LINE
  8
0
  6
CONTINUOUS
 62
     1
 10
122.1284
 20
122.418
 30
0.0
 11
119.4404
 21
122.418
 31
0.0
  0
LINE
  8
0
  6
CONTINUOUS
 62
     1
 10
119.4404
 20
122.418
 30
0.0
 11
119.4404
 21
123.09
 31
0.0
  0
CIRCLE
  8
0
  6
CONTINUOUS
 62
     1
 10
120.7844
 20
117.714
 30
0.0
 40
1.68
  0
LINE
  8
0
  6
CONTINUOUS
 62
     1
 10
119.4404
 20
118.05
 30
0.0
 11
122.1284
 21
118.05
 31
0.0
  0
LINE
  8
0
  6
CONTINUOUS
 62
     1
 10
122.1284
 20
118.05
 30
0.0
 11
122.1284
 21
117.378
 31
0.0
  0
LINE
  8
0
  6
CONTINUOUS
 62
     1
 10
122.1284
 20
117.378
 30
0.0
 11
119.4404
 21
117.378
 31
0.0
  0
LINE
  8
0
  6
CONTINUOUS
 62
     1
 10
119.4404
 20
117.378
 30
0.0
 11
119.4404
 21
118.05
 31
0.0
  0
LINE
  8
0
  6
CONTINUOUS
 62
     1
 10
114.9044
 20
167.274
 30
0.0
 11
114.9044
 21
114.69
 31
0.0
  0
POINT
  8
0
  6
CONTINUOUS
 62
     1
 10
238.104997785
 20
182.638013017
 30
0.0
  0
POINT
  8
0
  6
CONTINUOUS
 62
     1
 10
244.104998805
 20
182.638013017
 30
0.0
  0
LINE
  8
0
  6
CONTINUOUS
 62
     1
 10
241.104998295
 20
182.638013017
 30
0.0
 11
237.6049977
 21
182.638013017
 31
0.0
  0
LINE
  8
0
  6
CONTINUOUS
 62
     1
 10
241.104998295
 20
182.638013017
 30
0.0
 11
244.60499889
 21
182.638013017
 31
0.0
  0
LINE
  8
0
  6
CONTINUOUS
 62
     1
 10
242.804998584
 20
182.638013017
 30
0.0
 11
244.104998805
 21
182.638013017
 31
0.0
  0
LINE
  8
0
  6
CONTINUOUS
 62
     1
 10
310.60501011
 20
168.638010637
 30
0.0
 11
264.105002205
 21
168.638010637
 31
0.0
  0
LINE
  8
0
  6
CONTINUOUS
 62
     1
 10
218.354994427
 20
173.638011487
 30
0.0
 11
216.104994045
 21
173.638011487
 31
0.0
  0
LINE
  8
0
  6
CONTINUOUS
 62
     1
 10
216.104994045
 20
173.638011487
 30
0.0
 11
216.204994062
 21
168.638010637
 31
0.0
  0
LINE
  8
0
  6
CONTINUOUS
 62
     1
 10
216.204994062
 20
168.638010637
 30
0.0
 11
217.6049943
 21
168.638010637
 31
0.0
  0
LINE
  8
0
  6
CONTINUOUS
 62
     1
 10
217.6049943
 20
168.638010637
 30
0.0
 11
264.105002205
 21
168.638010637
 31
0.0
  0
LINE
  8
0
  6
CONTINUOUS
 62
     1
 10
238.229997806
 20
187.638013867
 30
0.0
 11
239.229997976
 21
187.638013867
 31
0.0
  0
LINE
  8
0
  6
CONTINUOUS
 62
     1
 10
239.804998074
 20
222.638019817
 30
0.0
 11
241.104998295
 21
222.638019817
 31
0.0
  0
LINE
  8
0
  6
CONTINUOUS
 62
     1
 10
241.104998295
 20
197.138015482
 30
0.0
 11
239.804998074
 21
197.138015482
 31
0.0
  0
LINE
  8
0
  6
CONTINUOUS
 62
     1
 10
241.104998295
 20
211.138017862
 30
0.0
 11
239.804998074
 21
211.138017862
 31
0.0
  0
LINE
  8
0
  6
CONTINUOUS
 62
     1
 10
241.104998295
 20
208.638017437
 30
0.0
 11
239.804998074
 21
208.638017437
 31
0.0
  0
LINE
  8
0
  6
CONTINUOUS
 62
     1
 10
236.804997564
 20
222.638019817
 30
0.0
 11
238.104997785
 21
222.638019817
 31
0.0
  0
LINE
  8
0
  6
CONTINUOUS
 62
     1
 10
238.104997785
 20
197.138015482
 30
0.0
 11
236.804997564
 21
197.138015482
 31
0.0
  0
LINE
  8
0
  6
CONTINUOUS
 62
     1
 10
238.104997785
 20
211.138017862
 30
0.0
 11
236.804997564
 21
211.138017862
 31
0.0
  0
LINE
  8
0
  6
CONTINUOUS
 62
     1
 10
238.104997785
 20
208.638017437
 30
0.0
 11
236.804997564
 21
208.638017437
 31
0.0
  0
LINE
  8
0
  6
CONTINUOUS
 62
     1
 10
236.804997564
 20
209.88801765
 30
0.0
 11
236.804997564
 21
197.138015482
 31
0.0
  0
LINE
  8
0
  6
CONTINUOUS
 62
     1
 10
239.804998074
 20
209.88801765
 30
0.0
 11
239.804998074
 21
197.138015482
 31
0.0
  0
LINE
  8
0
  6
CONTINUOUS
 62
     1
 10
232.154996773
 20
183.638013187
 30
0.0
 11
230.854996552
 21
183.638013187
 31
0.0
  0
LINE
  8
0
  6
CONTINUOUS
 62
     1
 10
230.854996552
 20
183.638013187
 30
0.0
 11
230.854996552
 21
185.038013425
 31
0.0
  0
LINE
  8
0
  6
CONTINUOUS
 62
     1
 10
232.154996773
 20
209.88801765
 30
0.0
 11
232.154996773
 21
183.638013187
 31
0.0
  0
LINE
  8
0
  6
CONTINUOUS
 62
     1
 10
230.854996552
 20
209.88801765
 30
0.0
 11
230.854996552
 21
185.038013425
 31
0.0
  0
LINE
  8
0
  6
CONTINUOUS
 62
     1
 10
232.154996773
 20
222.638019817
 30
0.0
 11
232.154996773
 21
209.88801765
 31
0.0
  0
LINE
  8
0
  6
CONTINUOUS
 62
     1
 10
232.154996773
 20
222.638019817
 30
0.0
 11
230.854996552
 21
222.638019817
 31
0.0
  0
LINE
  8
0
  6
CONTINUOUS
 62
     1
 10
230.854996552
 20
222.638019817
 30
0.0
 11
230.854996552
 21
209.88801765
 31
0.0
  0
LINE
  8
0
  6
CONTINUOUS
 62
     1
 10
230.854996552
 20
197.138015482
 30
0.0
 11
232.154996773
 21
197.138015482
 31
0.0
  0
LINE
  8
0
  6
CONTINUOUS
 62
     1
 10
230.854996552
 20
194.638015057
 30
0.0
 11
232.154996773
 21
194.638015057
 31
0.0
  0
LINE
  8
0
  6
CONTINUOUS
 62
     1
 10
230.854996552
 20
211.138017862
 30
0.0
 11
232.154996773
 21
211.138017862
 31
0.0
  0
LINE
  8
0
  6
CONTINUOUS
 62
     1
 10
230.854996552
 20
208.638017437
 30
0.0
 11
232.154996773
 21
208.638017437
 31
0.0
  0
LINE
  8
0
  6
CONTINUOUS
 62
     1
 10
229.154996263
 20
183.638013187
 30
0.0
 11
227.854996042
 21
183.638013187
 31
0.0
  0
LINE
  8
0
  6
CONTINUOUS
 62
     1
 10
227.854996042
 20
183.638013187
 30
0.0
 11
227.854996042
 21
185.038013425
 31
0.0
  0
LINE
  8
0
  6
CONTINUOUS
 62
     1
 10
229.154996263
 20
209.88801765
 30
0.0
 11
229.154996263
 21
183.638013187
 31
0.0
  0
LINE
  8
0
  6
CONTINUOUS
 62
     1
 10
227.854996042
 20
209.88801765
 30
0.0
 11
227.854996042
 21
185.038013425
 31
0.0
  0
LINE
  8
0
  6
CONTINUOUS
 62
     1
 10
229.154996263
 20
222.638019817
 30
0.0
 11
229.154996263
 21
209.88801765
 31
0.0
  0
LINE
  8
0
  6
CONTINUOUS
 62
     1
 10
229.154996263
 20
222.638019817
 30
0.0
 11
227.854996042
 21
222.638019817
 31
0.0
  0
LINE
  8
0
  6
CONTINUOUS
 62
     1
 10
227.854996042
 20
222.638019817
 30
0.0
 11
227.854996042
 21
209.88801765
 31
0.0
  0
LINE
  8
0
  6
CONTINUOUS
 62
     1
 10
227.854996042
 20
197.138015482
 30
0.0
 11
229.154996263
 21
197.138015482
 31
0.0
  0
LINE
  8
0
  6
CONTINUOUS
 62
     1
 10
227.854996042
 20
194.638015057
 30
0.0
 11
229.154996263
 21
194.638015057
 31
0.0
  0
LINE
  8
0
  6
CONTINUOUS
 62
     1
 10
227.854996042
 20
211.138017862
 30
0.0
 11
229.154996263
 21
211.138017862
 31
0.0
  0
LINE
  8
0
  6
CONTINUOUS
 62
     1
 10
227.854996042
 20
208.638017437
 30
0.0
 11
229.154996263
 21
208.638017437
 31
0.0
  0
LINE
  8
0
  6
CONTINUOUS
 62
     1
 10
244.60499889
 20
187.638013867
 30
0.0
 11
237.6049977
 21
187.638013867
 31
0.0
  0
LINE
  8
0
  6
CONTINUOUS
 62
     1
 10
238.229997806
 20
187.638013867
 30
0.0
 11
239.229997976
 21
187.638013867
 31
0.0
  0
LINE
  8
0
  6
CONTINUOUS
 62
     1
 10
244.60499889
 20
187.638013867
 30
0.0
 11
237.6049977
 21
187.638013867
 31
0.0
  0
LINE
  8
0
  6
CONTINUOUS
 62
     1
 10
264.105002205
 20
173.638011487
 30
0.0
 11
218.354994427
 21
173.638011487
 31
0.0
  0
LINE
  8
0
  6
CONTINUOUS
 62
     1
 10
239.804998074
 20
225.138020242
 30
0.0
 11
241.104998295
 21
225.138020242
 31
0.0
  0
LINE
  8
0
  6
CONTINUOUS
 62
     1
 10
236.804997564
 20
225.138020242
 30
0.0
 11
238.104997785
 21
225.138020242
 31
0.0
  0
LINE
  8
0
  6
CONTINUOUS
 62
     1
 10
236.804997564
 20
236.638022197
 30
0.0
 11
236.804997564
 21
209.88801765
 31
0.0
  0
LINE
  8
0
  6
CONTINUOUS
 62
     1
 10
239.804998074
 20
236.638022197
 30
0.0
 11
239.804998074
 21
209.88801765
 31
0.0
  0
LINE
  8
0
  6
CONTINUOUS
 62
     1
 10
239.804998074
 20
236.638022197
 30
0.0
 11
241.104998295
 21
236.638022197
 31
0.0
  0
LINE
  8
0
  6
CONTINUOUS
 62
     1
 10
241.104998295
 20
236.638022197
 30
0.0
 11
241.104998295
 21
197.138015482
 31
0.0
  0
LINE
  8
0
  6
CONTINUOUS
 62
     1
 10
309.855009982
 20
173.638011487
 30
0.0
 11
312.105010365
 21
173.638011487
 31
0.0
  0
LINE
  8
0
  6
CONTINUOUS
 62
     1
 10
312.105010365
 20
173.638011487
 30
0.0
 11
312.005010348
 21
168.638010637
 31
0.0
  0
LINE
  8
0
  6
CONTINUOUS
 62
     1
 10
312.005010348
 20
168.638010637
 30
0.0
 11
310.60501011
 21
168.638010637
 31
0.0
  0
LINE
  8
0
  6
CONTINUOUS
 62
     1
 10
264.105002205
 20
173.638011487
 30
0.0
 11
309.855009982
 21
173.638011487
 31
0.0
  0
LINE
  8
0
  6
CONTINUOUS
 62
     1
 10
219.654994648
 20
245.638023727
 30
0.0
 11
308.555009761
 21
245.638023727
 31
0.0
  0
POINT
  8
0
  6
CONTINUOUS
 62
     1
 10
290.105006625
 20
182.638013017
 30
0.0
  0
POINT
  8
0
  6
CONTINUOUS
 62
     1
 10
284.105005605
 20
182.638013017
 30
0.0
  0
LINE
  8
0
  6
CONTINUOUS
 62
     1
 10
287.105006115
 20
182.638013017
 30
0.0
 11
290.60500671
 21
182.638013017
 31
0.0
  0
LINE
  8
0
  6
CONTINUOUS
 62
     1
 10
287.105006115
 20
182.638013017
 30
0.0
 11
283.60500552
 21
182.638013017
 31
0.0
  0
LINE
  8
0
  6
CONTINUOUS
 62
     1
 10
285.405005826
 20
182.638013017
 30
0.0
 11
284.105005605
 21
182.638013017
 31
0.0
  0
LINE
  8
0
  6
CONTINUOUS
 62
     1
 10
289.980006604
 20
187.638013867
 30
0.0
 11
288.980006434
 21
187.638013867
 31
0.0
  0
LINE
  8
0
  6
CONTINUOUS
 62
     1
 10
289.980006604
 20
187.638013867
 30
0.0
 11
288.980006434
 21
187.638013867
 31
0.0
  0
LINE
  8
0
  6
CONTINUOUS
 62
     1
 10
308.355009727
 20
250.138024491
 30
0.0
 11
309.855009982
 21
250.138024491
 31
0.0
  0
LINE
  8
0
  6
CONTINUOUS
 62
     1
 10
218.354994427
 20
250.138024491
 30
0.0
 11
219.854994682
 21
250.138024491
 31
0.0
  0
LINE
  8
0
  6
CONTINUOUS
 62
     1
 10
300.855008452
 20
230.638021177
 30
0.0
 11
293.855007262
 21
230.638021177
 31
0.0
  0
LINE
  8
0
  6
CONTINUOUS
 62
     1
 10
227.354995957
 20
230.638021177
 30
0.0
 11
233.854997062
 21
230.638021177
 31
0.0
  0
LINE
  8
0
  6
CONTINUOUS
 62
     1
 10
278.730004691
 20
230.638021177
 30
0.0
 11
271.60500348
 21
230.638021177
 31
0.0
  0
LINE
  8
0
  6
CONTINUOUS
 62
     1
 10
227.354995957
 20
230.638021177
 30
0.0
 11
227.354995957
 21
226.138020412
 31
0.0
  0
LINE
  8
0
  6
CONTINUOUS
 62
     1
 10
256.60500093
 20
230.638021177
 30
0.0
 11
249.479999719
 21
230.638021177
 31
0.0
  0
LINE
  8
0
  6
CONTINUOUS
 62
     1
 10
234.463617856
 20
230.638021177
 30
0.0
 11
227.354995957
 21
230.638021177
 31
0.0
  0
LINE
  8
0
  6
CONTINUOUS
 62
     1
 10
300.105008325
 20
233.638021687
 30
0.0
 11
300.105008325
 21
238.638022537
 31
0.0
  0
LINE
  8
0
  6
CONTINUOUS
 62
     1
 10
300.105008325
 20
238.638022537
 30
0.0
 11
300.355008367
 21
238.638022537
 31
0.0
  0
LINE
  8
0
  6
CONTINUOUS
 62
     1
 10
301.60500858
 20
238.638022537
 30
0.0
 11
300.355008367
 21
238.638022537
 31
0.0
  0
LINE
  8
0
  6
CONTINUOUS
 62
     1
 10
301.60500858
 20
233.638021687
 30
0.0
 11
300.105008325
 21
233.638021687
 31
0.0
  0
LINE
  8
0
  6
CONTINUOUS
 62
     1
 10
301.60500858
 20
233.638021687
 30
0.0
 11
301.60500858
 21
238.638022537
 31
0.0
  0
LINE
  8
0
  6
CONTINUOUS
 62
     1
 10
296.355007687
 20
233.638021687
 30
0.0
 11
296.355007687
 21
238.638022537
 31
0.0
  0
LINE
  8
0
  6
CONTINUOUS
 62
     1
 10
298.355008027
 20
233.638021687
 30
0.0
 11
296.355007687
 21
233.638021687
 31
0.0
  0
LINE
  8
0
  6
CONTINUOUS
 62
     1
 10
296.355007687
 20
238.638022537
 30
0.0
 11
298.355008027
 21
238.638022537
 31
0.0
  0
LINE
  8
0
  6
CONTINUOUS
 62
     1
 10
298.355008027
 20
233.638021687
 30
0.0
 11
298.355008027
 21
238.638022537
 31
0.0
  0
LINE
  8
0
  6
CONTINUOUS
 62
     1
 10
304.105009005
 20
188.638014037
 30
0.0
 11
306.105009345
 21
190.638014377
 31
0.0
  0
LINE
  8
0
  6
CONTINUOUS
 62
     1
 10
306.105009345
 20
223.638019987
 30
0.0
 11
306.105009345
 21
190.638014377
 31
0.0
  0
ARC
  8
0
  6
CONTINUOUS
 62
     1
 10
305.105009175
 20
223.638019987
 30
0.0
 40
1.00000017
 50
0.0
 51
90.0
  0
LINE
  8
0
  6
CONTINUOUS
 62
     1
 10
247.104999315
 20
224.638020157
 30
0.0
 11
305.105009175
 21
224.638020157
 31
0.0
  0
ARC
  8
0
  6
CONTINUOUS
 62
     1
 10
247.104999315
 20
223.638019987
 30
0.0
 40
1.00000017
 50
90.0
 51
180.0
  0
LINE
  8
0
  6
CONTINUOUS
 62
     1
 10
304.105009005
 20
188.638014037
 30
0.0
 11
247.104999315
 21
188.638014037
 31
0.0
  0
LINE
  8
0
  6
CONTINUOUS
 62
     1
 10
246.104999145
 20
223.638019987
 30
0.0
 11
246.104999145
 21
189.638014207
 31
0.0
  0
ARC
  8
0
  6
CONTINUOUS
 62
     1
 10
247.104999315
 20
189.638014207
 30
0.0
 40
1.00000017
 50
180.0
 51
270.0
  0
LINE
  8
0
  6
CONTINUOUS
 62
     1
 10
244.104998805
 20
197.138015482
 30
0.0
 11
242.804998584
 21
197.138015482
 31
0.0
  0
LINE
  8
0
  6
CONTINUOUS
 62
     1
 10
244.104998805
 20
211.138017862
 30
0.0
 11
242.804998584
 21
211.138017862
 31
0.0
  0
LINE
  8
0
  6
CONTINUOUS
 62
     1
 10
244.104998805
 20
208.638017437
 30
0.0
 11
242.804998584
 21
208.638017437
 31
0.0
  0
LINE
  8
0
  6
CONTINUOUS
 62
     1
 10
242.804998584
 20
209.88801765
 30
0.0
 11
242.804998584
 21
197.138015482
 31
0.0
  0
LINE
  8
0
  6
CONTINUOUS
 62
     1
 10
242.804998584
 20
222.638019817
 30
0.0
 11
242.804998584
 21
209.88801765
 31
0.0
  0
LINE
  8
0
  6
CONTINUOUS
 62
     1
 10
218.354994427
 20
245.638023727
 30
0.0
 11
218.354994427
 21
250.138024491
 31
0.0
  0
LINE
  8
0
  6
CONTINUOUS
 62
     1
 10
219.854994682
 20
245.638023727
 30
0.0
 11
219.854994682
 21
250.138024491
 31
0.0
  0
LINE
  8
0
  6
CONTINUOUS
 62
     1
 10
218.854994512
 20
245.638023727
 30
0.0
 11
218.354994427
 21
245.638023727
 31
0.0
  0
LINE
  8
0
  6
CONTINUOUS
 62
     1
 10
219.654994648
 20
245.638023727
 30
0.0
 11
218.854994512
 21
245.638023727
 31
0.0
  0
LINE
  8
0
  6
CONTINUOUS
 62
     1
 10
308.555009761
 20
245.638023727
 30
0.0
 11
309.855009982
 21
245.638023727
 31
0.0
  0
LINE
  8
0
  6
CONTINUOUS
 62
     1
 10
308.355009727
 20
245.638023727
 30
0.0
 11
308.355009727
 21
250.138024491
 31
0.0
  0
LINE
  8
0
  6
CONTINUOUS
 62
     1
 10
309.855009982
 20
245.638023727
 30
0.0
 11
309.855009982
 21
250.138024491
 31
0.0
  0
LINE
  8
0
  6
CONTINUOUS
 62
     1
 10
219.754994665
 20
245.638023727
 30
0.0
 11
219.754994665
 21
197.638015567
 31
0.0
  0
LINE
  8
0
  6
CONTINUOUS
 62
     1
 10
219.054994546
 20
197.638015567
 30
0.0
 11
219.754994665
 21
197.638015567
 31
0.0
  0
LINE
  8
0
  6
CONTINUOUS
 62
     1
 10
219.754994665
 20
197.638015567
 30
0.0
 11
220.154994733
 21
197.638015567
 31
0.0
  0
LINE
  8
0
  6
CONTINUOUS
 62
     1
 10
220.154994733
 20
196.638015397
 30
0.0
 11
218.354994427
 21
196.638015397
 31
0.0
  0
LINE
  8
0
  6
CONTINUOUS
 62
     1
 10
218.354994427
 20
188.638014037
 30
0.0
 11
220.154994733
 21
188.638014037
 31
0.0
  0
LINE
  8
0
  6
CONTINUOUS
 62
     1
 10
220.154994733
 20
191.88801459
 30
0.0
 11
218.354994427
 21
191.88801459
 31
0.0
  0
LINE
  8
0
  6
CONTINUOUS
 62
     1
 10
220.154994733
 20
188.638014037
 30
0.0
 11
220.154994733
 21
191.88801459
 31
0.0
  0
LINE
  8
0
  6
CONTINUOUS
 62
     1
 10
220.154994733
 20
193.388014845
 30
0.0
 11
220.154994733
 21
196.638015397
 31
0.0
  0
LINE
  8
0
  6
CONTINUOUS
 62
     1
 10
220.154994733
 20
193.388014845
 30
0.0
 11
218.354994427
 21
193.388014845
 31
0.0
  0
LINE
  8
0
  6
CONTINUOUS
 62
     1
 10
308.455009744
 20
245.638023727
 30
0.0
 11
308.455009744
 21
197.638015567
 31
0.0
  0
LINE
  8
0
  6
CONTINUOUS
 62
     1
 10
309.155009863
 20
197.638015567
 30
0.0
 11
308.455009744
 21
197.638015567
 31
0.0
  0
LINE
  8
0
  6
CONTINUOUS
 62
     1
 10
308.055009676
 20
197.638015567
 30
0.0
 11
308.055009676
 21
245.638023727
 31
0.0
  0
LINE
  8
0
  6
CONTINUOUS
 62
     1
 10
308.455009744
 20
197.638015567
 30
0.0
 11
308.055009676
 21
197.638015567
 31
0.0
  0
LINE
  8
0
  6
CONTINUOUS
 62
     1
 10
308.055009676
 20
196.638015397
 30
0.0
 11
309.855009982
 21
196.638015397
 31
0.0
  0
LINE
  8
0
  6
CONTINUOUS
 62
     1
 10
309.855009982
 20
188.638014037
 30
0.0
 11
308.055009676
 21
188.638014037
 31
0.0
  0
LINE
  8
0
  6
CONTINUOUS
 62
     1
 10
308.055009676
 20
191.88801459
 30
0.0
 11
309.855009982
 21
191.88801459
 31
0.0
  0
LINE
  8
0
  6
CONTINUOUS
 62
     1
 10
308.055009676
 20
188.638014037
 30
0.0
 11
308.055009676
 21
191.88801459
 31
0.0
  0
LINE
  8
0
  6
CONTINUOUS
 62
     1
 10
308.055009676
 20
193.388014845
 30
0.0
 11
308.055009676
 21
196.638015397
 31
0.0
  0
LINE
  8
0
  6
CONTINUOUS
 62
     1
 10
308.055009676
 20
193.388014845
 30
0.0
 11
309.855009982
 21
193.388014845
 31
0.0
  0
POINT
  8
0
  6
CONTINUOUS
 62
     1
 10
231.004996578
 20
245.638023727
 30
0.0
  0
LINE
  8
0
  6
CONTINUOUS
 62
     1
 10
221.754995005
 20
245.638023727
 30
0.0
 11
219.854994682
 21
245.638023727
 31
0.0
  0
LINE
  8
0
  6
CONTINUOUS
 62
     1
 10
241.923273793
 20
245.638023727
 30
0.0
 11
221.754995005
 21
245.638023727
 31
0.0
  0
LINE
  8
0
  6
CONTINUOUS
 62
     1
 10
227.854996042
 20
230.638021177
 30
0.0
 11
233.854997062
 21
230.638021177
 31
0.0
  0
LINE
  8
0
  6
CONTINUOUS
 62
     1
 10
220.154994733
 20
245.118023639
 30
0.0
 11
220.154994733
 21
245.638023727
 31
0.0
  0
LINE
  8
0
  6
CONTINUOUS
 62
     1
 10
220.154994733
 20
197.638015567
 30
0.0
 11
220.154994733
 21
245.078023632
 31
0.0
  0
LINE
  8
0
  6
CONTINUOUS
 62
     1
 10
240.559521547
 20
247.188023991
 30
0.0
 11
236.22547412
 21
247.188023991
 31
0.0
  0
LINE
  8
0
  6
CONTINUOUS
 62
     1
 10
243.30999867
 20
250.638024577
 30
0.0
 11
243.430475345
 21
247.188023991
 31
0.0
  0
LINE
  8
0
  6
CONTINUOUS
 62
     1
 10
236.104997445
 20
250.638024577
 30
0.0
 11
236.22547412
 21
247.188023991
 31
0.0
  0
LINE
  8
0
  6
CONTINUOUS
 62
     1
 10
241.383983757
 20
250.638024577
 30
0.0
 11
240.504998193
 21
250.638024577
 31
0.0
  0
ARC
  8
0
  6
CONTINUOUS
 62
     1
 10
241.383983757
 20
250.138024492
 30
0.0
 40
0.500000085
 50
0.5
 51
90.0
  0
LINE
  8
0
  6
CONTINUOUS
 62
     1
 10
242.606013135
 20
250.638024577
 30
0.0
 11
243.4849987
 21
250.638024577
 31
0.0
  0
ARC
  8
0
  6
CONTINUOUS
 62
     1
 10
242.606013135
 20
250.138024492
 30
0.0
 40
0.500000085
 50
90.0
 51
179.5
  0
LINE
  8
0
  6
CONTINUOUS
 62
     1
 10
240.679998223
 20
250.638024577
 30
0.0
 11
240.559521547
 21
247.188023991
 31
0.0
  0
LINE
  8
0
  6
CONTINUOUS
 62
     1
 10
242.066723099
 20
245.638023727
 30
0.0
 11
242.106032088
 21
250.14238776
 31
0.0
  0
LINE
  8
0
  6
CONTINUOUS
 62
     1
 10
241.923273793
 20
245.638023727
 30
0.0
 11
241.883964804
 21
250.14238776
 31
0.0
  0
ARC
  8
0
  6
CONTINUOUS
 62
     1
 10
220.451009369
 20
250.138024492
 30
0.0
 40
0.500000085
 50
90.0
 51
179.5
  0
LINE
  8
0
  6
CONTINUOUS
 62
     1
 10
220.451009369
 20
250.638024577
 30
0.0
 11
241.479998359
 21
250.638024577
 31
0.0
  0
LINE
  8
0
  6
CONTINUOUS
 62
     1
 10
219.911719333
 20
245.638023727
 30
0.0
 11
219.951028322
 21
250.14238776
 31
0.0
  0
LINE
  8
0
  6
CONTINUOUS
 62
     1
 10
222.212995083
 20
247.188023991
 30
0.0
 11
221.196994911
 21
247.188023991
 31
0.0
  0
LINE
  8
0
  6
CONTINUOUS
 62
     1
 10
222.304995099
 20
250.638024577
 30
0.0
 11
222.212995083
 21
247.188023991
 31
0.0
  0
LINE
  8
0
  6
CONTINUOUS
 62
     1
 10
221.104994895
 20
250.638024577
 30
0.0
 11
221.196994911
 21
247.188023991
 31
0.0
  0
LINE
  8
0
  6
CONTINUOUS
 62
     1
 10
220.154994733
 20
238.638022537
 30
0.0
 11
220.154994733
 21
250.540982828
 31
0.0
  0
LINE
  8
0
  6
CONTINUOUS
 62
     1
 10
247.884999448
 20
250.638024577
 30
0.0
 11
247.764522772
 21
247.188023991
 31
0.0
  0
LINE
  8
0
  6
CONTINUOUS
 62
     1
 10
243.430475345
 20
247.188023991
 30
0.0
 11
247.764522772
 21
247.188023991
 31
0.0
  0
LINE
  8
0
  6
CONTINUOUS
 62
     1
 10
264.078277559
 20
245.638023727
 30
0.0
 11
264.038968571
 21
250.14238776
 31
0.0
  0
LINE
  8
0
  6
CONTINUOUS
 62
     1
 10
264.105002205
 20
245.638023727
 30
0.0
 11
264.144311195
 21
250.14238776
 31
0.0
  0
LINE
  8
0
  6
CONTINUOUS
 62
     1
 10
264.644292241
 20
250.638024577
 30
0.0
 11
265.523277805
 21
250.638024577
 31
0.0
  0
ARC
  8
0
  6
CONTINUOUS
 62
     1
 10
264.644292241
 20
250.138024492
 30
0.0
 40
0.500000085
 50
90.0
 51
179.5
  0
ARC
  8
0
  6
CONTINUOUS
 62
     1
 10
263.538987524
 20
250.138024492
 30
0.0
 40
0.500000085
 50
0.5
 51
90.0
  0
LINE
  8
0
  6
CONTINUOUS
 62
     1
 10
263.538987524
 20
250.638024577
 30
0.0
 11
242.509998534
 21
250.638024577
 31
0.0
  0
LINE
  8
0
  6
CONTINUOUS
 62
     1
 10
263.835002159
 20
245.638023727
 30
0.0
 11
263.835002159
 21
250.540982828
 31
0.0
  0
LINE
  8
0
  6
CONTINUOUS
 62
     1
 10
261.685001794
 20
250.638024577
 30
0.0
 11
261.777001809
 21
247.188023991
 31
0.0
  0
LINE
  8
0
  6
CONTINUOUS
 62
     1
 10
261.777001809
 20
247.188023991
 30
0.0
 11
262.793001982
 21
247.188023991
 31
0.0
  0
LINE
  8
0
  6
CONTINUOUS
 62
     1
 10
262.885001998
 20
250.638024577
 30
0.0
 11
262.793001982
 21
247.188023991
 31
0.0
  0
LINE
  8
0
  6
CONTINUOUS
 62
     1
 10
265.348277775
 20
250.638024577
 30
0.0
 11
265.468754451
 21
247.188023991
 31
0.0
  0
LINE
  8
0
  6
CONTINUOUS
 62
     1
 10
269.923278553
 20
250.638024577
 30
0.0
 11
269.802801879
 21
247.188023991
 31
0.0
  0
LINE
  8
0
  6
CONTINUOUS
 62
     1
 10
265.468754451
 20
247.188023991
 30
0.0
 11
269.802801879
 21
247.188023991
 31
0.0
  0
LINE
  8
0
  6
CONTINUOUS
 62
     1
 10
284.923281103
 20
250.638024577
 30
0.0
 11
284.831281087
 21
247.188023991
 31
0.0
  0
LINE
  8
0
  6
CONTINUOUS
 62
     1
 10
283.815280915
 20
247.188023991
 30
0.0
 11
284.831281087
 21
247.188023991
 31
0.0
  0
LINE
  8
0
  6
CONTINUOUS
 62
     1
 10
283.723280899
 20
250.638024577
 30
0.0
 11
283.815280915
 21
247.188023991
 31
0.0
  0
LINE
  8
0
  6
CONTINUOUS
 62
     1
 10
286.826020653
 20
250.638024577
 30
0.0
 11
287.705006217
 21
250.638024577
 31
0.0
  0
ARC
  8
0
  6
CONTINUOUS
 62
     1
 10
286.826020653
 20
250.138024492
 30
0.0
 40
0.500000085
 50
90.0
 51
179.5
  0
ARC
  8
0
  6
CONTINUOUS
 62
     1
 10
285.577266629
 20
250.138024492
 30
0.0
 40
0.500000085
 50
0.5
 51
90.0
  0
LINE
  8
0
  6
CONTINUOUS
 62
     1
 10
285.577266629
 20
250.638024577
 30
0.0
 11
264.548277639
 21
250.638024577
 31
0.0
  0
LINE
  8
0
  6
CONTINUOUS
 62
     1
 10
286.116556666
 20
245.638023727
 30
0.0
 11
286.077247676
 21
250.14238776
 31
0.0
  0
LINE
  8
0
  6
CONTINUOUS
 62
     1
 10
285.873281265
 20
245.638023727
 30
0.0
 11
285.873281265
 21
250.540982828
 31
0.0
  0
LINE
  8
0
  6
CONTINUOUS
 62
     1
 10
286.286730617
 20
245.638023727
 30
0.0
 11
286.326039606
 21
250.14238776
 31
0.0
  0
LINE
  8
0
  6
CONTINUOUS
 62
     1
 10
292.105006965
 20
250.638024577
 30
0.0
 11
291.984530289
 21
247.188023991
 31
0.0
  0
LINE
  8
0
  6
CONTINUOUS
 62
     1
 10
287.650482863
 20
247.188023991
 30
0.0
 11
291.984530289
 21
247.188023991
 31
0.0
  0
LINE
  8
0
  6
CONTINUOUS
 62
     1
 10
287.530006187
 20
250.638024577
 30
0.0
 11
287.650482863
 21
247.188023991
 31
0.0
  0
LINE
  8
0
  6
CONTINUOUS
 62
     1
 10
308.298285077
 20
245.638023727
 30
0.0
 11
308.258976088
 21
250.14238776
 31
0.0
  0
LINE
  8
0
  6
CONTINUOUS
 62
     1
 10
308.055009676
 20
238.638022537
 30
0.0
 11
308.055009676
 21
250.540982828
 31
0.0
  0
ARC
  8
0
  6
CONTINUOUS
 62
     1
 10
307.758995041
 20
250.138024492
 30
0.0
 40
0.500000085
 50
0.5
 51
90.0
  0
LINE
  8
0
  6
CONTINUOUS
 62
     1
 10
307.758995041
 20
250.638024577
 30
0.0
 11
286.730006051
 21
250.638024577
 31
0.0
  0
LINE
  8
0
  6
CONTINUOUS
 62
     1
 10
305.997009327
 20
247.188023991
 30
0.0
 11
307.013009499
 21
247.188023991
 31
0.0
  0
LINE
  8
0
  6
CONTINUOUS
 62
     1
 10
305.905009311
 20
250.638024577
 30
0.0
 11
305.997009327
 21
247.188023991
 31
0.0
  0
LINE
  8
0
  6
CONTINUOUS
 62
     1
 10
307.105009515
 20
250.638024577
 30
0.0
 11
307.013009499
 21
247.188023991
 31
0.0
  0
LINE
  8
0
  6
CONTINUOUS
 62
     1
 10
311.855010322
 20
168.638010637
 30
0.0
 11
310.60501011
 21
168.638010637
 31
0.0
  0
LINE
  8
0
  6
CONTINUOUS
 62
     1
 10
310.60501011
 20
168.638010637
 30
0.0
 11
308.355009727
 21
168.638010637
 31
0.0
  0
LINE
  8
0
  6
CONTINUOUS
 62
     1
 10
217.080618821
 20
163.638009787
 30
0.0
 11
295.105007475
 21
163.638009787
 31
0.0
  0
LINE
  8
0
  6
CONTINUOUS
 62
     1
 10
217.080618821
 20
163.638009787
 30
0.0
 11
216.581242566
 21
164.113041059
 31
0.0
  0
LINE
  8
0
  6
CONTINUOUS
 62
     1
 10
217.126639322
 20
162.71759976
 30
0.0
 11
216.627263068
 21
163.192631032
 31
0.0
  0
LINE
  8
0
  6
CONTINUOUS
 62
     1
 10
311.129385589
 20
163.638009787
 30
0.0
 11
295.105007475
 21
163.638009787
 31
0.0
  0
LINE
  8
0
  6
CONTINUOUS
 62
     1
 10
311.628761844
 20
164.113041059
 30
0.0
 11
311.129385589
 21
163.638009787
 31
0.0
  0
LINE
  8
0
  6
CONTINUOUS
 62
     1
 10
216.354994087
 20
168.638010637
 30
0.0
 11
216.627263068
 21
163.192631032
 31
0.0
  0
LINE
  8
0
  6
CONTINUOUS
 62
     1
 10
311.855010322
 20
168.638010637
 30
0.0
 11
311.582741342
 21
163.192631032
 31
0.0
  0
LINE
  8
0
  6
CONTINUOUS
 62
     1
 10
287.105006115
 20
182.638013017
 30
0.0
 11
290.105006625
 21
182.638013017
 31
0.0
  0
POINT
  8
0
  6
CONTINUOUS
 62
     1
 10
290.105006625
 20
182.638013017
 30
0.0
  0
LINE
  8
0
  6
CONTINUOUS
 62
     1
 10
287.105006115
 20
182.638013017
 30
0.0
 11
284.105005605
 21
182.638013017
 31
0.0
  0
POINT
  8
0
  6
CONTINUOUS
 62
     1
 10
284.105005605
 20
182.638013017
 30
0.0
  0
LINE
  8
0
  6
CONTINUOUS
 62
     1
 10
241.104998295
 20
182.638013017
 30
0.0
 11
238.104997785
 21
182.638013017
 31
0.0
  0
POINT
  8
0
  6
CONTINUOUS
 62
     1
 10
238.104997785
 20
182.638013017
 30
0.0
  0
LINE
  8
0
  6
CONTINUOUS
 62
     1
 10
241.104998295
 20
182.638013017
 30
0.0
 11
244.104998805
 21
182.638013017
 31
0.0
  0
POINT
  8
0
  6
CONTINUOUS
 62
     1
 10
244.104998805
 20
182.638013017
 30
0.0
  0
LINE
  8
0
  6
CONTINUOUS
 62
     1
 10
276.60500433
 20
168.638010637
 30
0.0
 11
308.355009727
 21
168.638010637
 31
0.0
  0
LINE
  8
0
  6
CONTINUOUS
 62
     1
 10
216.354994087
 20
168.638010637
 30
0.0
 11
250.004999808
 21
168.638010637
 31
0.0
  0
LINE
  8
0
  6
CONTINUOUS
 62
     1
 10
250.004999808
 20
168.638010637
 30
0.0
 11
278.501665409
 21
168.638010637
 31
0.0
  0
LINE
  8
0
  6
CONTINUOUS
 62
     1
 10
312.25501039
 20
197.922569006
 30
0.0
 11
310.455010084
 21
197.922569006
 31
0.0
  0
LINE
  8
0
  6
CONTINUOUS
 62
     1
 10
315.2550109
 20
222.522573188
 30
0.0
 11
315.2550109
 21
207.77257068
 31
0.0
  0
ARC
  8
0
  6
CONTINUOUS
 62
     1
 10
314.25501073
 20
222.522573188
 30
0.0
 40
1.00000017
 50
0.0
 51
90.0
  0
LINE
  8
0
  6
CONTINUOUS
 62
     1
 10
315.2550109
 20
207.77257068
 30
0.0
 11
315.2550109
 21
174.522565028
 31
0.0
  0
LINE
  8
0
  6
CONTINUOUS
 62
     1
 10
308.25500971
 20
223.522573358
 30
0.0
 11
308.25500971
 21
222.172573128
 31
0.0
  0
LINE
  8
0
  6
CONTINUOUS
 62
     1
 10
308.25500971
 20
223.522573358
 30
0.0
 11
309.680009953
 21
223.522573358
 31
0.0
  0
LINE
  8
0
  6
CONTINUOUS
 62
     1
 10
308.25500971
 20
223.522573358
 30
0.0
 11
314.25501073
 21
223.522573358
 31
0.0
  0
LINE
  8
0
  6
CONTINUOUS
 62
     1
 10
308.25500971
 20
207.77257068
 30
0.0
 11
308.25500971
 21
197.922569006
 31
0.0
  0
LINE
  8
0
  6
CONTINUOUS
 62
     1
 10
308.25500971
 20
223.522573358
 30
0.0
 11
308.25500971
 21
207.77257068
 31
0.0
  0
LINE
  8
0
  6
CONTINUOUS
 62
     1
 10
308.25500971
 20
197.922569006
 30
0.0
 11
309.855009982
 21
197.922569006
 31
0.0
  0
LINE
  8
0
  6
CONTINUOUS
 62
     1
 10
315.2550109
 20
197.922569006
 30
0.0
 11
311.855010322
 21
197.922569006
 31
0.0
  0
LINE
  8
0
  6
CONTINUOUS
 62
     1
 10
315.2550109
 20
197.922569006
 30
0.0
 11
309.855009982
 21
197.922569006
 31
0.0
  0
LINE
  8
0
  6
CONTINUOUS
 62
     1
 10
310.055010016
 20
197.922569006
 30
0.0
 11
310.055010016
 21
174.522565028
 31
0.0
  0
LINE
  8
0
  6
CONTINUOUS
 62
     1
 10
310.055010016
 20
196.022568683
 30
0.0
 11
315.2550109
 21
196.022568683
 31
0.0
  0
LINE
  8
0
  6
CONTINUOUS
 62
     1
 10
310.055010016
 20
183.022566473
 30
0.0
 11
315.2550109
 21
183.022566473
 31
0.0
  0
LINE
  8
0
  6
CONTINUOUS
 62
     1
 10
310.055010016
 20
180.890437498
 30
0.0
 11
315.2550109
 21
180.890437498
 31
0.0
  0
LINE
  8
0
  6
CONTINUOUS
 62
     1
 10
315.2550109
 20
178.654694343
 30
0.0
 11
310.055010016
 21
178.654694343
 31
0.0
  0
LINE
  8
0
  6
CONTINUOUS
 62
     1
 10
310.055010016
 20
174.522565028
 30
0.0
 11
315.2550109
 21
174.522565028
 31
0.0
  0
LINE
  8
0
  6
CONTINUOUS
 62
     1
 10
315.2550109
 20
199.422569261
 30
0.0
 11
312.055010356
 21
199.422569261
 31
0.0
  0
LINE
  8
0
  6
CONTINUOUS
 62
     1
 10
312.055010356
 20
199.422569261
 30
0.0
 11
312.055010356
 21
223.522573358
 31
0.0
  0
LINE
  8
0
  6
CONTINUOUS
 62
     1
 10
309.155009863
 20
197.922569006
 30
0.0
 11
309.155009863
 21
197.638015567
 31
0.0
  0
LINE
  8
0
  6
CONTINUOUS
 62
     1
 10
309.155009863
 20
245.638023727
 30
0.0
 11
309.155009863
 21
223.522573358
 31
0.0
  0
LINE
  8
0
  6
CONTINUOUS
 62
     1
 10
309.855009982
 20
223.522573358
 30
0.0
 11
309.855009982
 21
245.638023727
 31
0.0
  0
LINE
  8
0
  6
CONTINUOUS
 62
     1
 10
309.855009982
 20
173.638011487
 30
0.0
 11
309.855009982
 21
197.922569006
 31
0.0
  0
LINE
  8
0
  6
CONTINUOUS
 62
     1
 10
215.954994019
 20
197.922569006
 30
0.0
 11
217.754994325
 21
197.922569006
 31
0.0
  0
LINE
  8
0
  6
CONTINUOUS
 62
     1
 10
212.954993509
 20
222.522573188
 30
0.0
 11
212.954993509
 21
207.77257068
 31
0.0
  0
ARC
  8
0
  6
CONTINUOUS
 62
     1
 10
213.954993679
 20
222.522573188
 30
0.0
 40
1.00000017
 50
90.0
 51
180.0
  0
LINE
  8
0
  6
CONTINUOUS
 62
     1
 10
212.954993509
 20
207.77257068
 30
0.0
 11
212.954993509
 21
174.522565028
 31
0.0
  0
LINE
  8
0
  6
CONTINUOUS
 62
     1
 10
219.954994699
 20
223.522573358
 30
0.0
 11
219.954994699
 21
222.172573128
 31
0.0
  0
LINE
  8
0
  6
CONTINUOUS
 62
     1
 10
219.954994699
 20
223.522573358
 30
0.0
 11
218.529994457
 21
223.522573358
 31
0.0
  0
LINE
  8
0
  6
CONTINUOUS
 62
     1
 10
219.954994699
 20
223.522573358
 30
0.0
 11
213.954993679
 21
223.522573358
 31
0.0
  0
LINE
  8
0
  6
CONTINUOUS
 62
     1
 10
219.954994699
 20
207.77257068
 30
0.0
 11
219.954994699
 21
197.922569006
 31
0.0
  0
LINE
  8
0
  6
CONTINUOUS
 62
     1
 10
219.954994699
 20
223.522573358
 30
0.0
 11
219.954994699
 21
207.77257068
 31
0.0
  0
LINE
  8
0
  6
CONTINUOUS
 62
     1
 10
219.954994699
 20
197.922569006
 30
0.0
 11
218.354994427
 21
197.922569006
 31
0.0
  0
LINE
  8
0
  6
CONTINUOUS
 62
     1
 10
212.954993509
 20
197.922569006
 30
0.0
 11
216.354994087
 21
197.922569006
 31
0.0
  0
LINE
  8
0
  6
CONTINUOUS
 62
     1
 10
212.954993509
 20
197.922569006
 30
0.0
 11
218.354994427
 21
197.922569006
 31
0.0
  0
LINE
  8
0
  6
CONTINUOUS
 62
     1
 10
218.154994393
 20
197.922569006
 30
0.0
 11
218.154994393
 21
174.522565028
 31
0.0
  0
LINE
  8
0
  6
CONTINUOUS
 62
     1
 10
218.154994393
 20
196.022568683
 30
0.0
 11
212.954993509
 21
196.022568683
 31
0.0
  0
LINE
  8
0
  6
CONTINUOUS
 62
     1
 10
218.154994393
 20
183.022566473
 30
0.0
 11
212.954993509
 21
183.022566473
 31
0.0
  0
LINE
  8
0
  6
CONTINUOUS
 62
     1
 10
218.154994393
 20
180.890437498
 30
0.0
 11
212.954993509
 21
180.890437498
 31
0.0
  0
LINE
  8
0
  6
CONTINUOUS
 62
     1
 10
212.954993509
 20
178.654694343
 30
0.0
 11
218.154994393
 21
178.654694343
 31
0.0
  0
LINE
  8
0
  6
CONTINUOUS
 62
     1
 10
218.154994393
 20
174.522565028
 30
0.0
 11
212.954993509
 21
174.522565028
 31
0.0
  0
LINE
  8
0
  6
CONTINUOUS
 62
     1
 10
212.954993509
 20
199.422569261
 30
0.0
 11
216.154994053
 21
199.422569261
 31
0.0
  0
LINE
  8
0
  6
CONTINUOUS
 62
     1
 10
216.154994053
 20
199.422569261
 30
0.0
 11
216.154994053
 21
223.522573358
 31
0.0
  0
LINE
  8
0
  6
CONTINUOUS
 62
     1
 10
218.354994427
 20
223.522573358
 30
0.0
 11
218.354994427
 21
245.638023727
 31
0.0
  0
LINE
  8
0
  6
CONTINUOUS
 62
     1
 10
219.054994546
 20
245.638023727
 30
0.0
 11
219.054994546
 21
223.522573358
 31
0.0
  0
LINE
  8
0
  6
CONTINUOUS
 62
     1
 10
218.354994427
 20
173.638011487
 30
0.0
 11
218.354994427
 21
197.922569006
 31
0.0
  0
LINE
  8
0
  6
CONTINUOUS
 62
     1
 10
219.054994546
 20
197.922569006
 30
0.0
 11
219.054994546
 21
197.638015567
 31
0.0
  0
LINE
  8
0
  6
CONTINUOUS
 62
     1
 10
293.398282544
 20
250.638024577
 30
0.0
 11
293.398282544
 21
258.138025852
 31
0.0
  0
LINE
  8
0
  6
CONTINUOUS
 62
     1
 10
304.798284482
 20
258.138025852
 30
0.0
 11
293.398282544
 21
258.138025852
 31
0.0
  0
LINE
  8
0
  6
CONTINUOUS
 62
     1
 10
304.798284482
 20
258.138025852
 30
0.0
 11
304.798284482
 21
250.638024577
 31
0.0
  0
ARC
  8
0
  6
CONTINUOUS
 62
     1
 10
304.498284431
 20
258.638025937
 30
0.0
 40
1.00000017
 50
287.457603125
 51
90.0
  0
ARC
  8
0
  6
CONTINUOUS
 62
     1
 10
304.498284431
 20
258.638025937
 30
0.0
 40
1.500000255
 50
281.536959034
 51
89.99985372
  0
ARC
  8
0
  6
CONTINUOUS
 62
     1
 10
293.698282595
 20
258.638025937
 30
0.0
 40
1.500000255
 50
89.999896967
 51
258.463040966
  0
LINE
  8
0
  6
CONTINUOUS
 62
     1
 10
304.498284431
 20
259.638026107
 30
0.0
 11
293.698285293
 21
259.638026107
 31
0.0
  0
ARC
  8
0
  6
CONTINUOUS
 62
     1
 10
293.698282595
 20
258.638025937
 30
0.0
 40
1.00000017
 50
89.99984545
 51
252.542396875
  0
ARC
  8
0
  6
CONTINUOUS
 62
     1
 10
234.511721815
 20
258.607719777
 30
0.0
 40
1.00000017
 50
287.457603125
 51
90.0
  0
ARC
  8
0
  6
CONTINUOUS
 62
     1
 10
234.511721815
 20
258.607719777
 30
0.0
 40
1.500000255
 50
281.536959034
 51
89.99985372
  0
LINE
  8
0
  6
CONTINUOUS
 62
     1
 10
234.511725644
 20
260.107720032
 30
0.0
 11
223.711722676
 21
260.107720032
 31
0.0
  0
ARC
  8
0
  6
CONTINUOUS
 62
     1
 10
223.711719979
 20
258.607719777
 30
0.0
 40
1.500000255
 50
89.999896967
 51
258.463040966
  0
LINE
  8
0
  6
CONTINUOUS
 62
     1
 10
234.511721815
 20
259.607719947
 30
0.0
 11
223.711722676
 21
259.607719947
 31
0.0
  0
ARC
  8
0
  6
CONTINUOUS
 62
     1
 10
223.711719979
 20
258.607719777
 30
0.0
 40
1.00000017
 50
89.99984545
 51
252.542396875
  0
LINE
  8
0
  6
CONTINUOUS
 62
     1
 10
223.411719928
 20
258.138025852
 30
0.0
 11
223.411719928
 21
250.638024577
 31
0.0
  0
LINE
  8
0
  6
CONTINUOUS
 62
     1
 10
223.411719928
 20
258.138025852
 30
0.0
 11
234.811721866
 21
258.138025852
 31
0.0
  0
LINE
  8
0
  6
CONTINUOUS
 62
     1
 10
234.811721866
 20
250.638024577
 30
0.0
 11
234.811721866
 21
258.138025852
 31
0.0
  0
LINE
  8
0
  6
CONTINUOUS
 62
     1
 10
304.498288261
 20
260.138026192
 30
0.0
 11
293.698285293
 21
260.138026192
 31
0.0
  0
LINE
  8
0
  6
CONTINUOUS
 62
     1
 10
227.404995966
 20
159.71759925
 30
0.0
 11
227.104995915
 21
160.017599301
 31
0.0
  0
LINE
  8
0
  6
CONTINUOUS
 62
     1
 10
237.104997615
 20
160.017599301
 30
0.0
 11
236.804997564
 21
159.71759925
 31
0.0
  0
LINE
  8
0
  6
CONTINUOUS
 62
     1
 10
237.104997615
 20
160.017599301
 30
0.0
 11
227.104995915
 21
160.017599301
 31
0.0
  0
LINE
  8
0
  6
CONTINUOUS
 62
     1
 10
227.404995966
 20
159.71759925
 30
0.0
 11
236.804997564
 21
159.71759925
 31
0.0
  0
LINE
  8
0
  6
CONTINUOUS
 62
     1
 10
237.104997615
 20
162.71759976
 30
0.0
 11
237.104997615
 21
160.017599301
 31
0.0
  0
LINE
  8
0
  6
CONTINUOUS
 62
     1
 10
227.104995915
 20
160.017599301
 30
0.0
 11
227.104995915
 21
162.71759976
 31
0.0
  0
LINE
  8
0
  6
CONTINUOUS
 62
     1
 10
242.404998516
 20
159.71759925
 30
0.0
 11
242.104998465
 21
160.017599301
 31
0.0
  0
LINE
  8
0
  6
CONTINUOUS
 62
     1
 10
252.105000165
 20
160.017599301
 30
0.0
 11
251.805000114
 21
159.71759925
 31
0.0
  0
LINE
  8
0
  6
CONTINUOUS
 62
     1
 10
252.105000165
 20
160.017599301
 30
0.0
 11
242.104998465
 21
160.017599301
 31
0.0
  0
LINE
  8
0
  6
CONTINUOUS
 62
     1
 10
242.404998516
 20
159.71759925
 30
0.0
 11
251.805000114
 21
159.71759925
 31
0.0
  0
LINE
  8
0
  6
CONTINUOUS
 62
     1
 10
257.105001015
 20
162.71759976
 30
0.0
 11
257.105001015
 21
160.017599301
 31
0.0
  0
LINE
  8
0
  6
CONTINUOUS
 62
     1
 10
252.105000165
 20
162.71759976
 30
0.0
 11
252.105000165
 21
160.017599301
 31
0.0
  0
LINE
  8
0
  6
CONTINUOUS
 62
     1
 10
242.104998465
 20
160.017599301
 30
0.0
 11
242.104998465
 21
162.71759976
 31
0.0
  0
LINE
  8
0
  6
CONTINUOUS
 62
     1
 10
267.105002715
 20
160.017599301
 30
0.0
 11
257.105001015
 21
160.017599301
 31
0.0
  0
LINE
  8
0
  6
CONTINUOUS
 62
     1
 10
257.405001066
 20
159.71759925
 30
0.0
 11
266.805002664
 21
159.71759925
 31
0.0
  0
LINE
  8
0
  6
CONTINUOUS
 62
     1
 10
257.405001066
 20
159.71759925
 30
0.0
 11
257.105001015
 21
160.017599301
 31
0.0
  0
LINE
  8
0
  6
CONTINUOUS
 62
     1
 10
267.105002715
 20
162.71759976
 30
0.0
 11
267.105002715
 21
160.017599301
 31
0.0
  0
LINE
  8
0
  6
CONTINUOUS
 62
     1
 10
267.105002715
 20
160.017599301
 30
0.0
 11
266.805002664
 21
159.71759925
 31
0.0
  0
LINE
  8
0
  6
CONTINUOUS
 62
     1
 10
272.405003616
 20
159.71759925
 30
0.0
 11
272.105003565
 21
160.017599301
 31
0.0
  0
LINE
  8
0
  6
CONTINUOUS
 62
     1
 10
282.105005265
 20
160.017599301
 30
0.0
 11
281.805005214
 21
159.71759925
 31
0.0
  0
LINE
  8
0
  6
CONTINUOUS
 62
     1
 10
282.105005265
 20
160.017599301
 30
0.0
 11
272.105003565
 21
160.017599301
 31
0.0
  0
LINE
  8
0
  6
CONTINUOUS
 62
     1
 10
272.405003616
 20
159.71759925
 30
0.0
 11
281.805005214
 21
159.71759925
 31
0.0
  0
LINE
  8
0
  6
CONTINUOUS
 62
     1
 10
272.105003565
 20
162.71759976
 30
0.0
 11
272.105003565
 21
160.017599301
 31
0.0
  0
LINE
  8
0
  6
CONTINUOUS
 62
     1
 10
282.105005265
 20
162.71759976
 30
0.0
 11
282.105005265
 21
160.017599301
 31
0.0
  0
LINE
  8
0
  6
CONTINUOUS
 62
     1
 10
271.60500348
 20
226.138020412
 30
0.0
 11
278.730004691
 21
226.138020412
 31
0.0
  0
LINE
  8
0
  6
CONTINUOUS
 62
     1
 10
278.730004691
 20
226.138020412
 30
0.0
 11
278.730004691
 21
230.638021177
 31
0.0
  0
LINE
  8
0
  6
CONTINUOUS
 62
     1
 10
271.60500348
 20
230.638021177
 30
0.0
 11
271.60500348
 21
226.138020412
 31
0.0
  0
LINE
  8
0
  6
CONTINUOUS
 62
     1
 10
272.173278936
 20
229.638021007
 30
0.0
 11
278.173279956
 21
229.638021007
 31
0.0
  0
LINE
  8
0
  6
CONTINUOUS
 62
     1
 10
278.173279956
 20
226.638020497
 30
0.0
 11
272.173278936
 21
226.638020497
 31
0.0
  0
LINE
  8
0
  6
CONTINUOUS
 62
     1
 10
278.173279956
 20
226.638020497
 30
0.0
 11
272.173278936
 21
226.638020497
 31
0.0
  0
LINE
  8
0
  6
CONTINUOUS
 62
     1
 10
278.173279956
 20
228.638020837
 30
0.0
 11
278.173279956
 21
226.638020497
 31
0.0
  0
LINE
  8
0
  6
CONTINUOUS
 62
     1
 10
278.173279956
 20
228.638020837
 30
0.0
 11
278.173279956
 21
226.638020497
 31
0.0
  0
LINE
  8
0
  6
CONTINUOUS
 62
     1
 10
272.173278936
 20
230.638021177
 30
0.0
 11
272.173278936
 21
226.638020497
 31
0.0
  0
LINE
  8
0
  6
CONTINUOUS
 62
     1
 10
278.173279956
 20
230.638021177
 30
0.0
 11
278.173279956
 21
228.638020837
 31
0.0
  0
LINE
  8
0
  6
CONTINUOUS
 62
     1
 10
293.855007262
 20
226.138020412
 30
0.0
 11
300.855008452
 21
226.138020412
 31
0.0
  0
LINE
  8
0
  6
CONTINUOUS
 62
     1
 10
293.855007262
 20
230.638021177
 30
0.0
 11
293.855007262
 21
226.138020412
 31
0.0
  0
LINE
  8
0
  6
CONTINUOUS
 62
     1
 10
300.855008452
 20
230.638021177
 30
0.0
 11
300.855008452
 21
226.138020412
 31
0.0
  0
LINE
  8
0
  6
CONTINUOUS
 62
     1
 10
294.355007347
 20
229.638021007
 30
0.0
 11
300.355008367
 21
229.638021007
 31
0.0
  0
LINE
  8
0
  6
CONTINUOUS
 62
     1
 10
300.355008367
 20
226.638020497
 30
0.0
 11
294.355007347
 21
226.638020497
 31
0.0
  0
LINE
  8
0
  6
CONTINUOUS
 62
     1
 10
300.355008367
 20
226.638020497
 30
0.0
 11
294.355007347
 21
226.638020497
 31
0.0
  0
LINE
  8
0
  6
CONTINUOUS
 62
     1
 10
300.355008367
 20
228.638020837
 30
0.0
 11
300.355008367
 21
226.638020497
 31
0.0
  0
LINE
  8
0
  6
CONTINUOUS
 62
     1
 10
300.355008367
 20
228.638020837
 30
0.0
 11
300.355008367
 21
226.638020497
 31
0.0
  0
LINE
  8
0
  6
CONTINUOUS
 62
     1
 10
294.355007347
 20
230.638021177
 30
0.0
 11
294.355007347
 21
226.638020497
 31
0.0
  0
LINE
  8
0
  6
CONTINUOUS
 62
     1
 10
300.355008367
 20
230.638021177
 30
0.0
 11
300.355008367
 21
228.638020837
 31
0.0
  0
LINE
  8
0
  6
CONTINUOUS
 62
     1
 10
249.479999719
 20
226.138020412
 30
0.0
 11
256.60500093
 21
226.138020412
 31
0.0
  0
LINE
  8
0
  6
CONTINUOUS
 62
     1
 10
256.60500093
 20
230.638021177
 30
0.0
 11
256.60500093
 21
226.138020412
 31
0.0
  0
LINE
  8
0
  6
CONTINUOUS
 62
     1
 10
249.479999719
 20
226.138020412
 30
0.0
 11
249.479999719
 21
230.638021177
 31
0.0
  0
LINE
  8
0
  6
CONTINUOUS
 62
     1
 10
250.13499983
 20
229.638021007
 30
0.0
 11
256.13500085
 21
229.638021007
 31
0.0
  0
LINE
  8
0
  6
CONTINUOUS
 62
     1
 10
256.13500085
 20
226.638020497
 30
0.0
 11
250.13499983
 21
226.638020497
 31
0.0
  0
LINE
  8
0
  6
CONTINUOUS
 62
     1
 10
256.13500085
 20
226.638020497
 30
0.0
 11
250.13499983
 21
226.638020497
 31
0.0
  0
LINE
  8
0
  6
CONTINUOUS
 62
     1
 10
256.13500085
 20
228.638020837
 30
0.0
 11
256.13500085
 21
226.638020497
 31
0.0
  0
LINE
  8
0
  6
CONTINUOUS
 62
     1
 10
256.13500085
 20
228.638020837
 30
0.0
 11
256.13500085
 21
226.638020497
 31
0.0
  0
LINE
  8
0
  6
CONTINUOUS
 62
     1
 10
250.13499983
 20
230.638021177
 30
0.0
 11
250.13499983
 21
226.638020497
 31
0.0
  0
LINE
  8
0
  6
CONTINUOUS
 62
     1
 10
256.13500085
 20
230.638021177
 30
0.0
 11
256.13500085
 21
228.638020837
 31
0.0
  0
LINE
  8
0
  6
CONTINUOUS
 62
     1
 10
227.354995957
 20
226.138020412
 30
0.0
 11
234.463617856
 21
226.138020412
 31
0.0
  0
LINE
  8
0
  6
CONTINUOUS
 62
     1
 10
234.463617856
 20
226.138020412
 30
0.0
 11
234.463617856
 21
230.638021177
 31
0.0
  0
LINE
  8
0
  6
CONTINUOUS
 62
     1
 10
233.854997062
 20
229.638021007
 30
0.0
 11
227.854996042
 21
229.638021007
 31
0.0
  0
LINE
  8
0
  6
CONTINUOUS
 62
     1
 10
227.854996042
 20
226.638020497
 30
0.0
 11
233.854997062
 21
226.638020497
 31
0.0
  0
LINE
  8
0
  6
CONTINUOUS
 62
     1
 10
227.854996042
 20
226.638020497
 30
0.0
 11
233.854997062
 21
226.638020497
 31
0.0
  0
LINE
  8
0
  6
CONTINUOUS
 62
     1
 10
227.854996042
 20
228.638020837
 30
0.0
 11
227.854996042
 21
226.638020497
 31
0.0
  0
LINE
  8
0
  6
CONTINUOUS
 62
     1
 10
227.854996042
 20
228.638020837
 30
0.0
 11
227.854996042
 21
226.638020497
 31
0.0
  0
LINE
  8
0
  6
CONTINUOUS
 62
     1
 10
233.854997062
 20
230.638021177
 30
0.0
 11
233.854997062
 21
226.638020497
 31
0.0
  0
LINE
  8
0
  6
CONTINUOUS
 62
     1
 10
227.854996042
 20
230.638021177
 30
0.0
 11
227.854996042
 21
228.638020837
 31
0.0
  0
LINE
  8
0
  6
CONTINUOUS
 62
     1
 10
237.6049977
 20
187.638013867
 30
0.0
 11
237.6049977
 21
182.638013017
 31
0.0
  0
LINE
  8
0
  6
CONTINUOUS
 62
     1
 10
244.60499889
 20
187.638013867
 30
0.0
 11
244.60499889
 21
182.638013017
 31
0.0
  0
LINE
  8
0
  6
CONTINUOUS
 62
     1
 10
238.104997785
 20
186.638013697
 30
0.0
 11
238.104997785
 21
182.638013017
 31
0.0
  0
LINE
  8
0
  6
CONTINUOUS
 62
     1
 10
238.104997785
 20
186.638013697
 30
0.0
 11
241.104998295
 21
186.638013697
 31
0.0
  0
LINE
  8
0
  6
CONTINUOUS
 62
     1
 10
244.104998805
 20
186.638013697
 30
0.0
 11
244.104998805
 21
182.638013017
 31
0.0
  0
LINE
  8
0
  6
CONTINUOUS
 62
     1
 10
244.104998805
 20
186.638013697
 30
0.0
 11
241.104998295
 21
186.638013697
 31
0.0
  0
LINE
  8
0
  6
CONTINUOUS
 62
     1
 10
238.104997785
 20
183.638013187
 30
0.0
 11
244.104998805
 21
183.638013187
 31
0.0
  0
LINE
  8
0
  6
CONTINUOUS
 62
     1
 10
290.60500671
 20
187.638013867
 30
0.0
 11
290.60500671
 21
182.638013017
 31
0.0
  0
LINE
  8
0
  6
CONTINUOUS
 62
     1
 10
290.105006625
 20
183.638013187
 30
0.0
 11
284.105005605
 21
183.638013187
 31
0.0
  0
LINE
  8
0
  6
CONTINUOUS
 62
     1
 10
290.105006625
 20
186.638013697
 30
0.0
 11
290.105006625
 21
182.638013017
 31
0.0
  0
LINE
  8
0
  6
CONTINUOUS
 62
     1
 10
283.60500552
 20
187.638013867
 30
0.0
 11
290.60500671
 21
187.638013867
 31
0.0
  0
LINE
  8
0
  6
CONTINUOUS
 62
     1
 10
283.60500552
 20
187.638013867
 30
0.0
 11
290.60500671
 21
187.638013867
 31
0.0
  0
LINE
  8
0
  6
CONTINUOUS
 62
     1
 10
290.105006625
 20
186.638013697
 30
0.0
 11
287.105006115
 21
186.638013697
 31
0.0
  0
LINE
  8
0
  6
CONTINUOUS
 62
     1
 10
284.105005605
 20
186.638013697
 30
0.0
 11
287.105006115
 21
186.638013697
 31
0.0
  0
LINE
  8
0
  6
CONTINUOUS
 62
     1
 10
283.60500552
 20
187.638013867
 30
0.0
 11
283.60500552
 21
182.638013017
 31
0.0
  0
LINE
  8
0
  6
CONTINUOUS
 62
     1
 10
284.105005605
 20
186.638013697
 30
0.0
 11
284.105005605
 21
182.638013017
 31
0.0
  0
LINE
  8
0
  6
CONTINUOUS
 62
     2
 10
218.2994146
 20
172.7932124
 30
0.0
 11
218.2994146
 21
146.7055322
 31
0.0
  0
LINE
  8
0
  6
CONTINUOUS
 62
     2
 10
218.2994146
 20
148.3597922
 30
0.0
 11
220.296780172
 21
147.824599708
 31
0.0
  0
LINE
  8
0
  6
CONTINUOUS
 62
     2
 10
218.2994146
 20
148.3597922
 30
0.0
 11
220.296780172
 21
148.894984692
 31
0.0
  0
LINE
  8
0
  6
CONTINUOUS
 62
     2
 10
309.8957908
 20
148.3597922
 30
0.0
 11
307.898425228
 21
148.894984692
 31
0.0
  0
LINE
  8
0
  6
CONTINUOUS
 62
     2
 10
309.8957908
 20
148.3597922
 30
0.0
 11
307.898425228
 21
147.824599708
 31
0.0
  0
LINE
  8
0
  6
CONTINUOUS
 62
     2
 10
309.8957908
 20
172.7932124
 30
0.0
 11
309.8957908
 21
146.7055322
 31
0.0
  0
LINE
  8
0
  6
CONTINUOUS
 62
     2
 10
212.8320853
 20
173.6865128
 30
0.0
 11
212.8320853
 21
138.4507748
 31
0.0
  0
LINE
  8
0
  6
CONTINUOUS
 62
     2
 10
212.8320853
 20
140.1050348
 30
0.0
 11
214.829450872
 21
139.569842308
 31
0.0
  0
LINE
  8
0
  6
CONTINUOUS
 62
     2
 10
212.8320853
 20
140.1050348
 30
0.0
 11
214.829450872
 21
140.640227292
 31
0.0
  0
LINE
  8
0
  6
CONTINUOUS
 62
     2
 10
315.1728802
 20
140.1050348
 30
0.0
 11
313.175514628
 21
140.640227292
 31
0.0
  0
LINE
  8
0
  6
CONTINUOUS
 62
     2
 10
315.1728802
 20
140.1050348
 30
0.0
 11
313.175514628
 21
139.569842308
 31
0.0
  0
LINE
  8
0
  6
CONTINUOUS
 62
     2
 10
315.1728802
 20
173.7857684
 30
0.0
 11
315.1728802
 21
138.4507748
 31
0.0
  0
LINE
  8
0
  6
CONTINUOUS
 62
     1
 10
217.1579752
 20
162.7022264
 30
0.0
 11
311.1943849
 21
162.7022264
 31
0.0
  0
LINE
  8
0
  6
CONTINUOUS
 62
     1
 10
311.5914073
 20
163.0744349
 30
0.0
 11
311.1530284
 21
162.6856838
 31
0.0
  0
LINE
  8
0
  6
CONTINUOUS
 62
     1
 10
238.1009068
 20
197.1356483
 30
0.0
 11
238.1009068
 21
236.6393771
 31
0.0
  0
LINE
  8
0
  6
CONTINUOUS
 62
     1
 10
238.1009068
 20
236.6393771
 30
0.0
 11
236.8023127
 21
236.6393771
 31
0.0
  0
LINE
  8
0
  6
CONTINUOUS
 62
     1
 10
242.7907339
 20
222.6360662
 30
0.0
 11
244.1058706
 21
222.6360662
 31
0.0
  0
LINE
  8
0
  6
CONTINUOUS
 62
     1
 10
271.123671644
 20
250.638024577
 30
0.0
 11
271.123671644
 21
258.138025852
 31
0.0
  0
LINE
  8
0
  6
CONTINUOUS
 62
     1
 10
282.523673582
 20
258.138025852
 30
0.0
 11
271.123671644
 21
258.138025852
 31
0.0
  0
LINE
  8
0
  6
CONTINUOUS
 62
     1
 10
282.523673582
 20
258.138025852
 30
0.0
 11
282.523673582
 21
250.638024577
 31
0.0
  0
ARC
  8
0
  6
CONTINUOUS
 62
     1
 10
282.223673531
 20
258.638025937
 30
0.0
 40
1.00000017
 50
287.457603125
 51
90.0
  0
ARC
  8
0
  6
CONTINUOUS
 62
     1
 10
282.223673531
 20
258.638025937
 30
0.0
 40
1.500000255
 50
281.536959034
 51
89.99985372
  0
ARC
  8
0
  6
CONTINUOUS
 62
     1
 10
271.423671695
 20
258.638025937
 30
0.0
 40
1.500000255
 50
89.999896967
 51
258.463040966
  0
LINE
  8
0
  6
CONTINUOUS
 62
     1
 10
282.223673531
 20
259.638026107
 30
0.0
 11
271.423674393
 21
259.638026107
 31
0.0
  0
ARC
  8
0
  6
CONTINUOUS
 62
     1
 10
271.423671695
 20
258.638025937
 30
0.0
 40
1.00000017
 50
89.99984545
 51
252.542396875
  0
LINE
  8
0
  6
CONTINUOUS
 62
     1
 10
282.223677361
 20
260.138026192
 30
0.0
 11
271.423674393
 21
260.138026192
 31
0.0
  0
LINE
  8
0
  6
CONTINUOUS
 62
     1
 10
244.0975993
 20
222.5698958
 30
0.0
 11
244.0975993
 21
197.1108344
 31
0.0
  0
LINE
  8
0
  6
CONTINUOUS
 62
     1
 10
250.82
 20
250.62
 30
0.0
 11
250.82
 21
258.19
 31
0.0
  0
LINE
  8
0
  6
CONTINUOUS
 62
     1
 10
260.21
 20
257.51
 30
0.0
 11
260.39
 21
257.51
 31
0.0
  0
LINE
  8
0
  6
CONTINUOUS
 62
     1
 10
260.38
 20
257.52
 30
0.0
 11
260.38
 21
252.58
 31
0.0
  0
LINE
  8
0
  6
CONTINUOUS
 62
     1
 10
260.38
 20
252.58
 30
0.0
 11
259.97
 21
252.58
 31
0.0
  0
LINE
  8
0
  6
CONTINUOUS
 62
     1
 10
259.97
 20
252.58
 30
0.0
 11
259.97
 21
252.11
 31
0.0
  0
LINE
  8
0
  6
CONTINUOUS
 62
     1
 10
259.97
 20
252.11
 30
0.0
 11
261.38
 21
252.11
 31
0.0
  0
LINE
  8
0
  6
CONTINUOUS
 62
     1
 10
261.38
 20
252.11
 30
0.0
 11
261.38
 21
250.67
 31
0.0
  0
LINE
  8
0
  6
CONTINUOUS
 62
     1
 10
250.82
 20
258.12
 30
0.0
 11
252.29
 21
258.12
 31
0.0
  0
LINE
  8
0
  6
CONTINUOUS
 62
     1
 10
252.26
 20
258.12
 30
0.0
 11
253.64
 21
262.56
 31
0.0
  0
LINE
  8
0
  6
CONTINUOUS
 62
     1
 10
253.7
 20
262.59
 30
0.0
 11
257.76
 21
262.59
 31
0.0
  0
LINE
  8
0
  6
CONTINUOUS
 62
     1
 10
257.79
 20
262.59
 30
0.0
 11
259.69
 21
257.51
 31
0.0
  0
LINE
  8
0
  6
CONTINUOUS
 62
     1
 10
260.41
 20
257.51
 30
0.0
 11
259.69
 21
257.52
 31
0.0
  0
LINE
  8
0
  6
CONTINUOUS
 62
     2
 10
205.0
 20
250.64
 30
0.0
 11
204.352952387
 21
248.225185434
 31
0.0
  0
LINE
  8
0
  6
CONTINUOUS
 62
     2
 10
205.0
 20
250.64
 30
0.0
 11
205.647047613
 21
248.225185434
 31
0.0
  0
LINE
  8
0
  6
CONTINUOUS
 62
     2
 10
221.98
 20
250.64
 30
0.0
 11
203.0
 21
250.64
 31
0.0
  0
LINE
  8
0
  6
CONTINUOUS
 62
     2
 10
195.0
 20
262.59
 30
0.0
 11
194.352952387
 21
260.175185434
 31
0.0
  0
LINE
  8
0
  6
CONTINUOUS
 62
     2
 10
195.0
 20
262.59
 30
0.0
 11
195.647047613
 21
260.175185434
 31
0.0
  0
LINE
  8
0
  6
CONTINUOUS
 62
     2
 10
252.74
 20
262.59
 30
0.0
 11
193.0
 21
262.59
 31
0.0
  0
LINE
  8
0
  6
CONTINUOUS
 62
     2
 10
185.0
 20
262.59
 30
0.0
 11
184.352952387
 21
260.175185434
 31
0.0
  0
LINE
  8
0
  6
CONTINUOUS
 62
     2
 10
185.0
 20
262.59
 30
0.0
 11
185.647047613
 21
260.175185434
 31
0.0
  0
LINE
  8
0
  6
CONTINUOUS
 62
     2
 10
252.75
 20
262.59
 30
0.0
 11
183.0
 21
262.59
 31
0.0
  0
LINE
  8
0
  6
CONTINUOUS
 62
     2
 10
312.95
 20
173.64
 30
0.0
 11
327.0
 21
173.64
 31
0.0
  0
LINE
  8
0
  6
CONTINUOUS
 62
     2
 10
325.0
 20
173.64
 30
0.0
 11
325.647047613
 21
176.054814566
 31
0.0
  0
LINE
  8
0
  6
CONTINUOUS
 62
     2
 10
325.0
 20
173.64
 30
0.0
 11
324.352952387
 21
176.054814566
 31
0.0
  0
LINE
  8
0
  6
CONTINUOUS
 62
     2
 10
325.0
 20
260.14
 30
0.0
 11
324.352952387
 21
257.725185434
 31
0.0
  0
LINE
  8
0
  6
CONTINUOUS
 62
     2
 10
325.0
 20
260.14
 30
0.0
 11
325.647047613
 21
257.725185434
 31
0.0
  0
LINE
  8
0
  6
CONTINUOUS
 62
     2
 10
305.31
 20
260.14
 30
0.0
 11
327.0
 21
260.14
 31
0.0
  0
LINE
  8
0
  6
CONTINUOUS
 62
     2
 10
312.0
 20
162.7
 30
0.0
 11
337.0
 21
162.7
 31
0.0
  0
LINE
  8
0
  6
CONTINUOUS
 62
     2
 10
335.0
 20
162.7
 30
0.0
 11
335.647047613
 21
165.114814566
 31
0.0
  0
LINE
  8
0
  6
CONTINUOUS
 62
     2
 10
335.0
 20
162.7
 30
0.0
 11
334.352952387
 21
165.114814566
 31
0.0
  0
LINE
  8
0
  6
CONTINUOUS
 62
     2
 10
335.0
 20
260.14
 30
0.0
 11
334.352952387
 21
257.725185434
 31
0.0
  0
LINE
  8
0
  6
CONTINUOUS
 62
     2
 10
335.0
 20
260.14
 30
0.0
 11
335.647047613
 21
257.725185434
 31
0.0
  0
LINE
  8
0
  6
CONTINUOUS
 62
     2
 10
305.18
 20
260.14
 30
0.0
 11
337.0
 21
260.14
 31
0.0
  0
LINE
  8
0
  6
CONTINUOUS
 62
     1
 10
287.328585
 20
212.59852
 30
0.0
 11
312.969615
 21
230.79538
 31
0.0
  0
TEXT
  8
0
  6
CONTINUOUS
 62
     1
 10
312.969615
 20
230.79538
 30
0.0
 40
2.48139
  1
ラベル
 50
0.0
 41
1.0
 51
0.0
  7
KANJI2
  0
LINE
  8
0
  6
CONTINUOUS
 62
     1
 10
287.298585
 20
212.58852
 30
0.0
 11
287.71215
 21
213.829215
 31
0.0
  0
LINE
  8
0
  6
CONTINUOUS
 62
     1
 10
287.298585
 20
212.58852
 30
0.0
 11
288.53928
 21
212.58852
 31
0.0
  0
LINE
  8
0
  6
CONTINUOUS
 62
     1
 10
312.969615
 20
230.79538
 30
0.0
 11
321.47
 21
230.79538
 31
0.0
  0
TEXT
  8
0
  6
CONTINUOUS
 62
     4
 10
360.502178997
 20
11.0
 30
0.0
 40
8.0
  1
ＹＭＬ－１３４２Ｃ
 50
0.0
 41
0.625
 51
0.0
  7
KANJI3
  0
TEXT
  8
0
  6
CONTINUOUS
 62
     1
 10
363.002532522
 20
28.500147838
 30
0.0
 40
6.0
  1
デジタルメータリレー
 50
0.0
 41
0.522916667
 51
0.0
  7
KANJI4
  0
TEXT
  8
0
  6
CONTINUOUS
 62
     1
 10
362.002532522
 20
37.500147838
 30
0.2
 40
6.0
  1
ＴＤＲ－４９ＴＢ
 50
0.0
 41
0.666666667
 51
0.0
  7
KANJI5
  0
LINE
  8
0
  6
CONTINUOUS
 62
     2
 10
325.0
 20
173.64
 30
0.0
 11
325.0
 21
260.14
 31
0.0
  0
TEXT
  8
0
  6
CONTINUOUS
 62
     2
 10
324.0
 20
212.84
 30
0.3
 40
3.0
  1
８６．５
 50
90.0
 41
0.6
 51
0.0
  7
KANJI6
  0
LINE
  8
0
  6
CONTINUOUS
 62
     2
 10
335.0
 20
162.7
 30
0.0
 11
335.0
 21
260.14
 31
0.0
  0
TEXT
  8
0
  6
CONTINUOUS
 62
     2
 10
334.0
 20
207.37
 30
0.3
 40
3.0
  1
９７．５
 50
90.0
 41
0.6
 51
0.0
  7
KANJI6
  0
LINE
  8
0
  6
CONTINUOUS
 62
     2
 10
218.2994146
 20
148.3597922
 30
0.0
 11
309.8957908
 21
148.3597922
 31
0.0
  0
TEXT
  8
0
  6
CONTINUOUS
 62
     2
 10
260.7477262
 20
149.1869222
 30
0.248139
 40
2.48139
  1
９１．５
 50
0.0
 41
0.6
 51
0.0
  7
KANJI7
  0
LINE
  8
0
  6
CONTINUOUS
 62
     2
 10
212.8320853
 20
140.1050348
 30
0.0
 11
315.1728802
 21
140.1050348
 31
0.0
  0
TEXT
  8
0
  6
CONTINUOUS
 62
     2
 10
259.78411975
 20
140.9321648
 30
0.248139
 40
2.48139
  1
１０２．５
 50
0.0
 41
0.6
 51
0.0
  7
KANJI7
  0
LINE
  8
0
  6
CONTINUOUS
 62
     2
 10
216.19
 20
162.7
 30
0.0
 11
203.0
 21
162.7
 31
0.0
  0
LINE
  8
0
  6
CONTINUOUS
 62
     2
 10
205.0
 20
162.7
 30
0.0
 11
205.647047613
 21
165.114814566
 31
0.0
  0
LINE
  8
0
  6
CONTINUOUS
 62
     2
 10
205.0
 20
162.7
 30
0.0
 11
204.352952387
 21
165.114814566
 31
0.0
  0
LINE
  8
0
  6
CONTINUOUS
 62
     2
 10
205.0
 20
162.7
 30
0.0
 11
205.0
 21
173.64
 31
0.0
  0
LINE
  8
0
  6
CONTINUOUS
 62
     2
 10
205.0
 20
173.64
 30
0.0
 11
204.352952387
 21
171.225185434
 31
0.0
  0
LINE
  8
0
  6
CONTINUOUS
 62
     2
 10
205.0
 20
173.64
 30
0.0
 11
205.647047613
 21
171.225185434
 31
0.0
  0
LINE
  8
0
  6
CONTINUOUS
 62
     2
 10
215.42
 20
173.64
 30
0.0
 11
203.0
 21
173.64
 31
0.0
  0
TEXT
  8
0
  6
CONTINUOUS
 62
     2
 10
204.0
 20
166.22
 30
0.3
 40
3.0
  1
１１
 50
90.0
 41
0.6
 51
0.0
  7
KANJI6
  0
LINE
  8
0
  6
CONTINUOUS
 62
     2
 10
205.0
 20
173.64
 30
0.0
 11
205.647047613
 21
176.054814566
 31
0.0
  0
LINE
  8
0
  6
CONTINUOUS
 62
     2
 10
205.0
 20
173.64
 30
0.0
 11
204.352952387
 21
176.054814566
 31
0.0
  0
LINE
  8
0
  6
CONTINUOUS
 62
     2
 10
205.0
 20
173.64
 30
0.0
 11
205.0
 21
250.64
 31
0.0
  0
TEXT
  8
0
  6
CONTINUOUS
 62
     2
 10
204.0
 20
210.19
 30
0.3
 40
3.0
  1
７７
 50
90.0
 41
0.6
 51
0.0
  7
KANJI6
  0
LINE
  8
0
  6
CONTINUOUS
 62
     2
 10
215.49
 20
173.64
 30
0.0
 11
193.0
 21
173.64
 31
0.0
  0
LINE
  8
0
  6
CONTINUOUS
 62
     2
 10
195.0
 20
173.64
 30
0.0
 11
195.647047613
 21
176.054814566
 31
0.0
  0
LINE
  8
0
  6
CONTINUOUS
 62
     2
 10
195.0
 20
173.64
 30
0.0
 11
194.352952387
 21
176.054814566
 31
0.0
  0
LINE
  8
0
  6
CONTINUOUS
 62
     2
 10
195.0
 20
173.64
 30
0.0
 11
195.0
 21
262.59
 31
0.0
  0
TEXT
  8
0
  6
CONTINUOUS
 62
     2
 10
194.0
 20
214.065
 30
0.3
 40
3.0
  1
８８．５
 50
90.0
 41
0.6
 51
0.0
  7
KANJI6
  0
LINE
  8
0
  6
CONTINUOUS
 62
     2
 10
216.23
 20
162.7
 30
0.0
 11
183.0
 21
162.7
 31
0.0
  0
LINE
  8
0
  6
CONTINUOUS
 62
     2
 10
185.0
 20
162.7
 30
0.0
 11
185.647047613
 21
165.114814566
 31
0.0
  0
LINE
  8
0
  6
CONTINUOUS
 62
     2
 10
185.0
 20
162.7
 30
0.0
 11
184.352952387
 21
165.114814566
 31
0.0
  0
LINE
  8
0
  6
CONTINUOUS
 62
     2
 10
185.0
 20
162.7
 30
0.0
 11
185.0
 21
262.59
 31
0.0
  0
LINE
  8
0
  6
CONTINUOUS
 62
     2
 10
216.15
 20
162.7
 30
0.0
 11
203.0
 21
162.7
 31
0.0
  0
LINE
  8
0
  6
CONTINUOUS
 62
     2
 10
205.0
 20
162.7
 30
0.0
 11
204.352952387
 21
160.285185434
 31
0.0
  0
LINE
  8
0
  6
CONTINUOUS
 62
     2
 10
205.0
 20
162.7
 30
0.0
 11
205.647047613
 21
160.285185434
 31
0.0
  0
LINE
  8
0
  6
CONTINUOUS
 62
     2
 10
205.0
 20
162.7
 30
0.0
 11
205.0
 21
160.02
 31
0.0
  0
LINE
  8
0
  6
CONTINUOUS
 62
     2
 10
205.0
 20
160.02
 30
0.0
 11
205.647047613
 21
162.434814566
 31
0.0
  0
LINE
  8
0
  6
CONTINUOUS
 62
     2
 10
205.0
 20
160.02
 30
0.0
 11
204.352952387
 21
162.434814566
 31
0.0
  0
LINE
  8
0
  6
CONTINUOUS
 62
     2
 10
226.1
 20
160.02
 30
0.0
 11
203.0
 21
160.02
 31
0.0
  0
TEXT
  8
0
  6
CONTINUOUS
 62
     2
 10
204.0
 20
158.36
 30
0.3
 40
3.0
  1
２．５
 50
90.0
 41
0.6
 51
0.0
  7
KANJI6
  0
TEXT
  8
0
  6
CONTINUOUS
 62
     2
 10
184.0
 20
208.595
 30
0.3
 40
3.0
  1
９９．５
 50
90.0
 41
0.6
 51
0.0
  7
KANJI6
  0
LINE
  8
0
  6
CONTINUOUS
 62
     2
 10
50.0
 20
260.0
 30
0.0
 11
166.1
 21
260.0
 31
0.0
  0
TEXT
  8
0
  6
CONTINUOUS
 62
     2
 10
106.1
 20
261.0
 30
0.3
 40
3.0
  1
９６
 50
0.0
 41
0.6
 51
0.0
  7
KANJI6
  0
LINE
  8
0
  6
CONTINUOUS
 62
     2
 10
40.0
 20
249.9
 30
0.0
 11
40.0
 21
191.9
 31
0.0
  0
TEXT
  8
0
  6
CONTINUOUS
 62
     2
 10
39.0
 20
218.95
 30
0.3
 40
3.0
  1
４８
 50
90.0
 41
0.6
 51
0.0
  7
KANJI6
  0
LINE
  8
0
  6
CONTINUOUS
 62
     2
 10
129.8
 20
269.9
 30
0.0
 11
159.9
 21
269.9
 31
0.0
  0
TEXT
  8
0
  6
CONTINUOUS
 62
     2
 10
130.0
 20
269.8
 30
0.0
 40
3.0
  1
文字高　２０ｍｍ
 50
0.0
 41
1.0
 51
0.0
  7
KANJI8
  0
LINE
  8
0
  6
CONTINUOUS
 62
     2
 10
50.066946
 20
248.221351412
 30
0.0
 11
165.526446
 21
248.221351412
 31
0.0
  0
LINE
  8
0
  6
CONTINUOUS
 62
     2
 10
50.066946
 20
247.979551412
 30
0.0
 11
165.526446
 21
247.979551412
 31
0.0
  0
LINE
  8
0
  6
CONTINUOUS
 62
     2
 10
110.0
 20
245.0
 30
0.0
 11
110.3
 21
246.0
 31
0.0
  0
LINE
  8
0
  6
CONTINUOUS
 62
     2
 10
110.0
 20
245.0
 30
0.0
 11
110.8
 21
245.4
 31
0.0
  0
LINE
  8
0
  6
CONTINUOUS
 62
     2
 10
129.9
 20
270.1
 30
0.0
 11
110.0
 21
245.0
 31
0.0
  0
LINE
  8
0
  6
CONTINUOUS
 62
     2
 10
199.82
 20
58.81
 30
0.0
 11
199.82
 21
113.03
 31
0.0
  0
TEXT
  8
0
  6
CONTINUOUS
 62
     2
 10
198.82
 20
82.92
 30
0.3
 40
3.0
  1
４４
 50
90.0
 41
0.6
 51
0.0
  7
KANJI6
  0
LINE
  8
0
  6
CONTINUOUS
 62
     2
 10
74.0
 20
75.0
 30
0.0
 11
63.1
 21
75.0
 31
0.0
  0
LINE
  8
0
  6
CONTINUOUS
 62
     2
 10
65.1
 20
75.0
 30
0.0
 11
64.452952387
 21
72.585185434
 31
0.0
  0
LINE
  8
0
  6
CONTINUOUS
 62
     2
 10
65.1
 20
60.9
 30
0.0
 11
64.452952387
 21
63.314814566
 31
0.0
  0
TEXT
  8
0
  6
CONTINUOUS
 62
     2
 10
64.1
 20
66.0
 30
0.3
 40
3.0
  1
４５
 50
90.0
 41
0.6
 51
0.0
  7
KANJI6
  0
TEXT
  8
0
  6
CONTINUOUS
 62
     2
 10
64.1
 20
70.3
 30
0.2
 40
2.0
  1
－０
 50
90.0
 41
0.5
 51
0.0
  7
KANJI9
  0
TEXT
  8
0
  6
CONTINUOUS
 62
     2
 10
62.4
 20
70.3
 30
0.2
 40
2.0
  1
＋０．８
 50
90.0
 41
0.5
 51
0.0
  7
KANJI9
  0
LINE
  8
0
  6
CONTINUOUS
 62
     2
 10
89.3
 20
30.0
 30
0.0
 11
126.8
 21
30.0
 31
0.0
  0
TEXT
  8
0
  6
CONTINUOUS
 62
     2
 10
100.85
 20
31.0
 30
0.3
 40
3.0
  1
１２０ｍｍ以上
 50
0.0
 41
0.6
 51
0.0
  7
KANJI6
  0
LINE
  8
0
  6
CONTINUOUS
 62
     2
 10
154.9
 20
68.0
 30
0.0
 11
154.9
 21
46.4
 31
0.0
  0
TEXT
  8
0
  6
CONTINUOUS
 62
     2
 10
153.9
 20
51.05
 30
0.3
 40
3.0
  1
７０ｍｍ以上
 50
90.0
 41
0.6
 51
0.0
  7
KANJI6
  0
TEXT
  8
0
  6
CONTINUOUS
 62
     2
 10
85.1
 20
81.0
 30
0.3
 40
3.0
  1
９２
 50
0.0
 41
0.6
 51
0.0
  7
KANJI6
  0
TEXT
  8
0
  6
CONTINUOUS
 62
     2
 10
89.3
 20
80.9
 30
0.2
 40
2.0
  1
－０
 50
0.0
 41
0.5
 51
0.0
  7
KANJI9
  0
TEXT
  8
0
  6
CONTINUOUS
 62
     2
 10
89.3
 20
82.7
 30
0.2
 40
2.0
  1
＋０．８
 50
0.0
 41
0.5
 51
0.0
  7
KANJI9
  0
ENDSEC
  0
EOF
