  0
SECTION
  2
HEADER
  9
$ACADVER
  1
AC1009
  9
$DWGCODEPAGE
  3
dos932
  9
$EXTMIN
 10
0.0
 20
0.0
 30
0.0
  9
$EXTMAX
 10
297.0
 20
210.0
 30
0.0
  9
$LIMMIN
 10
0.0
 20
0.0
  9
$LIMMAX
 10
297.0
 20
210.0
  9
$LTSCALE
 40
1.0
  9
$PDMODE
 70
     0
  0
ENDSEC
  0
SECTION
  2
TABLES
  0
TABLE
  2
VPORT
 70
     1
  0
VPORT
  2
*ACTIVE
 70
     0
 10
0.0
 20
0.0
 11
1.0
 21
1.0
 12
148.5
 22
105.0
 13
0.0
 23
0.0
 14
10.0
 24
10.0
 15
10.0
 25
10.0
 16
0.0
 26
0.0
 36
1.0
 17
0.0
 27
0.0
 37
0.0
 40
297.0
 41
1.414285714
 42
50.0
 43
0.0
 44
0.0
 50
0.0
 51
0.0
 71
     0
 72
  1000
 73
     1
 74
     3
 75
     0
 76
     0
 77
     0
 78
     0
  0
ENDTAB
  0
TABLE
  2
LTYPE
 70
     5
  0
LTYPE
  2
CONTINUOUS
 70
    64
  3
Solid line
 72
    65
 73
     0
 40
0.0
  0
LTYPE
  2
LTYPE1
 70
    64
  3
CENTER
 72
    65
 73
     4
 40
15.0
 49
10.5
 49
-1.5
 49
1.5
 49
-1.5
  0
LTYPE
  2
LTYPE2
 70
    64
  3
CENTER
 72
    65
 73
     4
 40
5.0
 49
3.5
 49
-0.5
 49
0.5
 49
-0.5
  0
LTYPE
  2
LTYPE3
 70
    64
  3
CENTER
 72
    65
 73
     4
 40
10.0
 49
7.0
 49
-1.0
 49
1.0
 49
-1.0
  0
LTYPE
  2
LTYPE4
 70
    64
  3
CENTER
 72
    65
 73
     4
 40
8.0
 49
5.6
 49
-0.8
 49
0.8
 49
-0.8
  0
ENDTAB
  0
TABLE
  2
LAYER
 70
   128
  0
LAYER
  2
0
 70
     0
 62
     7
  6
CONTINUOUS
  0
LAYER
  2
2
 70
     0
 62
     7
  6
CONTINUOUS
  0
LAYER
  2
3
 70
     0
 62
     7
  6
CONTINUOUS
  0
LAYER
  2
4
 70
     0
 62
     7
  6
CONTINUOUS
  0
LAYER
  2
5
 70
     0
 62
     7
  6
CONTINUOUS
  0
LAYER
  2
6
 70
     0
 62
     7
  6
CONTINUOUS
  0
LAYER
  2
7
 70
     0
 62
     7
  6
CONTINUOUS
  0
LAYER
  2
8
 70
     0
 62
     7
  6
CONTINUOUS
  0
LAYER
  2
9
 70
     0
 62
     7
  6
CONTINUOUS
  0
LAYER
  2
10
 70
     0
 62
     7
  6
CONTINUOUS
  0
LAYER
  2
11
 70
     0
 62
     7
  6
CONTINUOUS
  0
LAYER
  2
12
 70
     0
 62
     7
  6
CONTINUOUS
  0
LAYER
  2
13
 70
     0
 62
     7
  6
CONTINUOUS
  0
LAYER
  2
14
 70
     0
 62
     7
  6
CONTINUOUS
  0
LAYER
  2
15
 70
     0
 62
     7
  6
CONTINUOUS
  0
LAYER
  2
16
 70
     0
 62
     7
  6
CONTINUOUS
  0
LAYER
  2
17
 70
     0
 62
     7
  6
CONTINUOUS
  0
LAYER
  2
18
 70
     0
 62
     7
  6
CONTINUOUS
  0
LAYER
  2
19
 70
     0
 62
     7
  6
CONTINUOUS
  0
LAYER
  2
20
 70
     0
 62
     7
  6
CONTINUOUS
  0
LAYER
  2
21
 70
     0
 62
     7
  6
CONTINUOUS
  0
LAYER
  2
22
 70
     0
 62
     7
  6
CONTINUOUS
  0
LAYER
  2
23
 70
     0
 62
     7
  6
CONTINUOUS
  0
LAYER
  2
24
 70
     0
 62
     7
  6
CONTINUOUS
  0
LAYER
  2
25
 70
     0
 62
     7
  6
CONTINUOUS
  0
LAYER
  2
26
 70
     0
 62
     7
  6
CONTINUOUS
  0
LAYER
  2
27
 70
     0
 62
     7
  6
CONTINUOUS
  0
LAYER
  2
28
 70
     0
 62
     7
  6
CONTINUOUS
  0
LAYER
  2
29
 70
     0
 62
     7
  6
CONTINUOUS
  0
LAYER
  2
30
 70
     0
 62
     7
  6
CONTINUOUS
  0
LAYER
  2
31
 70
     0
 62
     7
  6
CONTINUOUS
  0
LAYER
  2
32
 70
     0
 62
     7
  6
CONTINUOUS
  0
LAYER
  2
33
 70
     0
 62
     7
  6
CONTINUOUS
  0
LAYER
  2
34
 70
     0
 62
     7
  6
CONTINUOUS
  0
LAYER
  2
35
 70
     0
 62
     7
  6
CONTINUOUS
  0
LAYER
  2
36
 70
     0
 62
     7
  6
CONTINUOUS
  0
LAYER
  2
37
 70
     0
 62
     7
  6
CONTINUOUS
  0
LAYER
  2
38
 70
     0
 62
     7
  6
CONTINUOUS
  0
LAYER
  2
39
 70
     0
 62
     7
  6
CONTINUOUS
  0
LAYER
  2
40
 70
     0
 62
     7
  6
CONTINUOUS
  0
LAYER
  2
41
 70
     0
 62
     7
  6
CONTINUOUS
  0
LAYER
  2
42
 70
     0
 62
     7
  6
CONTINUOUS
  0
LAYER
  2
43
 70
     0
 62
     7
  6
CONTINUOUS
  0
LAYER
  2
44
 70
     0
 62
     7
  6
CONTINUOUS
  0
LAYER
  2
45
 70
     0
 62
     7
  6
CONTINUOUS
  0
LAYER
  2
46
 70
     0
 62
     7
  6
CONTINUOUS
  0
LAYER
  2
47
 70
     0
 62
     7
  6
CONTINUOUS
  0
LAYER
  2
48
 70
     0
 62
     7
  6
CONTINUOUS
  0
LAYER
  2
49
 70
     0
 62
     7
  6
CONTINUOUS
  0
LAYER
  2
50
 70
     0
 62
     7
  6
CONTINUOUS
  0
LAYER
  2
51
 70
     0
 62
     7
  6
CONTINUOUS
  0
LAYER
  2
52
 70
     0
 62
     7
  6
CONTINUOUS
  0
LAYER
  2
53
 70
     0
 62
     7
  6
CONTINUOUS
  0
LAYER
  2
54
 70
     0
 62
     7
  6
CONTINUOUS
  0
LAYER
  2
55
 70
     0
 62
     7
  6
CONTINUOUS
  0
LAYER
  2
56
 70
     0
 62
     7
  6
CONTINUOUS
  0
LAYER
  2
57
 70
     0
 62
     7
  6
CONTINUOUS
  0
LAYER
  2
58
 70
     0
 62
     7
  6
CONTINUOUS
  0
LAYER
  2
59
 70
     0
 62
     7
  6
CONTINUOUS
  0
LAYER
  2
60
 70
     0
 62
     7
  6
CONTINUOUS
  0
LAYER
  2
61
 70
     0
 62
     7
  6
CONTINUOUS
  0
LAYER
  2
62
 70
     0
 62
     7
  6
CONTINUOUS
  0
LAYER
  2
63
 70
     0
 62
     7
  6
CONTINUOUS
  0
LAYER
  2
64
 70
     0
 62
     7
  6
CONTINUOUS
  0
LAYER
  2
65
 70
     0
 62
     7
  6
CONTINUOUS
  0
LAYER
  2
66
 70
     0
 62
     7
  6
CONTINUOUS
  0
LAYER
  2
67
 70
     0
 62
     7
  6
CONTINUOUS
  0
LAYER
  2
68
 70
     0
 62
     7
  6
CONTINUOUS
  0
LAYER
  2
69
 70
     0
 62
     7
  6
CONTINUOUS
  0
LAYER
  2
70
 70
     0
 62
     7
  6
CONTINUOUS
  0
LAYER
  2
71
 70
     0
 62
     7
  6
CONTINUOUS
  0
LAYER
  2
72
 70
     0
 62
     7
  6
CONTINUOUS
  0
LAYER
  2
73
 70
     0
 62
     7
  6
CONTINUOUS
  0
LAYER
  2
74
 70
     0
 62
     7
  6
CONTINUOUS
  0
LAYER
  2
75
 70
     0
 62
     7
  6
CONTINUOUS
  0
LAYER
  2
76
 70
     0
 62
     7
  6
CONTINUOUS
  0
LAYER
  2
77
 70
     0
 62
     7
  6
CONTINUOUS
  0
LAYER
  2
78
 70
     0
 62
     7
  6
CONTINUOUS
  0
LAYER
  2
79
 70
     0
 62
     7
  6
CONTINUOUS
  0
LAYER
  2
80
 70
     0
 62
     7
  6
CONTINUOUS
  0
LAYER
  2
81
 70
     0
 62
     7
  6
CONTINUOUS
  0
LAYER
  2
82
 70
     0
 62
     7
  6
CONTINUOUS
  0
LAYER
  2
83
 70
     0
 62
     7
  6
CONTINUOUS
  0
LAYER
  2
84
 70
     0
 62
     7
  6
CONTINUOUS
  0
LAYER
  2
85
 70
     0
 62
     7
  6
CONTINUOUS
  0
LAYER
  2
86
 70
     0
 62
     7
  6
CONTINUOUS
  0
LAYER
  2
87
 70
     0
 62
     7
  6
CONTINUOUS
  0
LAYER
  2
88
 70
     0
 62
     7
  6
CONTINUOUS
  0
LAYER
  2
89
 70
     0
 62
     7
  6
CONTINUOUS
  0
LAYER
  2
90
 70
     0
 62
     7
  6
CONTINUOUS
  0
LAYER
  2
91
 70
     0
 62
     7
  6
CONTINUOUS
  0
LAYER
  2
92
 70
     0
 62
     7
  6
CONTINUOUS
  0
LAYER
  2
93
 70
     0
 62
     7
  6
CONTINUOUS
  0
LAYER
  2
94
 70
     0
 62
     7
  6
CONTINUOUS
  0
LAYER
  2
95
 70
     0
 62
     7
  6
CONTINUOUS
  0
LAYER
  2
96
 70
     0
 62
     7
  6
CONTINUOUS
  0
LAYER
  2
97
 70
     0
 62
     7
  6
CONTINUOUS
  0
LAYER
  2
98
 70
     0
 62
     7
  6
CONTINUOUS
  0
LAYER
  2
99
 70
     0
 62
     7
  6
CONTINUOUS
  0
LAYER
  2
100
 70
     0
 62
     7
  6
CONTINUOUS
  0
LAYER
  2
101
 70
     0
 62
     7
  6
CONTINUOUS
  0
LAYER
  2
102
 70
     0
 62
     7
  6
CONTINUOUS
  0
LAYER
  2
103
 70
     0
 62
     7
  6
CONTINUOUS
  0
LAYER
  2
104
 70
     0
 62
     7
  6
CONTINUOUS
  0
LAYER
  2
105
 70
     0
 62
     7
  6
CONTINUOUS
  0
LAYER
  2
106
 70
     0
 62
     7
  6
CONTINUOUS
  0
LAYER
  2
107
 70
     0
 62
     7
  6
CONTINUOUS
  0
LAYER
  2
108
 70
     0
 62
     7
  6
CONTINUOUS
  0
LAYER
  2
109
 70
     0
 62
     7
  6
CONTINUOUS
  0
LAYER
  2
110
 70
     0
 62
     7
  6
CONTINUOUS
  0
LAYER
  2
111
 70
     0
 62
     7
  6
CONTINUOUS
  0
LAYER
  2
112
 70
     0
 62
     7
  6
CONTINUOUS
  0
LAYER
  2
113
 70
     0
 62
     7
  6
CONTINUOUS
  0
LAYER
  2
114
 70
     0
 62
     7
  6
CONTINUOUS
  0
LAYER
  2
115
 70
     0
 62
     7
  6
CONTINUOUS
  0
LAYER
  2
116
 70
     0
 62
     7
  6
CONTINUOUS
  0
LAYER
  2
117
 70
     0
 62
     7
  6
CONTINUOUS
  0
LAYER
  2
118
 70
     0
 62
     7
  6
CONTINUOUS
  0
LAYER
  2
119
 70
     0
 62
     7
  6
CONTINUOUS
  0
LAYER
  2
120
 70
     0
 62
     7
  6
CONTINUOUS
  0
LAYER
  2
121
 70
     0
 62
     7
  6
CONTINUOUS
  0
LAYER
  2
122
 70
     0
 62
     7
  6
CONTINUOUS
  0
LAYER
  2
123
 70
     0
 62
     7
  6
CONTINUOUS
  0
LAYER
  2
124
 70
     0
 62
     7
  6
CONTINUOUS
  0
LAYER
  2
125
 70
     0
 62
     7
  6
CONTINUOUS
  0
LAYER
  2
126
 70
     0
 62
     7
  6
CONTINUOUS
  0
LAYER
  2
127
 70
     0
 62
     7
  6
CONTINUOUS
  0
LAYER
  2
128
 70
     0
 62
     7
  6
CONTINUOUS
  0
ENDTAB
  0
TABLE
  2
STYLE
 70
    10
  0
STYLE
  2
STANDARD
 70
     0
 40
0.0
 41
1.0
 50
0.0
 71
     0
 42
0.2
  3
txt.shx
  4
extfont.shx
  0
STYLE
  2
KANJI0
 70
     0
 40
6.0
 41
0.9
 50
0.0
 71
     0
 42
6.0
  3
txt.shx
  4
extfont.shx
  0
STYLE
  2
KANJI1
 70
     0
 40
1.8
 41
0.6
 50
0.0
 71
     0
 42
1.8
  3
txt.shx
  4
extfont.shx
  0
STYLE
  2
KANJI2
 70
     0
 40
3.0
 41
0.6
 50
0.0
 71
     0
 42
3.0
  3
txt.shx
  4
extfont.shx
  0
STYLE
  2
KANJI3
 70
     0
 40
1.5
 41
0.9
 50
0.0
 71
     0
 42
1.5
  3
txt.shx
  4
extfont.shx
  0
STYLE
  2
KANJI4
 70
     0
 40
3.0
 41
0.5
 50
0.0
 71
     0
 42
3.0
  3
txt.shx
  4
extfont.shx
  0
STYLE
  2
KANJI5
 70
     0
 40
3.0
 41
0.9
 50
0.0
 71
     0
 42
3.0
  3
txt.shx
  4
extfont.shx
  0
STYLE
  2
KANJI6
 70
     0
 40
2.0
 41
0.9
 50
0.0
 71
     0
 42
2.0
  3
txt.shx
  4
extfont.shx
  0
STYLE
  2
KANJI7
 70
     0
 40
3.0
 41
0.6
 50
0.0
 71
     0
 42
3.0
  3
txt.shx
  4
extfont.shx
  0
STYLE
  2
KANJI8
 70
     0
 40
4.0
 41
0.9
 50
0.0
 71
     0
 42
4.0
  3
txt.shx
  4
extfont.shx
  0
ENDTAB
  0
TABLE
  2
VIEW
 70
     0
  0
ENDTAB
  0
ENDSEC
  0
SECTION
  2
BLOCKS
  0
ENDSEC
  0
SECTION
  2
ENTITIES
  0
TEXT
  8
0
  6
CONTINUOUS
 62
     3
 10
232.5
 20
17.0
 30
0.6
 40
6.0
  1
ＭＳ－１１０２０Ａ
 50
0.0
 41
0.9
 51
0.0
  7
KANJI0
  0
LINE
  8
0
  6
CONTINUOUS
 62
     2
 10
82.45
 20
160.4
 30
0.0
 11
82.3
 21
160.4
 31
0.0
  0
ARC
  8
0
  6
CONTINUOUS
 62
     2
 10
89.2
 20
126.15
 30
0.0
 40
7.0
 50
165.068582822
 51
194.931417178
  0
LINE
  8
0
  6
CONTINUOUS
 62
     2
 10
138.3
 20
141.225
 30
0.0
 11
138.3
 21
137.575
 31
0.0
  0
LINE
  8
0
  6
LTYPE1
 62
     2
 10
80.45
 20
132.9
 30
0.0
 11
84.45
 21
132.9
 31
0.0
  0
LINE
  8
0
  6
LTYPE1
 62
     2
 10
80.45
 20
126.15
 30
0.0
 11
84.45
 21
126.15
 31
0.0
  0
LINE
  8
0
  6
CONTINUOUS
 62
     2
 10
137.3
 20
140.65
 30
0.0
 11
137.3
 21
138.15
 31
0.0
  0
LINE
  8
0
  6
CONTINUOUS
 62
     2
 10
137.3
 20
140.65
 30
0.0
 11
137.3
 21
140.775
 31
0.0
  0
LINE
  8
0
  6
CONTINUOUS
 62
     2
 10
137.3
 20
140.775
 30
0.0
 11
137.844766293
 21
140.775
 31
0.0
  0
ARC
  8
0
  6
CONTINUOUS
 62
     2
 10
137.681682295
 20
140.302344089
 30
0.0
 40
0.5
 50
34.773912785
 51
70.963647363
  0
LINE
  8
0
  6
CONTINUOUS
 62
     2
 10
137.3
 20
138.15
 30
0.0
 11
137.3
 21
138.025
 31
0.0
  0
LINE
  8
0
  6
CONTINUOUS
 62
     2
 10
137.3
 20
138.025
 30
0.0
 11
137.844766293
 21
138.025
 31
0.0
  0
ARC
  8
0
  6
CONTINUOUS
 62
     2
 10
137.681682295
 20
138.497655911
 30
0.0
 40
0.5
 50
289.036352637
 51
325.226087215
  0
LINE
  8
0
  6
CONTINUOUS
 62
     2
 10
138.3
 20
139.6
 30
0.0
 11
137.75
 21
139.6
 31
0.0
  0
LINE
  8
0
  6
CONTINUOUS
 62
     2
 10
137.75
 20
139.6
 30
0.0
 11
137.75
 21
139.2
 31
0.0
  0
LINE
  8
0
  6
CONTINUOUS
 62
     2
 10
137.75
 20
139.2
 30
0.0
 11
138.3
 21
139.2
 31
0.0
  0
ARC
  8
0
  6
CONTINUOUS
 62
     2
 10
134.8
 20
139.4
 30
0.0
 40
3.5
 50
3.270487923
 51
19.833603907
  0
ARC
  8
0
  6
CONTINUOUS
 62
     2
 10
134.8
 20
139.4
 30
0.0
 40
3.5
 50
340.166396093
 51
356.729512077
  0
ARC
  8
0
  6
CONTINUOUS
 62
     2
 10
173.228275646
 20
141.725
 30
0.0
 40
0.75
 50
171.230542851
 51
270.0
  0
ARC
  8
0
  6
CONTINUOUS
 62
     2
 10
173.48128295
 20
141.725
 30
0.0
 40
0.75
 50
171.083203747
 51
270.0
  0
LINE
  8
0
  6
CONTINUOUS
 62
     2
 10
174.3
 20
140.975
 30
0.0
 11
173.228275646
 21
140.975
 31
0.0
  0
ARC
  8
0
  6
CONTINUOUS
 62
     2
 10
174.3
 20
139.4
 30
0.0
 40
1.575
 50
270.0
 51
90.0
  0
ARC
  8
0
  6
CONTINUOUS
 62
     2
 10
173.228275646
 20
137.075
 30
0.0
 40
0.75
 50
90.0
 51
188.769457149
  0
ARC
  8
0
  6
CONTINUOUS
 62
     2
 10
173.48128295
 20
137.075
 30
0.0
 40
0.75
 50
90.0
 51
188.916796253
  0
LINE
  8
0
  6
CONTINUOUS
 62
     2
 10
174.3
 20
137.825
 30
0.0
 11
173.228275646
 21
137.825
 31
0.0
  0
ARC
  8
0
  6
CONTINUOUS
 62
     2
 10
188.3
 20
139.4
 30
0.0
 40
15.75
 50
188.916789398
 51
171.083194053
  0
ARC
  8
0
  6
CONTINUOUS
 62
     2
 10
188.3
 20
139.4
 30
0.0
 40
15.75
 50
173.297331124
 51
186.702668876
  0
CIRCLE
  8
0
  6
CONTINUOUS
 62
     2
 10
174.3
 20
139.4
 30
0.0
 40
1.375
  0
LINE
  8
0
  6
CONTINUOUS
 62
     2
 10
173.5
 20
138.6
 30
0.0
 11
175.1
 21
140.2
 31
0.0
  0
LINE
  8
0
  6
CONTINUOUS
 62
     2
 10
175.1
 20
138.6
 30
0.0
 11
173.5
 21
140.2
 31
0.0
  0
ARC
  8
0
  6
CONTINUOUS
 62
     2
 10
203.371724354
 20
141.725
 30
0.0
 40
0.75
 50
270.0
 51
8.769457149
  0
ARC
  8
0
  6
CONTINUOUS
 62
     2
 10
203.11871705
 20
141.725
 30
0.0
 40
0.75
 50
270.0
 51
8.916796253
  0
LINE
  8
0
  6
CONTINUOUS
 62
     2
 10
202.3
 20
140.975
 30
0.0
 11
203.371724354
 21
140.975
 31
0.0
  0
ARC
  8
0
  6
CONTINUOUS
 62
     2
 10
202.3
 20
139.4
 30
0.0
 40
1.575
 50
90.0
 51
270.0
  0
ARC
  8
0
  6
CONTINUOUS
 62
     2
 10
203.371724354
 20
137.075
 30
0.0
 40
0.75
 50
351.230542851
 51
90.0
  0
ARC
  8
0
  6
CONTINUOUS
 62
     2
 10
203.11871705
 20
137.075
 30
0.0
 40
0.75
 50
351.083203747
 51
90.0
  0
LINE
  8
0
  6
CONTINUOUS
 62
     2
 10
202.3
 20
137.825
 30
0.0
 11
203.371724354
 21
137.825
 31
0.0
  0
ARC
  8
0
  6
CONTINUOUS
 62
     2
 10
188.3
 20
139.4
 30
0.0
 40
15.75
 50
353.297331124
 51
6.702668876
  0
CIRCLE
  8
0
  6
CONTINUOUS
 62
     2
 10
202.3
 20
139.4
 30
0.0
 40
1.375
  0
LINE
  8
0
  6
CONTINUOUS
 62
     2
 10
203.1
 20
138.6
 30
0.0
 11
201.5
 21
140.2
 31
0.0
  0
LINE
  8
0
  6
CONTINUOUS
 62
     2
 10
201.5
 20
138.6
 30
0.0
 11
203.1
 21
140.2
 31
0.0
  0
ARC
  8
0
  6
CONTINUOUS
 62
     2
 10
182.05
 20
141.45
 30
0.0
 40
0.25
 50
180.0
 51
270.0
  0
LINE
  8
0
  6
CONTINUOUS
 62
     2
 10
182.05
 20
141.2
 30
0.0
 11
186.05
 21
141.2
 31
0.0
  0
CIRCLE
  8
0
  6
CONTINUOUS
 62
     2
 10
184.3
 20
139.4
 30
0.0
 40
1.375
  0
LINE
  8
0
  6
LTYPE2
 62
     2
 10
182.3
 20
139.4
 30
0.0
 11
186.3
 21
139.4
 31
0.0
  0
LINE
  8
0
  6
LTYPE2
 62
     2
 10
184.3
 20
141.4
 30
0.0
 11
184.3
 21
137.4
 31
0.0
  0
CIRCLE
  8
0
  6
CONTINUOUS
 62
     2
 10
184.3
 20
143.9
 30
0.0
 40
1.375
  0
LINE
  8
0
  6
CONTINUOUS
 62
     2
 10
185.1
 20
144.7
 30
0.0
 11
183.5
 21
143.1
 31
0.0
  0
LINE
  8
0
  6
CONTINUOUS
 62
     2
 10
183.5
 20
144.7
 30
0.0
 11
185.1
 21
143.1
 31
0.0
  0
LINE
  8
0
  6
LTYPE2
 62
     2
 10
182.3
 20
143.9
 30
0.0
 11
186.3
 21
143.9
 31
0.0
  0
LINE
  8
0
  6
LTYPE2
 62
     2
 10
184.3
 20
145.9
 30
0.0
 11
184.3
 21
141.9
 31
0.0
  0
CIRCLE
  8
0
  6
CONTINUOUS
 62
     2
 10
184.3
 20
148.4
 30
0.0
 40
1.375
  0
LINE
  8
0
  6
CONTINUOUS
 62
     2
 10
185.1
 20
149.2
 30
0.0
 11
183.5
 21
147.6
 31
0.0
  0
LINE
  8
0
  6
CONTINUOUS
 62
     2
 10
183.5
 20
149.2
 30
0.0
 11
185.1
 21
147.6
 31
0.0
  0
LINE
  8
0
  6
LTYPE2
 62
     2
 10
182.3
 20
148.4
 30
0.0
 11
186.3
 21
148.4
 31
0.0
  0
LINE
  8
0
  6
LTYPE2
 62
     2
 10
184.3
 20
150.4
 30
0.0
 11
184.3
 21
146.4
 31
0.0
  0
CIRCLE
  8
0
  6
CONTINUOUS
 62
     2
 10
184.3
 20
134.9
 30
0.0
 40
1.375
  0
LINE
  8
0
  6
LTYPE2
 62
     2
 10
182.3
 20
134.9
 30
0.0
 11
186.3
 21
134.9
 31
0.0
  0
LINE
  8
0
  6
LTYPE2
 62
     2
 10
184.3
 20
136.9
 30
0.0
 11
184.3
 21
132.9
 31
0.0
  0
CIRCLE
  8
0
  6
CONTINUOUS
 62
     2
 10
184.3
 20
130.4
 30
0.0
 40
1.375
  0
LINE
  8
0
  6
LTYPE2
 62
     2
 10
182.3
 20
130.4
 30
0.0
 11
186.3
 21
130.4
 31
0.0
  0
CIRCLE
  8
0
  6
CONTINUOUS
 62
     2
 10
192.3
 20
139.4
 30
0.0
 40
1.375
  0
LINE
  8
0
  6
CONTINUOUS
 62
     2
 10
191.5
 20
140.2
 30
0.0
 11
193.1
 21
138.6
 31
0.0
  0
LINE
  8
0
  6
CONTINUOUS
 62
     2
 10
193.1
 20
140.2
 30
0.0
 11
191.5
 21
138.6
 31
0.0
  0
LINE
  8
0
  6
LTYPE2
 62
     2
 10
194.3
 20
139.4
 30
0.0
 11
190.3
 21
139.4
 31
0.0
  0
LINE
  8
0
  6
LTYPE2
 62
     2
 10
192.3
 20
141.4
 30
0.0
 11
192.3
 21
137.4
 31
0.0
  0
CIRCLE
  8
0
  6
CONTINUOUS
 62
     2
 10
192.3
 20
143.9
 30
0.0
 40
1.375
  0
LINE
  8
0
  6
LTYPE2
 62
     2
 10
194.3
 20
143.9
 30
0.0
 11
190.3
 21
143.9
 31
0.0
  0
LINE
  8
0
  6
LTYPE2
 62
     2
 10
192.3
 20
145.9
 30
0.0
 11
192.3
 21
141.9
 31
0.0
  0
CIRCLE
  8
0
  6
CONTINUOUS
 62
     2
 10
192.3
 20
148.4
 30
0.0
 40
1.375
  0
LINE
  8
0
  6
LTYPE2
 62
     2
 10
194.3
 20
148.4
 30
0.0
 11
190.3
 21
148.4
 31
0.0
  0
LINE
  8
0
  6
LTYPE2
 62
     2
 10
192.3
 20
150.4
 30
0.0
 11
192.3
 21
146.4
 31
0.0
  0
CIRCLE
  8
0
  6
CONTINUOUS
 62
     2
 10
192.3
 20
134.9
 30
0.0
 40
1.375
  0
LINE
  8
0
  6
CONTINUOUS
 62
     2
 10
191.5
 20
135.7
 30
0.0
 11
193.1
 21
134.1
 31
0.0
  0
LINE
  8
0
  6
CONTINUOUS
 62
     2
 10
193.1
 20
135.7
 30
0.0
 11
191.5
 21
134.1
 31
0.0
  0
LINE
  8
0
  6
LTYPE2
 62
     2
 10
194.3
 20
134.9
 30
0.0
 11
190.3
 21
134.9
 31
0.0
  0
LINE
  8
0
  6
LTYPE2
 62
     2
 10
192.3
 20
136.9
 30
0.0
 11
192.3
 21
132.9
 31
0.0
  0
CIRCLE
  8
0
  6
CONTINUOUS
 62
     2
 10
192.3
 20
130.4
 30
0.0
 40
1.375
  0
LINE
  8
0
  6
CONTINUOUS
 62
     2
 10
191.5
 20
131.2
 30
0.0
 11
193.1
 21
129.6
 31
0.0
  0
LINE
  8
0
  6
CONTINUOUS
 62
     2
 10
193.1
 20
131.2
 30
0.0
 11
191.5
 21
129.6
 31
0.0
  0
LINE
  8
0
  6
LTYPE2
 62
     2
 10
194.3
 20
130.4
 30
0.0
 11
190.3
 21
130.4
 31
0.0
  0
LINE
  8
0
  6
LTYPE2
 62
     2
 10
192.3
 20
132.4
 30
0.0
 11
192.3
 21
128.4
 31
0.0
  0
CIRCLE
  8
0
  6
CONTINUOUS
 62
     2
 10
204.3
 20
123.4
 30
0.0
 40
2.0
  0
CIRCLE
  8
0
  6
CONTINUOUS
 62
     2
 10
204.3
 20
123.4
 30
0.0
 40
0.75
  0
LINE
  8
0
  6
CONTINUOUS
 62
     2
 10
204.3
 20
125.0
 30
0.0
 11
202.914359354
 21
124.2
 31
0.0
  0
LINE
  8
0
  6
CONTINUOUS
 62
     2
 10
202.914359354
 20
124.2
 30
0.0
 11
202.914359354
 21
122.6
 31
0.0
  0
LINE
  8
0
  6
CONTINUOUS
 62
     2
 10
202.914359354
 20
122.6
 30
0.0
 11
204.3
 21
121.8
 31
0.0
  0
LINE
  8
0
  6
CONTINUOUS
 62
     2
 10
204.3
 20
121.8
 30
0.0
 11
205.685640646
 21
122.6
 31
0.0
  0
LINE
  8
0
  6
CONTINUOUS
 62
     2
 10
205.685640646
 20
122.6
 30
0.0
 11
205.685640646
 21
124.2
 31
0.0
  0
LINE
  8
0
  6
CONTINUOUS
 62
     2
 10
205.685640646
 20
124.2
 30
0.0
 11
204.3
 21
125.0
 31
0.0
  0
LINE
  8
0
  6
LTYPE2
 62
     2
 10
201.3
 20
123.4
 30
0.0
 11
207.3
 21
123.4
 31
0.0
  0
LINE
  8
0
  6
LTYPE2
 62
     2
 10
204.3
 20
126.4
 30
0.0
 11
204.3
 21
120.4
 31
0.0
  0
CIRCLE
  8
0
  6
CONTINUOUS
 62
     2
 10
172.3
 20
123.4
 30
0.0
 40
2.0
  0
CIRCLE
  8
0
  6
CONTINUOUS
 62
     2
 10
172.3
 20
123.4
 30
0.0
 40
0.75
  0
LINE
  8
0
  6
CONTINUOUS
 62
     2
 10
172.3
 20
125.0
 30
0.0
 11
170.914359354
 21
124.2
 31
0.0
  0
LINE
  8
0
  6
CONTINUOUS
 62
     2
 10
170.914359354
 20
124.2
 30
0.0
 11
170.914359354
 21
122.6
 31
0.0
  0
LINE
  8
0
  6
CONTINUOUS
 62
     2
 10
170.914359354
 20
122.6
 30
0.0
 11
172.3
 21
121.8
 31
0.0
  0
LINE
  8
0
  6
CONTINUOUS
 62
     2
 10
172.3
 20
121.8
 30
0.0
 11
173.685640646
 21
122.6
 31
0.0
  0
LINE
  8
0
  6
CONTINUOUS
 62
     2
 10
173.685640646
 20
122.6
 30
0.0
 11
173.685640646
 21
124.2
 31
0.0
  0
LINE
  8
0
  6
CONTINUOUS
 62
     2
 10
173.685640646
 20
124.2
 30
0.0
 11
172.3
 21
125.0
 31
0.0
  0
LINE
  8
0
  6
LTYPE2
 62
     2
 10
169.3
 20
123.4
 30
0.0
 11
175.3
 21
123.4
 31
0.0
  0
LINE
  8
0
  6
LTYPE2
 62
     2
 10
172.3
 20
126.4
 30
0.0
 11
172.3
 21
120.4
 31
0.0
  0
CIRCLE
  8
0
  6
CONTINUOUS
 62
     2
 10
172.3
 20
155.4
 30
0.0
 40
2.0
  0
CIRCLE
  8
0
  6
CONTINUOUS
 62
     2
 10
172.3
 20
155.4
 30
0.0
 40
0.75
  0
LINE
  8
0
  6
CONTINUOUS
 62
     2
 10
172.3
 20
157.0
 30
0.0
 11
170.914359354
 21
156.2
 31
0.0
  0
LINE
  8
0
  6
CONTINUOUS
 62
     2
 10
170.914359354
 20
156.2
 30
0.0
 11
170.914359354
 21
154.6
 31
0.0
  0
LINE
  8
0
  6
CONTINUOUS
 62
     2
 10
170.914359354
 20
154.6
 30
0.0
 11
172.3
 21
153.8
 31
0.0
  0
LINE
  8
0
  6
CONTINUOUS
 62
     2
 10
172.3
 20
153.8
 30
0.0
 11
173.685640646
 21
154.6
 31
0.0
  0
LINE
  8
0
  6
CONTINUOUS
 62
     2
 10
173.685640646
 20
154.6
 30
0.0
 11
173.685640646
 21
156.2
 31
0.0
  0
LINE
  8
0
  6
CONTINUOUS
 62
     2
 10
173.685640646
 20
156.2
 30
0.0
 11
172.3
 21
157.0
 31
0.0
  0
LINE
  8
0
  6
LTYPE2
 62
     2
 10
169.3
 20
155.4
 30
0.0
 11
175.3
 21
155.4
 31
0.0
  0
LINE
  8
0
  6
LTYPE2
 62
     2
 10
172.3
 20
158.4
 30
0.0
 11
172.3
 21
152.4
 31
0.0
  0
CIRCLE
  8
0
  6
CONTINUOUS
 62
     2
 10
204.3
 20
155.4
 30
0.0
 40
2.0
  0
CIRCLE
  8
0
  6
CONTINUOUS
 62
     2
 10
204.3
 20
155.4
 30
0.0
 40
0.75
  0
LINE
  8
0
  6
CONTINUOUS
 62
     2
 10
204.3
 20
157.0
 30
0.0
 11
202.914359354
 21
156.2
 31
0.0
  0
LINE
  8
0
  6
CONTINUOUS
 62
     2
 10
202.914359354
 20
156.2
 30
0.0
 11
202.914359354
 21
154.6
 31
0.0
  0
LINE
  8
0
  6
CONTINUOUS
 62
     2
 10
202.914359354
 20
154.6
 30
0.0
 11
204.3
 21
153.8
 31
0.0
  0
LINE
  8
0
  6
CONTINUOUS
 62
     2
 10
204.3
 20
153.8
 30
0.0
 11
205.685640646
 21
154.6
 31
0.0
  0
LINE
  8
0
  6
CONTINUOUS
 62
     2
 10
205.685640646
 20
154.6
 30
0.0
 11
205.685640646
 21
156.2
 31
0.0
  0
LINE
  8
0
  6
CONTINUOUS
 62
     2
 10
205.685640646
 20
156.2
 30
0.0
 11
204.3
 21
157.0
 31
0.0
  0
LINE
  8
0
  6
LTYPE2
 62
     2
 10
201.3
 20
155.4
 30
0.0
 11
207.3
 21
155.4
 31
0.0
  0
LINE
  8
0
  6
LTYPE2
 62
     2
 10
204.3
 20
158.4
 30
0.0
 11
204.3
 21
152.4
 31
0.0
  0
LINE
  8
0
  6
LTYPE2
 62
     2
 10
87.5
 20
155.4
 30
0.0
 11
94.9
 21
155.4
 31
0.0
  0
LINE
  8
0
  6
CONTINUOUS
 62
     2
 10
88.3
 20
157.35
 30
0.0
 11
88.55
 21
157.35
 31
0.0
  0
LINE
  8
0
  6
CONTINUOUS
 62
     2
 10
88.55
 20
153.35
 30
0.0
 11
88.3
 21
153.35
 31
0.0
  0
LINE
  8
0
  6
CONTINUOUS
 62
     2
 10
88.55
 20
157.35
 30
0.0
 11
88.55
 21
153.35
 31
0.0
  0
LINE
  8
0
  6
CONTINUOUS
 62
     2
 10
90.9
 20
156.925
 30
0.0
 11
91.1
 21
156.725
 31
0.0
  0
LINE
  8
0
  6
CONTINUOUS
 62
     2
 10
90.875
 20
156.1
 30
0.0
 11
91.075
 21
156.3
 31
0.0
  0
LINE
  8
0
  6
CONTINUOUS
 62
     2
 10
91.075
 20
155.9
 30
0.0
 11
90.875
 21
156.1
 31
0.0
  0
LINE
  8
0
  6
CONTINUOUS
 62
     2
 10
89.9
 20
156.925
 30
0.0
 11
90.9
 21
156.925
 31
0.0
  0
LINE
  8
0
  6
CONTINUOUS
 62
     2
 10
89.9
 20
156.1
 30
0.0
 11
90.875
 21
156.1
 31
0.0
  0
LINE
  8
0
  6
CONTINUOUS
 62
     2
 10
90.9
 20
153.825
 30
0.0
 11
91.1
 21
154.025
 31
0.0
  0
LINE
  8
0
  6
CONTINUOUS
 62
     2
 10
90.9
 20
153.825
 30
0.0
 11
89.9
 21
153.825
 31
0.0
  0
LINE
  8
0
  6
CONTINUOUS
 62
     2
 10
89.9
 20
153.825
 30
0.0
 11
89.9
 21
156.925
 31
0.0
  0
LINE
  8
0
  6
CONTINUOUS
 62
     2
 10
91.1
 20
156.725
 30
0.0
 11
91.1
 21
154.025
 31
0.0
  0
LINE
  8
0
  6
CONTINUOUS
 62
     2
 10
91.1
 20
156.125
 30
0.0
 11
93.55
 21
156.125
 31
0.0
  0
LINE
  8
0
  6
CONTINUOUS
 62
     2
 10
93.53
 20
155.95
 30
0.0
 11
91.1
 21
155.95
 31
0.0
  0
LINE
  8
0
  6
CONTINUOUS
 62
     2
 10
89.9
 20
156.925
 30
0.0
 11
89.6
 21
157.225
 31
0.0
  0
LINE
  8
0
  6
CONTINUOUS
 62
     2
 10
89.6
 20
157.225
 30
0.0
 11
89.6
 21
153.525
 31
0.0
  0
LINE
  8
0
  6
CONTINUOUS
 62
     2
 10
89.9
 20
153.825
 30
0.0
 11
89.6
 21
153.525
 31
0.0
  0
LINE
  8
0
  6
CONTINUOUS
 62
     2
 10
89.6
 20
154.85
 30
0.0
 11
88.55
 21
154.85
 31
0.0
  0
LINE
  8
0
  6
CONTINUOUS
 62
     2
 10
88.55
 20
156.1
 30
0.0
 11
89.6
 21
156.1
 31
0.0
  0
LINE
  8
0
  6
CONTINUOUS
 62
     2
 10
89.6
 20
155.95
 30
0.0
 11
88.55
 21
155.95
 31
0.0
  0
LINE
  8
0
  6
CONTINUOUS
 62
     2
 10
93.55
 20
156.125
 30
0.0
 11
93.55
 21
154.675
 31
0.0
  0
LINE
  8
0
  6
CONTINUOUS
 62
     2
 10
93.55
 20
154.675
 30
0.0
 11
91.1
 21
154.675
 31
0.0
  0
LINE
  8
0
  6
CONTINUOUS
 62
     2
 10
91.1
 20
154.85
 30
0.0
 11
93.55
 21
154.85
 31
0.0
  0
LINE
  8
0
  6
CONTINUOUS
 62
     2
 10
90.885
 20
154.675
 30
0.0
 11
89.9
 21
154.675
 31
0.0
  0
LINE
  8
0
  6
CONTINUOUS
 62
     2
 10
88.55
 20
154.675
 30
0.0
 11
89.6
 21
154.675
 31
0.0
  0
LINE
  8
0
  6
CONTINUOUS
 62
     2
 10
90.885
 20
154.675
 30
0.0
 11
91.085
 21
154.875
 31
0.0
  0
LINE
  8
0
  6
CONTINUOUS
 62
     2
 10
91.085
 20
154.475
 30
0.0
 11
90.885
 21
154.675
 31
0.0
  0
LINE
  8
0
  6
LTYPE2
 62
     2
 10
87.5
 20
123.4
 30
0.0
 11
94.9
 21
123.4
 31
0.0
  0
LINE
  8
0
  6
CONTINUOUS
 62
     2
 10
88.3
 20
125.35
 30
0.0
 11
88.55
 21
125.35
 31
0.0
  0
LINE
  8
0
  6
CONTINUOUS
 62
     2
 10
88.55
 20
121.35
 30
0.0
 11
88.3
 21
121.35
 31
0.0
  0
LINE
  8
0
  6
CONTINUOUS
 62
     2
 10
88.55
 20
125.35
 30
0.0
 11
88.55
 21
121.35
 31
0.0
  0
LINE
  8
0
  6
CONTINUOUS
 62
     2
 10
90.9
 20
124.925
 30
0.0
 11
91.1
 21
124.725
 31
0.0
  0
LINE
  8
0
  6
CONTINUOUS
 62
     2
 10
90.875
 20
124.1
 30
0.0
 11
91.075
 21
124.3
 31
0.0
  0
LINE
  8
0
  6
CONTINUOUS
 62
     2
 10
91.075
 20
123.9
 30
0.0
 11
90.875
 21
124.1
 31
0.0
  0
LINE
  8
0
  6
CONTINUOUS
 62
     2
 10
89.9
 20
124.925
 30
0.0
 11
90.9
 21
124.925
 31
0.0
  0
LINE
  8
0
  6
CONTINUOUS
 62
     2
 10
89.9
 20
124.1
 30
0.0
 11
90.875
 21
124.1
 31
0.0
  0
LINE
  8
0
  6
CONTINUOUS
 62
     2
 10
90.9
 20
121.825
 30
0.0
 11
91.1
 21
122.025
 31
0.0
  0
LINE
  8
0
  6
CONTINUOUS
 62
     2
 10
90.9
 20
121.825
 30
0.0
 11
89.9
 21
121.825
 31
0.0
  0
LINE
  8
0
  6
CONTINUOUS
 62
     2
 10
89.9
 20
121.825
 30
0.0
 11
89.9
 21
124.925
 31
0.0
  0
LINE
  8
0
  6
CONTINUOUS
 62
     2
 10
91.1
 20
124.725
 30
0.0
 11
91.1
 21
122.025
 31
0.0
  0
LINE
  8
0
  6
CONTINUOUS
 62
     2
 10
91.1
 20
124.125
 30
0.0
 11
93.55
 21
124.125
 31
0.0
  0
LINE
  8
0
  6
CONTINUOUS
 62
     2
 10
93.53
 20
123.95
 30
0.0
 11
91.1
 21
123.95
 31
0.0
  0
LINE
  8
0
  6
CONTINUOUS
 62
     2
 10
89.9
 20
124.925
 30
0.0
 11
89.6
 21
125.225
 31
0.0
  0
LINE
  8
0
  6
CONTINUOUS
 62
     2
 10
89.6
 20
125.225
 30
0.0
 11
89.6
 21
121.525
 31
0.0
  0
LINE
  8
0
  6
CONTINUOUS
 62
     2
 10
89.9
 20
121.825
 30
0.0
 11
89.6
 21
121.525
 31
0.0
  0
LINE
  8
0
  6
CONTINUOUS
 62
     2
 10
89.6
 20
122.85
 30
0.0
 11
88.55
 21
122.85
 31
0.0
  0
LINE
  8
0
  6
CONTINUOUS
 62
     2
 10
88.55
 20
124.1
 30
0.0
 11
89.6
 21
124.1
 31
0.0
  0
LINE
  8
0
  6
CONTINUOUS
 62
     2
 10
89.6
 20
123.95
 30
0.0
 11
88.55
 21
123.95
 31
0.0
  0
LINE
  8
0
  6
CONTINUOUS
 62
     2
 10
93.55
 20
124.125
 30
0.0
 11
93.55
 21
122.675
 31
0.0
  0
LINE
  8
0
  6
CONTINUOUS
 62
     2
 10
93.55
 20
122.675
 30
0.0
 11
91.1
 21
122.675
 31
0.0
  0
LINE
  8
0
  6
CONTINUOUS
 62
     2
 10
91.1
 20
122.85
 30
0.0
 11
93.55
 21
122.85
 31
0.0
  0
LINE
  8
0
  6
CONTINUOUS
 62
     2
 10
90.885
 20
122.675
 30
0.0
 11
89.9
 21
122.675
 31
0.0
  0
LINE
  8
0
  6
CONTINUOUS
 62
     2
 10
88.55
 20
122.675
 30
0.0
 11
89.6
 21
122.675
 31
0.0
  0
LINE
  8
0
  6
CONTINUOUS
 62
     2
 10
90.885
 20
122.675
 30
0.0
 11
91.085
 21
122.875
 31
0.0
  0
LINE
  8
0
  6
CONTINUOUS
 62
     2
 10
91.085
 20
122.475
 30
0.0
 11
90.885
 21
122.675
 31
0.0
  0
LINE
  8
0
  6
CONTINUOUS
 62
     2
 10
207.3
 20
123.4
 30
0.0
 11
220.3
 21
123.4
 31
0.0
  0
LINE
  8
0
  6
CONTINUOUS
 62
     2
 10
218.3
 20
123.4
 30
0.0
 11
218.947047613
 21
125.814814566
 31
0.0
  0
LINE
  8
0
  6
CONTINUOUS
 62
     2
 10
218.3
 20
123.4
 30
0.0
 11
217.652952387
 21
125.814814566
 31
0.0
  0
LINE
  8
0
  6
CONTINUOUS
 62
     2
 10
218.3
 20
123.4
 30
0.0
 11
218.3
 21
139.4
 31
0.0
  0
LINE
  8
0
  6
CONTINUOUS
 62
     2
 10
218.3
 20
139.4
 30
0.0
 11
217.652952387
 21
136.985185434
 31
0.0
  0
LINE
  8
0
  6
CONTINUOUS
 62
     2
 10
218.3
 20
139.4
 30
0.0
 11
218.947047613
 21
136.985185434
 31
0.0
  0
LINE
  8
0
  6
CONTINUOUS
 62
     2
 10
212.3
 20
139.4
 30
0.0
 11
220.3
 21
139.4
 31
0.0
  0
TEXT
  8
0
  6
CONTINUOUS
 62
     2
 10
217.3
 20
130.92
 30
0.18
 40
1.8
  1
±０．５
 50
90.0
 41
0.6
 51
0.0
  7
KANJI1
  0
LINE
  8
0
  6
CONTINUOUS
 62
     2
 10
218.3
 20
139.4
 30
0.0
 11
218.947047613
 21
141.814814566
 31
0.0
  0
LINE
  8
0
  6
CONTINUOUS
 62
     2
 10
218.3
 20
139.4
 30
0.0
 11
217.652952387
 21
141.814814566
 31
0.0
  0
LINE
  8
0
  6
CONTINUOUS
 62
     2
 10
218.3
 20
139.4
 30
0.0
 11
218.3
 21
155.4
 31
0.0
  0
LINE
  8
0
  6
CONTINUOUS
 62
     2
 10
218.3
 20
155.4
 30
0.0
 11
217.652952387
 21
152.985185434
 31
0.0
  0
LINE
  8
0
  6
CONTINUOUS
 62
     2
 10
218.3
 20
155.4
 30
0.0
 11
218.947047613
 21
152.985185434
 31
0.0
  0
LINE
  8
0
  6
CONTINUOUS
 62
     2
 10
207.3
 20
155.4
 30
0.0
 11
220.3
 21
155.4
 31
0.0
  0
TEXT
  8
0
  6
CONTINUOUS
 62
     2
 10
217.3
 20
146.92
 30
0.18
 40
1.8
  1
±０．５
 50
90.0
 41
0.6
 51
0.0
  7
KANJI1
  0
TEXT
  8
0
  6
CONTINUOUS
 62
     2
 10
217.3
 20
127.02
 30
0.3
 40
3.0
  1
３２
 50
90.0
 41
0.6
 51
0.0
  7
KANJI2
  0
TEXT
  8
0
  6
CONTINUOUS
 62
     2
 10
217.3
 20
143.02
 30
0.3
 40
3.0
  1
３２
 50
90.0
 41
0.6
 51
0.0
  7
KANJI2
  0
LINE
  8
0
  6
CONTINUOUS
 62
     2
 10
188.3
 20
166.4
 30
0.0
 11
188.3
 21
169.15
 31
0.0
  0
LINE
  8
0
  6
CONTINUOUS
 62
     2
 10
188.3
 20
167.15
 30
0.0
 11
185.885185434
 21
167.797047613
 31
0.0
  0
LINE
  8
0
  6
CONTINUOUS
 62
     2
 10
188.3
 20
167.15
 30
0.0
 11
185.885185434
 21
166.502952387
 31
0.0
  0
LINE
  8
0
  6
CONTINUOUS
 62
     2
 10
188.3
 20
167.15
 30
0.0
 11
172.3
 21
167.15
 31
0.0
  0
LINE
  8
0
  6
CONTINUOUS
 62
     2
 10
172.3
 20
167.15
 30
0.0
 11
174.714814566
 21
166.502952387
 31
0.0
  0
LINE
  8
0
  6
CONTINUOUS
 62
     2
 10
172.3
 20
167.15
 30
0.0
 11
174.714814566
 21
167.797047613
 31
0.0
  0
LINE
  8
0
  6
CONTINUOUS
 62
     2
 10
172.3
 20
158.4
 30
0.0
 11
172.3
 21
169.15
 31
0.0
  0
TEXT
  8
0
  6
CONTINUOUS
 62
     2
 10
179.82
 20
168.15
 30
0.18
 40
1.8
  1
±０．５
 50
0.0
 41
0.6
 51
0.0
  7
KANJI1
  0
LINE
  8
0
  6
CONTINUOUS
 62
     2
 10
188.3
 20
167.15
 30
0.0
 11
190.714814566
 21
166.502952387
 31
0.0
  0
LINE
  8
0
  6
CONTINUOUS
 62
     2
 10
188.3
 20
167.15
 30
0.0
 11
190.714814566
 21
167.797047613
 31
0.0
  0
LINE
  8
0
  6
CONTINUOUS
 62
     2
 10
188.3
 20
167.15
 30
0.0
 11
204.3
 21
167.15
 31
0.0
  0
LINE
  8
0
  6
CONTINUOUS
 62
     2
 10
204.3
 20
167.15
 30
0.0
 11
201.885185434
 21
167.797047613
 31
0.0
  0
LINE
  8
0
  6
CONTINUOUS
 62
     2
 10
204.3
 20
167.15
 30
0.0
 11
201.885185434
 21
166.502952387
 31
0.0
  0
LINE
  8
0
  6
CONTINUOUS
 62
     2
 10
204.3
 20
158.4
 30
0.0
 11
204.3
 21
169.15
 31
0.0
  0
TEXT
  8
0
  6
CONTINUOUS
 62
     2
 10
195.82
 20
168.15
 30
0.18
 40
1.8
  1
±０．５
 50
0.0
 41
0.6
 51
0.0
  7
KANJI1
  0
TEXT
  8
0
  6
CONTINUOUS
 62
     2
 10
175.92
 20
168.15
 30
0.3
 40
3.0
  1
３２
 50
0.0
 41
0.6
 51
0.0
  7
KANJI2
  0
TEXT
  8
0
  6
CONTINUOUS
 62
     2
 10
191.92
 20
168.15
 30
0.3
 40
3.0
  1
３２
 50
0.0
 41
0.6
 51
0.0
  7
KANJI2
  0
LINE
  8
0
  6
CONTINUOUS
 62
     2
 10
98.3
 20
155.597916667
 30
0.0
 11
97.652952387
 21
153.183102101
 31
0.0
  0
LINE
  8
0
  6
CONTINUOUS
 62
     2
 10
98.3
 20
155.597916667
 30
0.0
 11
98.947047613
 21
153.183102101
 31
0.0
  0
LINE
  8
0
  6
CONTINUOUS
 62
     2
 10
98.3
 20
155.597916667
 30
0.0
 11
98.3
 21
123.202083333
 31
0.0
  0
LINE
  8
0
  6
CONTINUOUS
 62
     2
 10
98.3
 20
123.202083333
 30
0.0
 11
98.947047613
 21
125.616897899
 31
0.0
  0
LINE
  8
0
  6
CONTINUOUS
 62
     2
 10
98.3
 20
123.202083333
 30
0.0
 11
97.652952387
 21
125.616897899
 31
0.0
  0
TEXT
  8
0
  6
CONTINUOUS
 62
     2
 10
97.3
 20
136.4
 30
0.3
 40
3.0
  1
φ６５
 50
90.0
 41
0.6
 51
0.0
  7
KANJI2
  0
LINE
  8
0
  6
CONTINUOUS
 62
     2
 10
88.3
 20
163.15
 30
0.0
 11
88.3
 21
169.15
 31
0.0
  0
LINE
  8
0
  6
CONTINUOUS
 62
     2
 10
88.3
 20
167.15
 30
0.0
 11
85.885185434
 21
167.797047613
 31
0.0
  0
LINE
  8
0
  6
CONTINUOUS
 62
     2
 10
88.3
 20
167.15
 30
0.0
 11
85.885185434
 21
166.502952387
 31
0.0
  0
LINE
  8
0
  6
CONTINUOUS
 62
     2
 10
88.55
 20
158.35
 30
0.0
 11
88.55
 21
169.15
 31
0.0
  0
LINE
  8
0
  6
CONTINUOUS
 62
     2
 10
93.55
 20
157.125
 30
0.0
 11
93.55
 21
169.15
 31
0.0
  0
TEXT
  8
0
  6
CONTINUOUS
 62
     2
 10
89.1
 20
168.15
 30
0.3
 40
3.0
  1
１０
 50
0.0
 41
0.6
 51
0.0
  7
KANJI2
  0
LINE
  8
0
  6
CONTINUOUS
 62
     2
 10
88.3
 20
169.15
 30
0.0
 11
88.3
 21
174.15
 31
0.0
  0
LINE
  8
0
  6
CONTINUOUS
 62
     2
 10
88.3
 20
172.15
 30
0.0
 11
90.714814566
 21
171.502952387
 31
0.0
  0
LINE
  8
0
  6
CONTINUOUS
 62
     2
 10
88.3
 20
172.15
 30
0.0
 11
90.714814566
 21
172.797047613
 31
0.0
  0
LINE
  8
0
  6
CONTINUOUS
 62
     2
 10
93.3
 20
172.15
 30
0.0
 11
77.3
 21
172.15
 31
0.0
  0
LINE
  8
0
  6
CONTINUOUS
 62
     2
 10
82.3
 20
172.15
 30
0.0
 11
79.885185434
 21
172.797047613
 31
0.0
  0
LINE
  8
0
  6
CONTINUOUS
 62
     2
 10
82.3
 20
172.15
 30
0.0
 11
79.885185434
 21
171.502952387
 31
0.0
  0
LINE
  8
0
  6
CONTINUOUS
 62
     2
 10
82.3
 20
161.4
 30
0.0
 11
82.3
 21
174.15
 31
0.0
  0
TEXT
  8
0
  6
CONTINUOUS
 62
     2
 10
83.35
 20
173.15
 30
0.3
 40
3.0
  1
１２
 50
0.0
 41
0.6
 51
0.0
  7
KANJI2
  0
LINE
  8
0
  6
CONTINUOUS
 62
     2
 10
88.3
 20
172.15
 30
0.0
 11
90.714814566
 21
171.502952387
 31
0.0
  0
LINE
  8
0
  6
CONTINUOUS
 62
     2
 10
88.3
 20
172.15
 30
0.0
 11
90.714814566
 21
172.797047613
 31
0.0
  0
LINE
  8
0
  6
CONTINUOUS
 62
     2
 10
88.3
 20
172.15
 30
0.0
 11
138.3
 21
172.15
 31
0.0
  0
LINE
  8
0
  6
CONTINUOUS
 62
     2
 10
138.3
 20
172.15
 30
0.0
 11
135.885185434
 21
172.797047613
 31
0.0
  0
LINE
  8
0
  6
CONTINUOUS
 62
     2
 10
138.3
 20
172.15
 30
0.0
 11
135.885185434
 21
171.502952387
 31
0.0
  0
LINE
  8
0
  6
CONTINUOUS
 62
     2
 10
138.3
 20
155.929304445
 30
0.0
 11
138.3
 21
174.15
 31
0.0
  0
TEXT
  8
0
  6
CONTINUOUS
 62
     2
 10
110.3
 20
173.15
 30
0.3
 40
3.0
  1
１００
 50
0.0
 41
0.6
 51
0.0
  7
KANJI2
  0
LINE
  8
0
  6
CONTINUOUS
 62
     2
 10
138.3
 20
172.15
 30
0.0
 11
135.885185434
 21
172.797047613
 31
0.0
  0
LINE
  8
0
  6
CONTINUOUS
 62
     2
 10
138.3
 20
172.15
 30
0.0
 11
135.885185434
 21
171.502952387
 31
0.0
  0
LINE
  8
0
  6
CONTINUOUS
 62
     2
 10
93.55
 20
123.4
 30
0.0
 11
94.197047613
 21
120.985185434
 31
0.0
  0
LINE
  8
0
  6
CONTINUOUS
 62
     2
 10
93.55
 20
123.4
 30
0.0
 11
95.317766953
 21
121.632233047
 31
0.0
  0
LINE
  8
0
  6
CONTINUOUS
 62
     2
 10
93.55
 20
123.4
 30
0.0
 11
98.024464586
 21
115.65
 31
0.0
  0
ARC
  8
0
  6
CONTINUOUS
 62
     2
 10
19.925
 20
122.275
 30
0.0
 40
0.625
 50
180.0
 51
270.0
  0
LINE
  8
0
  6
CONTINUOUS
 62
     2
 10
19.925
 20
121.65
 30
0.0
 11
66.675
 21
121.65
 31
0.0
  0
ARC
  8
0
  6
CONTINUOUS
 62
     2
 10
66.675
 20
122.275
 30
0.0
 40
0.625
 50
270.0
 51
0.0
  0
LINE
  8
0
  6
CONTINUOUS
 62
     2
 10
67.3
 20
122.275
 30
0.0
 11
67.3
 21
160.525
 31
0.0
  0
ARC
  8
0
  6
CONTINUOUS
 62
     2
 10
66.675
 20
160.525
 30
0.0
 40
0.625
 50
0.0
 51
90.0
  0
LINE
  8
0
  6
CONTINUOUS
 62
     2
 10
66.675
 20
161.15
 30
0.0
 11
19.925
 21
161.15
 31
0.0
  0
ARC
  8
0
  6
CONTINUOUS
 62
     2
 10
19.925
 20
160.525
 30
0.0
 40
0.625
 50
90.0
 51
180.0
  0
LINE
  8
0
  6
CONTINUOUS
 62
     2
 10
19.3
 20
160.525
 30
0.0
 11
19.3
 21
122.275
 31
0.0
  0
CIRCLE
  8
0
  6
CONTINUOUS
 62
     2
 10
43.3
 20
126.15
 30
0.0
 40
1.8
  0
CIRCLE
  8
0
  6
CONTINUOUS
 62
     2
 10
64.3
 20
132.9
 30
0.0
 40
1.6
  0
CIRCLE
  8
0
  6
CONTINUOUS
 62
     2
 10
22.3
 20
132.9
 30
0.0
 40
1.6
  0
LINE
  8
0
  6
CONTINUOUS
 62
     2
 10
43.05
 20
127.932554347
 30
0.0
 11
43.05
 21
124.367445653
 31
0.0
  0
LINE
  8
0
  6
CONTINUOUS
 62
     2
 10
43.55
 20
124.367445653
 30
0.0
 11
43.55
 21
127.932554347
 31
0.0
  0
LINE
  8
0
  6
LTYPE1
 62
     2
 10
61.8
 20
132.9
 30
0.0
 11
66.8
 21
132.9
 31
0.0
  0
LINE
  8
0
  6
LTYPE1
 62
     2
 10
64.3
 20
135.4
 30
0.0
 11
64.3
 21
130.4
 31
0.0
  0
LINE
  8
0
  6
CONTINUOUS
 62
     2
 10
63.5
 20
132.1
 30
0.0
 11
65.1
 21
133.7
 31
0.0
  0
LINE
  8
0
  6
CONTINUOUS
 62
     2
 10
63.5
 20
133.7
 30
0.0
 11
65.1
 21
132.1
 31
0.0
  0
LINE
  8
0
  6
LTYPE1
 62
     2
 10
19.8
 20
132.9
 30
0.0
 11
24.8
 21
132.9
 31
0.0
  0
LINE
  8
0
  6
LTYPE1
 62
     2
 10
22.3
 20
135.4
 30
0.0
 11
22.3
 21
130.4
 31
0.0
  0
LINE
  8
0
  6
CONTINUOUS
 62
     2
 10
21.5
 20
132.1
 30
0.0
 11
23.1
 21
133.7
 31
0.0
  0
LINE
  8
0
  6
CONTINUOUS
 62
     2
 10
21.5
 20
133.7
 30
0.0
 11
23.1
 21
132.1
 31
0.0
  0
LINE
  8
0
  6
LTYPE2
 62
     2
 10
40.3
 20
126.15
 30
0.0
 11
46.3
 21
126.15
 31
0.0
  0
LINE
  8
0
  6
CONTINUOUS
 62
     2
 10
44.2
 20
124.591154273
 30
0.0
 11
44.847047613
 21
122.176339707
 31
0.0
  0
LINE
  8
0
  6
CONTINUOUS
 62
     2
 10
44.2
 20
124.591154273
 30
0.0
 11
45.967766953
 21
122.82338732
 31
0.0
  0
LINE
  8
0
  6
CONTINUOUS
 62
     2
 10
24.627971115
 20
150.305507363
 30
0.0
 11
24.807806065
 21
150.479171955
 31
0.0
  0
LINE
  8
0
  6
CONTINUOUS
 62
     2
 10
49.362177826
 20
115.65
 30
0.0
 11
59.562177826
 21
115.65
 31
0.0
  0
TEXT
  8
0
  6
CONTINUOUS
 62
     2
 10
49.362177826
 20
116.65
 30
0.3
 40
3.0
  1
零位調整器
 50
0.0
 41
0.6
 51
0.0
  7
KANJI2
  0
LINE
  8
0
  6
CONTINUOUS
 62
     2
 10
44.2
 20
124.591154273
 30
0.0
 11
49.362177826
 21
115.65
 31
0.0
  0
LINE
  8
0
  6
LTYPE2
 62
     2
 10
184.3
 20
132.4
 30
0.0
 11
184.3
 21
128.4
 31
0.0
  0
TEXT
  8
0
  6
CONTINUOUS
 62
     2
 10
82.3
 20
168.15
 30
0.3
 40
3.0
  1
０．５
 50
0.0
 41
0.6
 51
0.0
  7
KANJI2
  0
LINE
  8
0
  6
CONTINUOUS
 62
     2
 10
81.3
 20
167.15
 30
0.0
 11
93.55
 21
167.15
 31
0.0
  0
LINE
  8
0
  6
CONTINUOUS
 62
     2
 10
93.55
 20
167.15
 30
0.0
 11
95.964814566
 21
167.797047613
 31
0.0
  0
LINE
  8
0
  6
CONTINUOUS
 62
     2
 10
93.55
 20
167.15
 30
0.0
 11
95.964814566
 21
166.502952387
 31
0.0
  0
LINE
  8
0
  6
CONTINUOUS
 62
     2
 10
88.55
 20
167.15
 30
0.0
 11
98.55
 21
167.15
 31
0.0
  0
CIRCLE
  8
0
  6
CONTINUOUS
 62
     2
 10
88.55
 20
167.15
 30
0.0
 40
0.1
  0
TEXT
  8
0
  6
CONTINUOUS
 62
     2
 10
98.024464586
 20
116.65
 30
0.3
 40
3.0
  1
４－Ｍ３取付ボルト
 50
0.0
 41
0.6
 51
0.0
  7
KANJI2
  0
LINE
  8
0
  6
CONTINUOUS
 62
     2
 10
98.024464586
 20
115.65
 30
0.0
 11
116.424464586
 21
115.65
 31
0.0
  0
LINE
  8
0
  6
CONTINUOUS
 62
     2
 10
24.727971115
 20
150.405507363
 30
0.0
 11
24.945860472
 21
152.895994108
 31
0.0
  0
LINE
  8
0
  6
CONTINUOUS
 62
     2
 10
24.727971115
 20
150.405507363
 30
0.0
 11
23.671425461
 21
152.67127683
 31
0.0
  0
LINE
  8
0
  6
CONTINUOUS
 62
     2
 10
24.727971115
 20
150.405507363
 30
0.0
 11
21.775465285
 21
167.15
 31
0.0
  0
LINE
  8
0
  6
CONTINUOUS
 62
     2
 10
18.3
 20
161.525
 30
0.0
 11
18.3
 21
174.15
 31
0.0
  0
LINE
  8
0
  6
CONTINUOUS
 62
     2
 10
18.3
 20
172.15
 30
0.0
 11
20.714814566
 21
171.502952387
 31
0.0
  0
LINE
  8
0
  6
CONTINUOUS
 62
     2
 10
18.3
 20
172.15
 30
0.0
 11
20.714814566
 21
172.797047613
 31
0.0
  0
LINE
  8
0
  6
CONTINUOUS
 62
     2
 10
18.3
 20
172.15
 30
0.0
 11
68.3
 21
172.15
 31
0.0
  0
LINE
  8
0
  6
CONTINUOUS
 62
     2
 10
68.3
 20
172.15
 30
0.0
 11
65.885185434
 21
172.797047613
 31
0.0
  0
LINE
  8
0
  6
CONTINUOUS
 62
     2
 10
68.3
 20
172.15
 30
0.0
 11
65.885185434
 21
171.502952387
 31
0.0
  0
LINE
  8
0
  6
CONTINUOUS
 62
     2
 10
68.3
 20
161.525
 30
0.0
 11
68.3
 21
174.15
 31
0.0
  0
TEXT
  8
0
  6
CONTINUOUS
 62
     2
 10
39.18
 20
173.15
 30
0.3
 40
3.0
  1
１００
 50
0.0
 41
0.6
 51
0.0
  7
KANJI2
  0
TEXT
  8
0
  6
CONTINUOUS
 62
     2
 10
45.08
 20
173.15
 30
0.18
 40
1.8
  1
±１
 50
0.0
 41
0.6
 51
0.0
  7
KANJI1
  0
LINE
  8
0
  6
CONTINUOUS
 62
     2
 10
67.675
 20
120.65
 30
0.0
 11
75.3
 21
120.65
 31
0.0
  0
LINE
  8
0
  6
CONTINUOUS
 62
     2
 10
73.3
 20
120.65
 30
0.0
 11
73.947047613
 21
123.064814566
 31
0.0
  0
LINE
  8
0
  6
CONTINUOUS
 62
     2
 10
73.3
 20
120.65
 30
0.0
 11
72.652952387
 21
123.064814566
 31
0.0
  0
LINE
  8
0
  6
CONTINUOUS
 62
     2
 10
73.3
 20
120.65
 30
0.0
 11
73.3
 21
162.15
 31
0.0
  0
LINE
  8
0
  6
CONTINUOUS
 62
     2
 10
73.3
 20
162.15
 30
0.0
 11
72.652952387
 21
159.735185434
 31
0.0
  0
LINE
  8
0
  6
CONTINUOUS
 62
     2
 10
73.3
 20
162.15
 30
0.0
 11
73.947047613
 21
159.735185434
 31
0.0
  0
LINE
  8
0
  6
CONTINUOUS
 62
     2
 10
67.675
 20
162.15
 30
0.0
 11
75.3
 21
162.15
 31
0.0
  0
TEXT
  8
0
  6
CONTINUOUS
 62
     2
 10
72.3
 20
138.18
 30
0.3
 40
3.0
  1
８３
 50
90.0
 41
0.6
 51
0.0
  7
KANJI2
  0
TEXT
  8
0
  6
CONTINUOUS
 62
     2
 10
72.3
 20
142.28
 30
0.18
 40
1.8
  1
±１
 50
90.0
 41
0.6
 51
0.0
  7
KANJI1
  0
LINE
  8
0
  6
CONTINUOUS
 62
     2
 10
158.3
 20
141.4
 30
0.0
 11
158.947047613
 21
143.814814566
 31
0.0
  0
LINE
  8
0
  6
CONTINUOUS
 62
     2
 10
158.3
 20
141.4
 30
0.0
 11
157.652952387
 21
143.814814566
 31
0.0
  0
LINE
  8
0
  6
CONTINUOUS
 62
     2
 10
158.3
 20
146.4
 30
0.0
 11
158.3
 21
134.4
 31
0.0
  0
LINE
  8
0
  6
CONTINUOUS
 62
     2
 10
158.3
 20
139.4
 30
0.0
 11
157.652952387
 21
136.985185434
 31
0.0
  0
LINE
  8
0
  6
CONTINUOUS
 62
     2
 10
158.3
 20
139.4
 30
0.0
 11
158.947047613
 21
136.985185434
 31
0.0
  0
TEXT
  8
0
  6
CONTINUOUS
 62
     2
 10
157.3
 20
139.5
 30
0.3
 40
3.0
  1
４
 50
90.0
 41
0.6
 51
0.0
  7
KANJI2
  0
ARC
  8
0
  6
CONTINUOUS
 62
     2
 10
164.55
 20
121.9
 30
0.0
 40
0.5
 50
180.0
 51
270.0
  0
LINE
  8
0
  6
CONTINUOUS
 62
     2
 10
164.55
 20
121.4
 30
0.0
 11
212.05
 21
121.4
 31
0.0
  0
ARC
  8
0
  6
CONTINUOUS
 62
     2
 10
212.05
 20
121.9
 30
0.0
 40
0.5
 50
270.0
 51
0.0
  0
LINE
  8
0
  6
CONTINUOUS
 62
     2
 10
212.55
 20
121.9
 30
0.0
 11
212.55
 21
160.9
 31
0.0
  0
ARC
  8
0
  6
CONTINUOUS
 62
     2
 10
212.05
 20
160.9
 30
0.0
 40
0.5
 50
0.0
 51
90.0
  0
LINE
  8
0
  6
CONTINUOUS
 62
     2
 10
212.05
 20
161.4
 30
0.0
 11
164.55
 21
161.4
 31
0.0
  0
ARC
  8
0
  6
CONTINUOUS
 62
     2
 10
164.55
 20
160.9
 30
0.0
 40
0.5
 50
90.0
 51
180.0
  0
LINE
  8
0
  6
CONTINUOUS
 62
     2
 10
164.05
 20
160.9
 30
0.0
 11
164.05
 21
121.9
 31
0.0
  0
ARC
  8
0
  6
CONTINUOUS
 62
     2
 10
195.55
 20
141.45
 30
0.0
 40
0.25
 50
270.0
 51
0.0
  0
ARC
  8
0
  6
CONTINUOUS
 62
     2
 10
195.55
 20
137.35
 30
0.0
 40
0.25
 50
0.0
 51
90.0
  0
ARC
  8
0
  6
CONTINUOUS
 62
     2
 10
195.55
 20
145.95
 30
0.0
 40
0.25
 50
270.0
 51
0.0
  0
ARC
  8
0
  6
CONTINUOUS
 62
     2
 10
195.55
 20
141.85
 30
0.0
 40
0.25
 50
0.0
 51
90.0
  0
ARC
  8
0
  6
CONTINUOUS
 62
     2
 10
195.55
 20
146.35
 30
0.0
 40
0.25
 50
0.0
 51
90.0
  0
ARC
  8
0
  6
CONTINUOUS
 62
     2
 10
195.55
 20
136.95
 30
0.0
 40
0.25
 50
270.0
 51
0.0
  0
ARC
  8
0
  6
CONTINUOUS
 62
     2
 10
195.55
 20
132.85
 30
0.0
 40
0.25
 50
0.0
 51
90.0
  0
ARC
  8
0
  6
CONTINUOUS
 62
     2
 10
195.55
 20
132.45
 30
0.0
 40
0.25
 50
270.0
 51
0.0
  0
ARC
  8
0
  6
CONTINUOUS
 62
     2
 10
195.55
 20
151.15
 30
0.0
 40
0.25
 50
270.0
 51
0.0
  0
ARC
  8
0
  6
CONTINUOUS
 62
     2
 10
195.55
 20
127.65
 30
0.0
 40
0.25
 50
0.0
 51
90.0
  0
ARC
  8
0
  6
CONTINUOUS
 62
     2
 10
181.05
 20
141.45
 30
0.0
 40
0.25
 50
180.0
 51
270.0
  0
ARC
  8
0
  6
CONTINUOUS
 62
     2
 10
181.05
 20
137.35
 30
0.0
 40
0.25
 50
90.0
 51
180.0
  0
ARC
  8
0
  6
CONTINUOUS
 62
     2
 10
181.05
 20
145.95
 30
0.0
 40
0.25
 50
180.0
 51
270.0
  0
ARC
  8
0
  6
CONTINUOUS
 62
     2
 10
181.05
 20
141.85
 30
0.0
 40
0.25
 50
90.0
 51
180.0
  0
ARC
  8
0
  6
CONTINUOUS
 62
     2
 10
181.05
 20
146.35
 30
0.0
 40
0.25
 50
90.0
 51
180.0
  0
ARC
  8
0
  6
CONTINUOUS
 62
     2
 10
181.05
 20
136.95
 30
0.0
 40
0.25
 50
180.0
 51
270.0
  0
ARC
  8
0
  6
CONTINUOUS
 62
     2
 10
181.05
 20
132.85
 30
0.0
 40
0.25
 50
90.0
 51
180.0
  0
ARC
  8
0
  6
CONTINUOUS
 62
     2
 10
181.05
 20
132.45
 30
0.0
 40
0.25
 50
180.0
 51
270.0
  0
ARC
  8
0
  6
CONTINUOUS
 62
     2
 10
181.05
 20
151.15
 30
0.0
 40
0.25
 50
180.0
 51
270.0
  0
ARC
  8
0
  6
CONTINUOUS
 62
     2
 10
181.05
 20
127.65
 30
0.0
 40
0.25
 50
90.0
 51
180.0
  0
LINE
  8
0
  6
CONTINUOUS
 62
     2
 10
181.8
 20
132.2
 30
0.0
 11
181.8
 21
128.6
 31
0.0
  0
LINE
  8
0
  6
CONTINUOUS
 62
     2
 10
181.8
 20
136.7
 30
0.0
 11
181.8
 21
133.1
 31
0.0
  0
LINE
  8
0
  6
CONTINUOUS
 62
     2
 10
181.8
 20
141.2
 30
0.0
 11
181.8
 21
137.6
 31
0.0
  0
LINE
  8
0
  6
CONTINUOUS
 62
     2
 10
181.8
 20
145.7
 30
0.0
 11
181.8
 21
142.1
 31
0.0
  0
LINE
  8
0
  6
CONTINUOUS
 62
     2
 10
181.8
 20
150.2
 30
0.0
 11
181.8
 21
146.6
 31
0.0
  0
LINE
  8
0
  6
CONTINUOUS
 62
     2
 10
180.8
 20
146.35
 30
0.0
 11
180.8
 21
145.95
 31
0.0
  0
LINE
  8
0
  6
CONTINUOUS
 62
     2
 10
180.8
 20
141.85
 30
0.0
 11
180.8
 21
141.45
 31
0.0
  0
LINE
  8
0
  6
CONTINUOUS
 62
     2
 10
180.8
 20
137.35
 30
0.0
 11
180.8
 21
136.95
 31
0.0
  0
LINE
  8
0
  6
CONTINUOUS
 62
     2
 10
180.8
 20
132.85
 30
0.0
 11
180.8
 21
132.45
 31
0.0
  0
LINE
  8
0
  6
CONTINUOUS
 62
     2
 10
195.8
 20
132.45
 30
0.0
 11
195.8
 21
132.85
 31
0.0
  0
LINE
  8
0
  6
CONTINUOUS
 62
     2
 10
195.8
 20
136.95
 30
0.0
 11
195.8
 21
137.35
 31
0.0
  0
LINE
  8
0
  6
CONTINUOUS
 62
     2
 10
195.8
 20
141.45
 30
0.0
 11
195.8
 21
141.85
 31
0.0
  0
LINE
  8
0
  6
CONTINUOUS
 62
     2
 10
195.8
 20
145.95
 30
0.0
 11
195.8
 21
146.35
 31
0.0
  0
LINE
  8
0
  6
CONTINUOUS
 62
     2
 10
181.05
 20
127.9
 30
0.0
 11
195.55
 21
127.9
 31
0.0
  0
LINE
  8
0
  6
CONTINUOUS
 62
     2
 10
194.8
 20
128.6
 30
0.0
 11
194.8
 21
132.2
 31
0.0
  0
LINE
  8
0
  6
CONTINUOUS
 62
     2
 10
194.8
 20
133.1
 30
0.0
 11
194.8
 21
136.7
 31
0.0
  0
LINE
  8
0
  6
CONTINUOUS
 62
     2
 10
194.8
 20
137.6
 30
0.0
 11
194.8
 21
141.2
 31
0.0
  0
LINE
  8
0
  6
CONTINUOUS
 62
     2
 10
194.8
 20
142.1
 30
0.0
 11
194.8
 21
145.7
 31
0.0
  0
LINE
  8
0
  6
CONTINUOUS
 62
     2
 10
194.8
 20
146.6
 30
0.0
 11
194.8
 21
150.2
 31
0.0
  0
LINE
  8
0
  6
CONTINUOUS
 62
     2
 10
181.05
 20
150.9
 30
0.0
 11
195.55
 21
150.9
 31
0.0
  0
ARC
  8
0
  6
CONTINUOUS
 62
     2
 10
181.25
 20
150.65
 30
0.0
 40
0.45
 50
180.0
 51
270.0
  0
ARC
  8
0
  6
CONTINUOUS
 62
     2
 10
195.35
 20
150.65
 30
0.0
 40
0.45
 50
270.0
 51
0.0
  0
ARC
  8
0
  6
CONTINUOUS
 62
     2
 10
181.25
 20
128.15
 30
0.0
 40
0.45
 50
90.0
 51
180.0
  0
ARC
  8
0
  6
CONTINUOUS
 62
     2
 10
195.35
 20
128.15
 30
0.0
 40
0.45
 50
360.0
 51
90.0
  0
LINE
  8
0
  6
CONTINUOUS
 62
     2
 10
181.25
 20
150.2
 30
0.0
 11
185.85
 21
150.2
 31
0.0
  0
ARC
  8
0
  6
CONTINUOUS
 62
     2
 10
185.85
 20
149.75
 30
0.0
 40
0.45
 50
360.0
 51
90.0
  0
LINE
  8
0
  6
CONTINUOUS
 62
     2
 10
185.85
 20
146.6
 30
0.0
 11
181.05
 21
146.6
 31
0.0
  0
LINE
  8
0
  6
CONTINUOUS
 62
     2
 10
186.3
 20
149.75
 30
0.0
 11
186.3
 21
147.05
 31
0.0
  0
ARC
  8
0
  6
CONTINUOUS
 62
     2
 10
185.85
 20
147.05
 30
0.0
 40
0.45
 50
270.0
 51
0.0
  0
LINE
  8
0
  6
CONTINUOUS
 62
     2
 10
181.05
 20
145.7
 30
0.0
 11
185.85
 21
145.7
 31
0.0
  0
ARC
  8
0
  6
CONTINUOUS
 62
     2
 10
185.85
 20
145.25
 30
0.0
 40
0.45
 50
0.0
 51
90.0
  0
LINE
  8
0
  6
CONTINUOUS
 62
     2
 10
186.3
 20
145.25
 30
0.0
 11
186.3
 21
142.55
 31
0.0
  0
LINE
  8
0
  6
CONTINUOUS
 62
     2
 10
185.85
 20
142.1
 30
0.0
 11
181.05
 21
142.1
 31
0.0
  0
ARC
  8
0
  6
CONTINUOUS
 62
     2
 10
185.85
 20
142.55
 30
0.0
 40
0.45
 50
270.0
 51
0.0
  0
LINE
  8
0
  6
CONTINUOUS
 62
     2
 10
181.05
 20
141.2
 30
0.0
 11
185.85
 21
141.2
 31
0.0
  0
ARC
  8
0
  6
CONTINUOUS
 62
     2
 10
185.85
 20
140.75
 30
0.0
 40
0.45
 50
0.0
 51
90.0
  0
LINE
  8
0
  6
CONTINUOUS
 62
     2
 10
185.85
 20
137.6
 30
0.0
 11
181.05
 21
137.6
 31
0.0
  0
LINE
  8
0
  6
CONTINUOUS
 62
     2
 10
186.3
 20
140.75
 30
0.0
 11
186.3
 21
138.05
 31
0.0
  0
ARC
  8
0
  6
CONTINUOUS
 62
     2
 10
185.85
 20
138.05
 30
0.0
 40
0.45
 50
270.0
 51
0.0
  0
LINE
  8
0
  6
CONTINUOUS
 62
     2
 10
181.05
 20
136.7
 30
0.0
 11
185.85
 21
136.7
 31
0.0
  0
ARC
  8
0
  6
CONTINUOUS
 62
     2
 10
185.85
 20
136.25
 30
0.0
 40
0.45
 50
0.0
 51
90.0
  0
LINE
  8
0
  6
CONTINUOUS
 62
     2
 10
185.85
 20
133.1
 30
0.0
 11
181.05
 21
133.1
 31
0.0
  0
LINE
  8
0
  6
CONTINUOUS
 62
     2
 10
186.3
 20
136.25
 30
0.0
 11
186.3
 21
133.55
 31
0.0
  0
ARC
  8
0
  6
CONTINUOUS
 62
     2
 10
185.85
 20
133.55
 30
0.0
 40
0.45
 50
270.0
 51
0.0
  0
LINE
  8
0
  6
CONTINUOUS
 62
     2
 10
181.05
 20
132.2
 30
0.0
 11
185.85
 21
132.2
 31
0.0
  0
ARC
  8
0
  6
CONTINUOUS
 62
     2
 10
185.85
 20
131.75
 30
0.0
 40
0.45
 50
0.0
 51
90.0
  0
LINE
  8
0
  6
CONTINUOUS
 62
     2
 10
185.85
 20
128.6
 30
0.0
 11
181.25
 21
128.6
 31
0.0
  0
LINE
  8
0
  6
CONTINUOUS
 62
     2
 10
186.3
 20
131.75
 30
0.0
 11
186.3
 21
129.05
 31
0.0
  0
ARC
  8
0
  6
CONTINUOUS
 62
     2
 10
185.85
 20
129.05
 30
0.0
 40
0.45
 50
270.0
 51
0.0
  0
LINE
  8
0
  6
CONTINUOUS
 62
     2
 10
190.75
 20
128.6
 30
0.0
 11
195.35
 21
128.6
 31
0.0
  0
ARC
  8
0
  6
CONTINUOUS
 62
     2
 10
190.75
 20
129.05
 30
0.0
 40
0.45
 50
180.0
 51
270.0
  0
LINE
  8
0
  6
CONTINUOUS
 62
     2
 10
195.55
 20
132.2
 30
0.0
 11
190.75
 21
132.2
 31
0.0
  0
LINE
  8
0
  6
CONTINUOUS
 62
     2
 10
190.3
 20
131.75
 30
0.0
 11
190.3
 21
129.05
 31
0.0
  0
ARC
  8
0
  6
CONTINUOUS
 62
     2
 10
190.75
 20
131.75
 30
0.0
 40
0.45
 50
90.0
 51
180.0
  0
LINE
  8
0
  6
CONTINUOUS
 62
     2
 10
190.75
 20
133.1
 30
0.0
 11
195.55
 21
133.1
 31
0.0
  0
ARC
  8
0
  6
CONTINUOUS
 62
     2
 10
190.75
 20
133.55
 30
0.0
 40
0.45
 50
180.0
 51
270.0
  0
LINE
  8
0
  6
CONTINUOUS
 62
     2
 10
195.55
 20
136.7
 30
0.0
 11
190.75
 21
136.7
 31
0.0
  0
LINE
  8
0
  6
CONTINUOUS
 62
     2
 10
190.3
 20
136.25
 30
0.0
 11
190.3
 21
133.55
 31
0.0
  0
ARC
  8
0
  6
CONTINUOUS
 62
     2
 10
190.75
 20
136.25
 30
0.0
 40
0.45
 50
90.0
 51
180.0
  0
LINE
  8
0
  6
CONTINUOUS
 62
     2
 10
190.75
 20
137.6
 30
0.0
 11
195.55
 21
137.6
 31
0.0
  0
ARC
  8
0
  6
CONTINUOUS
 62
     2
 10
190.75
 20
138.05
 30
0.0
 40
0.45
 50
180.0
 51
270.0
  0
LINE
  8
0
  6
CONTINUOUS
 62
     2
 10
190.3
 20
140.75
 30
0.0
 11
190.3
 21
138.05
 31
0.0
  0
LINE
  8
0
  6
CONTINUOUS
 62
     2
 10
195.55
 20
141.2
 30
0.0
 11
190.75
 21
141.2
 31
0.0
  0
ARC
  8
0
  6
CONTINUOUS
 62
     2
 10
190.75
 20
140.75
 30
0.0
 40
0.45
 50
90.0
 51
180.0
  0
LINE
  8
0
  6
CONTINUOUS
 62
     2
 10
190.75
 20
142.1
 30
0.0
 11
195.55
 21
142.1
 31
0.0
  0
ARC
  8
0
  6
CONTINUOUS
 62
     2
 10
190.75
 20
142.55
 30
0.0
 40
0.45
 50
180.0
 51
270.0
  0
LINE
  8
0
  6
CONTINUOUS
 62
     2
 10
190.3
 20
145.25
 30
0.0
 11
190.3
 21
142.55
 31
0.0
  0
LINE
  8
0
  6
CONTINUOUS
 62
     2
 10
195.55
 20
145.7
 30
0.0
 11
190.75
 21
145.7
 31
0.0
  0
ARC
  8
0
  6
CONTINUOUS
 62
     2
 10
190.75
 20
145.25
 30
0.0
 40
0.45
 50
90.0
 51
180.0
  0
LINE
  8
0
  6
CONTINUOUS
 62
     2
 10
190.75
 20
146.6
 30
0.0
 11
195.55
 21
146.6
 31
0.0
  0
ARC
  8
0
  6
CONTINUOUS
 62
     2
 10
190.75
 20
147.05
 30
0.0
 40
0.45
 50
180.0
 51
270.0
  0
LINE
  8
0
  6
CONTINUOUS
 62
     2
 10
190.3
 20
149.75
 30
0.0
 11
190.3
 21
147.05
 31
0.0
  0
LINE
  8
0
  6
CONTINUOUS
 62
     2
 10
195.35
 20
150.2
 30
0.0
 11
190.75
 21
150.2
 31
0.0
  0
ARC
  8
0
  6
CONTINUOUS
 62
     2
 10
190.75
 20
149.75
 30
0.0
 40
0.45
 50
90.0
 51
180.0
  0
LINE
  8
0
  6
CONTINUOUS
 62
     2
 10
180.8
 20
151.9
 30
0.0
 11
180.8
 21
150.65
 31
0.0
  0
ARC
  8
0
  6
CONTINUOUS
 62
     2
 10
181.3
 20
151.9
 30
0.0
 40
0.5
 50
90.0
 51
180.0
  0
LINE
  8
0
  6
CONTINUOUS
 62
     2
 10
195.3
 20
152.4
 30
0.0
 11
181.3
 21
152.4
 31
0.0
  0
LINE
  8
0
  6
CONTINUOUS
 62
     2
 10
195.8
 20
150.65
 30
0.0
 11
195.8
 21
151.9
 31
0.0
  0
ARC
  8
0
  6
CONTINUOUS
 62
     2
 10
195.3
 20
151.9
 30
0.0
 40
0.5
 50
0.0
 51
90.0
  0
LINE
  8
0
  6
CONTINUOUS
 62
     2
 10
180.8
 20
128.15
 30
0.0
 11
180.8
 21
126.9
 31
0.0
  0
ARC
  8
0
  6
CONTINUOUS
 62
     2
 10
181.3
 20
126.9
 30
0.0
 40
0.5
 50
180.0
 51
270.0
  0
LINE
  8
0
  6
CONTINUOUS
 62
     2
 10
195.8
 20
126.9
 30
0.0
 11
195.8
 21
128.15
 31
0.0
  0
LINE
  8
0
  6
CONTINUOUS
 62
     2
 10
181.3
 20
126.4
 30
0.0
 11
195.3
 21
126.4
 31
0.0
  0
ARC
  8
0
  6
CONTINUOUS
 62
     2
 10
195.3
 20
126.9
 30
0.0
 40
0.5
 50
270.0
 51
0.0
  0
TEXT
  8
0
  6
CONTINUOUS
 62
     2
 10
186.625
 20
147.65
 30
0.15
 40
1.5
  1
１
 50
0.0
 41
0.9
 51
0.0
  7
KANJI3
  0
TEXT
  8
0
  6
CONTINUOUS
 62
     2
 10
186.625
 20
143.15
 30
0.15
 40
1.5
  1
２
 50
0.0
 41
0.9
 51
0.0
  7
KANJI3
  0
TEXT
  8
0
  6
CONTINUOUS
 62
     2
 10
188.625
 20
138.65
 30
0.15
 40
1.5
  1
６
 50
0.0
 41
0.9
 51
0.0
  7
KANJI3
  0
TEXT
  8
0
  6
CONTINUOUS
 62
     2
 10
188.625
 20
134.15
 30
0.15
 40
1.5
  1
７
 50
0.0
 41
0.9
 51
0.0
  7
KANJI3
  0
TEXT
  8
0
  6
CONTINUOUS
 62
     2
 10
188.625
 20
129.65
 30
0.15
 40
1.5
  1
８
 50
0.0
 41
0.9
 51
0.0
  7
KANJI3
  0
LINE
  8
0
  6
CONTINUOUS
 62
     2
 10
195.3
 20
128.15
 30
0.0
 11
195.3
 21
150.65
 31
0.0
  0
LINE
  8
0
  6
CONTINUOUS
 62
     2
 10
181.3
 20
150.65
 30
0.0
 11
181.3
 21
128.15
 31
0.0
  0
LINE
  8
0
  6
CONTINUOUS
 62
     2
 10
186.8
 20
150.65
 30
0.0
 11
181.3
 21
150.65
 31
0.0
  0
LINE
  8
0
  6
CONTINUOUS
 62
     2
 10
195.3
 20
150.65
 30
0.0
 11
189.8
 21
150.65
 31
0.0
  0
LINE
  8
0
  6
CONTINUOUS
 62
     2
 10
189.8
 20
128.15
 30
0.0
 11
195.3
 21
128.15
 31
0.0
  0
LINE
  8
0
  6
CONTINUOUS
 62
     2
 10
181.3
 20
128.15
 30
0.0
 11
186.8
 21
128.15
 31
0.0
  0
LINE
  8
0
  6
CONTINUOUS
 62
     2
 10
186.8
 20
150.65
 30
0.0
 11
186.8
 21
150.9
 31
0.0
  0
LINE
  8
0
  6
CONTINUOUS
 62
     2
 10
189.8
 20
150.65
 30
0.0
 11
189.8
 21
150.9
 31
0.0
  0
LINE
  8
0
  6
CONTINUOUS
 62
     2
 10
186.8
 20
128.15
 30
0.0
 11
186.8
 21
127.9
 31
0.0
  0
LINE
  8
0
  6
CONTINUOUS
 62
     2
 10
189.8
 20
128.15
 30
0.0
 11
189.8
 21
127.9
 31
0.0
  0
LINE
  8
0
  6
CONTINUOUS
 62
     2
 10
139.05
 20
140.65
 30
0.0
 11
139.55
 21
140.65
 31
0.0
  0
LINE
  8
0
  6
CONTINUOUS
 62
     2
 10
139.55
 20
140.65
 30
0.0
 11
139.55
 21
138.15
 31
0.0
  0
LINE
  8
0
  6
CONTINUOUS
 62
     2
 10
139.55
 20
138.15
 30
0.0
 11
139.05
 21
138.15
 31
0.0
  0
LINE
  8
0
  6
CONTINUOUS
 62
     2
 10
139.05
 20
145.15
 30
0.0
 11
139.55
 21
145.15
 31
0.0
  0
LINE
  8
0
  6
CONTINUOUS
 62
     2
 10
139.55
 20
145.15
 30
0.0
 11
139.55
 21
142.65
 31
0.0
  0
LINE
  8
0
  6
CONTINUOUS
 62
     2
 10
139.55
 20
142.65
 30
0.0
 11
139.05
 21
142.65
 31
0.0
  0
LINE
  8
0
  6
CONTINUOUS
 62
     2
 10
139.05
 20
149.65
 30
0.0
 11
139.55
 21
149.65
 31
0.0
  0
LINE
  8
0
  6
CONTINUOUS
 62
     2
 10
139.55
 20
149.65
 30
0.0
 11
139.55
 21
147.15
 31
0.0
  0
LINE
  8
0
  6
CONTINUOUS
 62
     2
 10
139.55
 20
147.15
 30
0.0
 11
139.05
 21
147.15
 31
0.0
  0
LINE
  8
0
  6
CONTINUOUS
 62
     2
 10
139.05
 20
136.15
 30
0.0
 11
139.55
 21
136.15
 31
0.0
  0
LINE
  8
0
  6
CONTINUOUS
 62
     2
 10
139.55
 20
136.15
 30
0.0
 11
139.55
 21
133.65
 31
0.0
  0
LINE
  8
0
  6
CONTINUOUS
 62
     2
 10
139.55
 20
133.65
 30
0.0
 11
139.05
 21
133.65
 31
0.0
  0
LINE
  8
0
  6
CONTINUOUS
 62
     2
 10
139.05
 20
131.65
 30
0.0
 11
139.55
 21
131.65
 31
0.0
  0
LINE
  8
0
  6
CONTINUOUS
 62
     2
 10
139.55
 20
131.65
 30
0.0
 11
139.55
 21
129.15
 31
0.0
  0
LINE
  8
0
  6
CONTINUOUS
 62
     2
 10
139.55
 20
129.15
 30
0.0
 11
139.05
 21
129.15
 31
0.0
  0
LINE
  8
0
  6
CONTINUOUS
 62
     2
 10
142.3
 20
150.9
 30
0.0
 11
142.3
 21
127.9
 31
0.0
  0
LINE
  8
0
  6
CONTINUOUS
 62
     2
 10
142.55
 20
150.9
 30
0.0
 11
142.55
 21
127.9
 31
0.0
  0
LINE
  8
0
  6
CONTINUOUS
 62
     2
 10
139.55
 20
149.65
 30
0.0
 11
139.55
 21
147.15
 31
0.0
  0
LINE
  8
0
  6
CONTINUOUS
 62
     2
 10
139.55
 20
149.65
 30
0.0
 11
139.55
 21
149.775
 31
0.0
  0
LINE
  8
0
  6
CONTINUOUS
 62
     2
 10
139.55
 20
149.775
 30
0.0
 11
140.094766293
 21
149.775
 31
0.0
  0
ARC
  8
0
  6
CONTINUOUS
 62
     2
 10
139.931682295
 20
149.302344089
 30
0.0
 40
0.5
 50
34.773912785
 51
70.963647363
  0
LINE
  8
0
  6
CONTINUOUS
 62
     2
 10
139.55
 20
147.15
 30
0.0
 11
139.55
 21
147.025
 31
0.0
  0
LINE
  8
0
  6
CONTINUOUS
 62
     2
 10
139.55
 20
147.025
 30
0.0
 11
140.094766293
 21
147.025
 31
0.0
  0
ARC
  8
0
  6
CONTINUOUS
 62
     2
 10
139.931682295
 20
147.497655911
 30
0.0
 40
0.5
 50
289.036352637
 51
325.226087215
  0
LINE
  8
0
  6
CONTINUOUS
 62
     2
 10
140.55
 20
148.6
 30
0.0
 11
140.0
 21
148.6
 31
0.0
  0
LINE
  8
0
  6
CONTINUOUS
 62
     2
 10
140.0
 20
148.6
 30
0.0
 11
140.0
 21
148.2
 31
0.0
  0
LINE
  8
0
  6
CONTINUOUS
 62
     2
 10
140.0
 20
148.2
 30
0.0
 11
140.55
 21
148.2
 31
0.0
  0
ARC
  8
0
  6
CONTINUOUS
 62
     2
 10
137.05
 20
148.4
 30
0.0
 40
3.5
 50
3.270487923
 51
19.833603907
  0
ARC
  8
0
  6
CONTINUOUS
 62
     2
 10
137.05
 20
148.4
 30
0.0
 40
3.5
 50
340.166396093
 51
356.729512077
  0
LINE
  8
0
  6
CONTINUOUS
 62
     2
 10
139.55
 20
145.15
 30
0.0
 11
139.55
 21
142.65
 31
0.0
  0
LINE
  8
0
  6
CONTINUOUS
 62
     2
 10
139.55
 20
145.15
 30
0.0
 11
139.55
 21
145.275
 31
0.0
  0
LINE
  8
0
  6
CONTINUOUS
 62
     2
 10
139.55
 20
145.275
 30
0.0
 11
140.094766293
 21
145.275
 31
0.0
  0
ARC
  8
0
  6
CONTINUOUS
 62
     2
 10
139.931682295
 20
144.802344089
 30
0.0
 40
0.5
 50
34.773912785
 51
70.963647363
  0
LINE
  8
0
  6
CONTINUOUS
 62
     2
 10
139.55
 20
142.65
 30
0.0
 11
139.55
 21
142.525
 31
0.0
  0
LINE
  8
0
  6
CONTINUOUS
 62
     2
 10
139.55
 20
142.525
 30
0.0
 11
140.094766293
 21
142.525
 31
0.0
  0
ARC
  8
0
  6
CONTINUOUS
 62
     2
 10
139.931682295
 20
142.997655911
 30
0.0
 40
0.5
 50
289.036352637
 51
325.226087215
  0
LINE
  8
0
  6
CONTINUOUS
 62
     2
 10
140.55
 20
144.1
 30
0.0
 11
140.0
 21
144.1
 31
0.0
  0
LINE
  8
0
  6
CONTINUOUS
 62
     2
 10
140.0
 20
144.1
 30
0.0
 11
140.0
 21
143.7
 31
0.0
  0
LINE
  8
0
  6
CONTINUOUS
 62
     2
 10
140.0
 20
143.7
 30
0.0
 11
140.55
 21
143.7
 31
0.0
  0
ARC
  8
0
  6
CONTINUOUS
 62
     2
 10
137.05
 20
143.9
 30
0.0
 40
3.5
 50
3.270487923
 51
19.833603907
  0
ARC
  8
0
  6
CONTINUOUS
 62
     2
 10
137.05
 20
143.9
 30
0.0
 40
3.5
 50
340.166396093
 51
356.729512077
  0
LINE
  8
0
  6
CONTINUOUS
 62
     2
 10
139.55
 20
140.65
 30
0.0
 11
139.55
 21
138.15
 31
0.0
  0
LINE
  8
0
  6
CONTINUOUS
 62
     2
 10
139.55
 20
140.65
 30
0.0
 11
139.55
 21
140.775
 31
0.0
  0
LINE
  8
0
  6
CONTINUOUS
 62
     2
 10
139.55
 20
140.775
 30
0.0
 11
140.094766293
 21
140.775
 31
0.0
  0
ARC
  8
0
  6
CONTINUOUS
 62
     2
 10
139.931682295
 20
140.302344089
 30
0.0
 40
0.5
 50
34.773912785
 51
70.963647363
  0
LINE
  8
0
  6
CONTINUOUS
 62
     2
 10
139.55
 20
138.15
 30
0.0
 11
139.55
 21
138.025
 31
0.0
  0
LINE
  8
0
  6
CONTINUOUS
 62
     2
 10
139.55
 20
138.025
 30
0.0
 11
140.094766293
 21
138.025
 31
0.0
  0
ARC
  8
0
  6
CONTINUOUS
 62
     2
 10
139.931682295
 20
138.497655911
 30
0.0
 40
0.5
 50
289.036352637
 51
325.226087215
  0
LINE
  8
0
  6
CONTINUOUS
 62
     2
 10
140.55
 20
139.6
 30
0.0
 11
140.0
 21
139.6
 31
0.0
  0
LINE
  8
0
  6
CONTINUOUS
 62
     2
 10
140.0
 20
139.6
 30
0.0
 11
140.0
 21
139.2
 31
0.0
  0
LINE
  8
0
  6
CONTINUOUS
 62
     2
 10
140.0
 20
139.2
 30
0.0
 11
140.55
 21
139.2
 31
0.0
  0
ARC
  8
0
  6
CONTINUOUS
 62
     2
 10
137.05
 20
139.4
 30
0.0
 40
3.5
 50
3.270487923
 51
19.833603907
  0
ARC
  8
0
  6
CONTINUOUS
 62
     2
 10
137.05
 20
139.4
 30
0.0
 40
3.5
 50
340.166396093
 51
356.729512077
  0
LINE
  8
0
  6
CONTINUOUS
 62
     2
 10
139.55
 20
136.15
 30
0.0
 11
139.55
 21
133.65
 31
0.0
  0
LINE
  8
0
  6
CONTINUOUS
 62
     2
 10
139.55
 20
136.15
 30
0.0
 11
139.55
 21
136.275
 31
0.0
  0
LINE
  8
0
  6
CONTINUOUS
 62
     2
 10
139.55
 20
136.275
 30
0.0
 11
140.094766293
 21
136.275
 31
0.0
  0
ARC
  8
0
  6
CONTINUOUS
 62
     2
 10
139.931682295
 20
135.802344089
 30
0.0
 40
0.5
 50
34.773912785
 51
70.963647363
  0
LINE
  8
0
  6
CONTINUOUS
 62
     2
 10
139.55
 20
133.65
 30
0.0
 11
139.55
 21
133.525
 31
0.0
  0
LINE
  8
0
  6
CONTINUOUS
 62
     2
 10
139.55
 20
133.525
 30
0.0
 11
140.094766293
 21
133.525
 31
0.0
  0
ARC
  8
0
  6
CONTINUOUS
 62
     2
 10
139.931682295
 20
133.997655911
 30
0.0
 40
0.5
 50
289.036352637
 51
325.226087215
  0
LINE
  8
0
  6
CONTINUOUS
 62
     2
 10
140.55
 20
135.1
 30
0.0
 11
140.0
 21
135.1
 31
0.0
  0
LINE
  8
0
  6
CONTINUOUS
 62
     2
 10
140.0
 20
135.1
 30
0.0
 11
140.0
 21
134.7
 31
0.0
  0
LINE
  8
0
  6
CONTINUOUS
 62
     2
 10
140.0
 20
134.7
 30
0.0
 11
140.55
 21
134.7
 31
0.0
  0
ARC
  8
0
  6
CONTINUOUS
 62
     2
 10
137.05
 20
134.9
 30
0.0
 40
3.5
 50
3.270487923
 51
19.833603907
  0
ARC
  8
0
  6
CONTINUOUS
 62
     2
 10
137.05
 20
134.9
 30
0.0
 40
3.5
 50
340.166396093
 51
356.729512077
  0
LINE
  8
0
  6
CONTINUOUS
 62
     2
 10
139.55
 20
131.65
 30
0.0
 11
139.55
 21
129.15
 31
0.0
  0
LINE
  8
0
  6
CONTINUOUS
 62
     2
 10
139.55
 20
131.65
 30
0.0
 11
139.55
 21
131.775
 31
0.0
  0
LINE
  8
0
  6
CONTINUOUS
 62
     2
 10
139.55
 20
131.775
 30
0.0
 11
140.094766293
 21
131.775
 31
0.0
  0
ARC
  8
0
  6
CONTINUOUS
 62
     2
 10
139.931682295
 20
131.302344089
 30
0.0
 40
0.5
 50
34.773912785
 51
70.963647363
  0
LINE
  8
0
  6
CONTINUOUS
 62
     2
 10
139.55
 20
129.15
 30
0.0
 11
139.55
 21
129.025
 31
0.0
  0
LINE
  8
0
  6
CONTINUOUS
 62
     2
 10
139.55
 20
129.025
 30
0.0
 11
140.094766293
 21
129.025
 31
0.0
  0
ARC
  8
0
  6
CONTINUOUS
 62
     2
 10
139.931682295
 20
129.497655911
 30
0.0
 40
0.5
 50
289.036352637
 51
325.226087215
  0
LINE
  8
0
  6
CONTINUOUS
 62
     2
 10
140.55
 20
130.6
 30
0.0
 11
140.0
 21
130.6
 31
0.0
  0
LINE
  8
0
  6
CONTINUOUS
 62
     2
 10
140.0
 20
130.6
 30
0.0
 11
140.0
 21
130.2
 31
0.0
  0
LINE
  8
0
  6
CONTINUOUS
 62
     2
 10
140.0
 20
130.2
 30
0.0
 11
140.55
 21
130.2
 31
0.0
  0
ARC
  8
0
  6
CONTINUOUS
 62
     2
 10
137.05
 20
130.4
 30
0.0
 40
3.5
 50
3.270487923
 51
19.833603907
  0
ARC
  8
0
  6
CONTINUOUS
 62
     2
 10
137.05
 20
130.4
 30
0.0
 40
3.5
 50
340.166396093
 51
356.729512077
  0
LINE
  8
0
  6
LTYPE3
 62
     2
 10
137.35
 20
148.4
 30
0.0
 11
142.8
 21
148.4
 31
0.0
  0
LINE
  8
0
  6
LTYPE3
 62
     2
 10
137.35
 20
143.9
 30
0.0
 11
142.8
 21
143.9
 31
0.0
  0
LINE
  8
0
  6
LTYPE3
 62
     2
 10
137.35
 20
134.9
 30
0.0
 11
142.8
 21
134.9
 31
0.0
  0
LINE
  8
0
  6
LTYPE3
 62
     2
 10
137.35
 20
130.4
 30
0.0
 11
142.8
 21
130.4
 31
0.0
  0
LINE
  8
0
  6
CONTINUOUS
 62
     2
 10
138.3
 20
155.929304445
 30
0.0
 11
138.3
 21
174.15
 31
0.0
  0
LINE
  8
0
  6
CONTINUOUS
 62
     2
 10
138.3
 20
172.15
 30
0.0
 11
135.885185434
 21
172.797047613
 31
0.0
  0
LINE
  8
0
  6
CONTINUOUS
 62
     2
 10
138.3
 20
172.15
 30
0.0
 11
135.885185434
 21
171.502952387
 31
0.0
  0
LINE
  8
0
  6
CONTINUOUS
 62
     2
 10
133.3
 20
172.15
 30
0.0
 11
148.55
 21
172.15
 31
0.0
  0
LINE
  8
0
  6
CONTINUOUS
 62
     2
 10
143.55
 20
172.15
 30
0.0
 11
145.964814566
 21
171.502952387
 31
0.0
  0
LINE
  8
0
  6
CONTINUOUS
 62
     2
 10
143.55
 20
172.15
 30
0.0
 11
145.964814566
 21
172.797047613
 31
0.0
  0
LINE
  8
0
  6
CONTINUOUS
 62
     2
 10
143.55
 20
153.0
 30
0.0
 11
143.55
 21
174.15
 31
0.0
  0
TEXT
  8
0
  6
CONTINUOUS
 62
     2
 10
138.175
 20
173.15
 30
0.0
 40
3.0
  1
１０．５
 50
0.0
 41
0.5
 51
0.0
  7
KANJI4
  0
LINE
  8
0
  6
CONTINUOUS
 62
     2
 10
142.55
 20
147.552627944
 30
0.0
 11
144.317766953
 21
149.320394897
 31
0.0
  0
LINE
  8
0
  6
CONTINUOUS
 62
     2
 10
142.55
 20
147.552627944
 30
0.0
 11
143.197047613
 21
149.96744251
 31
0.0
  0
LINE
  8
0
  6
CONTINUOUS
 62
     2
 10
142.55
 20
147.552627944
 30
0.0
 11
147.168802154
 21
155.552627944
 31
0.0
  0
LINE
  8
0
  6
CONTINUOUS
 62
     2
 10
147.168802154
 20
155.552627944
 30
0.0
 11
161.868802154
 21
155.552627944
 31
0.0
  0
TEXT
  8
0
  6
CONTINUOUS
 62
     2
 10
147.168802154
 20
156.552627944
 30
0.3
 40
3.0
  1
端子カバー
 50
0.0
 41
0.9
 51
0.0
  7
KANJI5
  0
LINE
  8
0
  6
CONTINUOUS
 62
     1
 10
18.3
 20
160.525
 30
0.0
 11
18.3
 21
122.275
 31
0.0
  0
ARC
  8
0
  6
CONTINUOUS
 62
     1
 10
19.925
 20
160.525
 30
0.0
 40
1.625
 50
90.0
 51
180.0
  0
ARC
  8
0
  6
CONTINUOUS
 62
     1
 10
66.675
 20
160.525
 30
0.0
 40
1.625
 50
0.0
 51
90.0
  0
LINE
  8
0
  6
CONTINUOUS
 62
     1
 10
66.675
 20
162.15
 30
0.0
 11
19.925
 21
162.15
 31
0.0
  0
LINE
  8
0
  6
CONTINUOUS
 62
     1
 10
68.3
 20
122.275
 30
0.0
 11
68.3
 21
160.525
 31
0.0
  0
ARC
  8
0
  6
CONTINUOUS
 62
     2
 10
20.55
 20
159.9
 30
0.0
 40
0.5
 50
90.0
 51
180.0
  0
LINE
  8
0
  6
CONTINUOUS
 62
     2
 10
20.05
 20
159.9
 30
0.0
 11
20.05
 21
135.65
 31
0.0
  0
LINE
  8
0
  6
CONTINUOUS
 62
     2
 10
20.05
 20
135.65
 30
0.0
 11
66.55
 21
135.65
 31
0.0
  0
ARC
  8
0
  6
CONTINUOUS
 62
     2
 10
66.05
 20
159.9
 30
0.0
 40
0.5
 50
0.0
 51
90.0
  0
LINE
  8
0
  6
CONTINUOUS
 62
     2
 10
66.55
 20
135.65
 30
0.0
 11
66.55
 21
159.9
 31
0.0
  0
LINE
  8
0
  6
CONTINUOUS
 62
     2
 10
66.05
 20
160.4
 30
0.0
 11
20.55
 21
160.4
 31
0.0
  0
LINE
  8
0
  6
CONTINUOUS
 62
     1
 10
19.925
 20
120.65
 30
0.0
 11
66.675
 21
120.65
 31
0.0
  0
ARC
  8
0
  6
CONTINUOUS
 62
     1
 10
66.675
 20
122.275
 30
0.0
 40
1.625
 50
270.0
 51
0.0
  0
ARC
  8
0
  6
CONTINUOUS
 62
     1
 10
19.925
 20
122.275
 30
0.0
 40
1.625
 50
180.0
 51
270.0
  0
LINE
  8
0
  6
CONTINUOUS
 62
     1
 10
88.3
 20
162.15
 30
0.0
 11
82.45
 21
161.15
 31
0.0
  0
LINE
  8
0
  6
CONTINUOUS
 62
     1
 10
82.45
 20
161.15
 30
0.0
 11
82.45
 21
160.4
 31
0.0
  0
LINE
  8
0
  6
CONTINUOUS
 62
     1
 10
82.3
 20
135.65
 30
0.0
 11
82.45
 21
135.65
 31
0.0
  0
LINE
  8
0
  6
CONTINUOUS
 62
     1
 10
82.45
 20
135.65
 30
0.0
 11
82.45
 21
121.65
 31
0.0
  0
LINE
  8
0
  6
CONTINUOUS
 62
     1
 10
82.3
 20
160.4
 30
0.0
 11
82.3
 21
135.65
 31
0.0
  0
LINE
  8
0
  6
CONTINUOUS
 62
     1
 10
82.45
 20
121.65
 30
0.0
 11
88.3
 21
120.65
 31
0.0
  0
LINE
  8
0
  6
CONTINUOUS
 62
     1
 10
93.55
 20
155.62265625
 30
0.0
 11
136.3
 21
155.4
 31
0.0
  0
ARC
  8
0
  6
CONTINUOUS
 62
     1
 10
138.05
 20
154.929304445
 30
0.0
 40
0.25
 50
0.0
 51
82.874983651
  0
LINE
  8
0
  6
CONTINUOUS
 62
     1
 10
136.3
 20
155.4
 30
0.0
 11
138.081008684
 21
155.177373915
 31
0.0
  0
ARC
  8
0
  6
CONTINUOUS
 62
     1
 10
138.7
 20
152.8
 30
0.0
 40
0.4
 50
180.0
 51
270.0
  0
LINE
  8
0
  6
CONTINUOUS
 62
     1
 10
143.15
 20
152.4
 30
0.0
 11
138.7
 21
152.4
 31
0.0
  0
LINE
  8
0
  6
CONTINUOUS
 62
     1
 10
138.3
 20
154.929304445
 30
0.0
 11
138.3
 21
141.225
 31
0.0
  0
ARC
  8
0
  6
CONTINUOUS
 62
     1
 10
143.15
 20
151.3
 30
0.0
 40
0.4
 50
270.0
 51
360.0
  0
LINE
  8
0
  6
CONTINUOUS
 62
     1
 10
143.55
 20
151.3
 30
0.0
 11
143.55
 21
152.0
 31
0.0
  0
ARC
  8
0
  6
CONTINUOUS
 62
     1
 10
143.15
 20
152.0
 30
0.0
 40
0.4
 50
0.0
 51
90.0
  0
ARC
  8
0
  6
CONTINUOUS
 62
     1
 10
139.3
 20
149.95
 30
0.0
 40
0.25
 50
90.0
 51
180.0
  0
LINE
  8
0
  6
CONTINUOUS
 62
     1
 10
142.05
 20
150.2
 30
0.0
 11
139.3
 21
150.2
 31
0.0
  0
LINE
  8
0
  6
CONTINUOUS
 62
     1
 10
142.3
 20
150.9
 30
0.0
 11
143.15
 21
150.9
 31
0.0
  0
ARC
  8
0
  6
CONTINUOUS
 62
     1
 10
142.05
 20
150.45
 30
0.0
 40
0.25
 50
270.0
 51
0.0
  0
LINE
  8
0
  6
CONTINUOUS
 62
     1
 10
137.3
 20
140.975
 30
0.0
 11
137.3
 21
137.825
 31
0.0
  0
LINE
  8
0
  6
CONTINUOUS
 62
     1
 10
138.05
 20
140.975
 30
0.0
 11
137.3
 21
140.975
 31
0.0
  0
ARC
  8
0
  6
CONTINUOUS
 62
     1
 10
138.05
 20
141.225
 30
0.0
 40
0.25
 50
270.0
 51
360.0
  0
ARC
  8
0
  6
CONTINUOUS
 62
     1
 10
138.05
 20
137.575
 30
0.0
 40
0.25
 50
0.0
 51
90.0
  0
LINE
  8
0
  6
CONTINUOUS
 62
     1
 10
137.3
 20
137.825
 30
0.0
 11
138.05
 21
137.825
 31
0.0
  0
ARC
  8
0
  6
CONTINUOUS
 62
     1
 10
142.05
 20
137.35
 30
0.0
 40
0.25
 50
0.0
 51
90.0
  0
ARC
  8
0
  6
CONTINUOUS
 62
     1
 10
142.05
 20
136.95
 30
0.0
 40
0.25
 50
270.0
 51
0.0
  0
LINE
  8
0
  6
CONTINUOUS
 62
     1
 10
142.05
 20
136.7
 30
0.0
 11
139.3
 21
136.7
 31
0.0
  0
LINE
  8
0
  6
CONTINUOUS
 62
     1
 10
139.05
 20
140.95
 30
0.0
 11
139.05
 21
137.85
 31
0.0
  0
ARC
  8
0
  6
CONTINUOUS
 62
     1
 10
139.3
 20
137.85
 30
0.0
 40
0.25
 50
180.0
 51
270.0
  0
LINE
  8
0
  6
CONTINUOUS
 62
     1
 10
139.3
 20
137.6
 30
0.0
 11
142.05
 21
137.6
 31
0.0
  0
ARC
  8
0
  6
CONTINUOUS
 62
     1
 10
139.3
 20
140.95
 30
0.0
 40
0.25
 50
90.0
 51
180.0
  0
LINE
  8
0
  6
CONTINUOUS
 62
     1
 10
142.05
 20
141.2
 30
0.0
 11
139.3
 21
141.2
 31
0.0
  0
LINE
  8
0
  6
CONTINUOUS
 62
     1
 10
139.3
 20
142.1
 30
0.0
 11
142.05
 21
142.1
 31
0.0
  0
LINE
  8
0
  6
CONTINUOUS
 62
     1
 10
139.05
 20
145.45
 30
0.0
 11
139.05
 21
142.35
 31
0.0
  0
ARC
  8
0
  6
CONTINUOUS
 62
     1
 10
139.3
 20
142.35
 30
0.0
 40
0.25
 50
180.0
 51
270.0
  0
ARC
  8
0
  6
CONTINUOUS
 62
     1
 10
139.3
 20
145.45
 30
0.0
 40
0.25
 50
90.0
 51
180.0
  0
ARC
  8
0
  6
CONTINUOUS
 62
     1
 10
139.3
 20
146.85
 30
0.0
 40
0.25
 50
180.0
 51
270.0
  0
LINE
  8
0
  6
CONTINUOUS
 62
     1
 10
142.05
 20
145.7
 30
0.0
 11
139.3
 21
145.7
 31
0.0
  0
LINE
  8
0
  6
CONTINUOUS
 62
     1
 10
139.3
 20
146.6
 30
0.0
 11
142.05
 21
146.6
 31
0.0
  0
LINE
  8
0
  6
CONTINUOUS
 62
     1
 10
139.05
 20
149.95
 30
0.0
 11
139.05
 21
146.85
 31
0.0
  0
ARC
  8
0
  6
CONTINUOUS
 62
     1
 10
142.05
 20
141.45
 30
0.0
 40
0.25
 50
270.0
 51
0.0
  0
ARC
  8
0
  6
CONTINUOUS
 62
     1
 10
142.05
 20
141.85
 30
0.0
 40
0.25
 50
0.0
 51
90.0
  0
ARC
  8
0
  6
CONTINUOUS
 62
     1
 10
142.05
 20
145.95
 30
0.0
 40
0.25
 50
270.0
 51
0.0
  0
ARC
  8
0
  6
CONTINUOUS
 62
     1
 10
142.05
 20
146.35
 30
0.0
 40
0.25
 50
0.0
 51
90.0
  0
ARC
  8
0
  6
CONTINUOUS
 62
     1
 10
139.3
 20
136.45
 30
0.0
 40
0.25
 50
90.0
 51
180.0
  0
ARC
  8
0
  6
CONTINUOUS
 62
     1
 10
142.05
 20
132.85
 30
0.0
 40
0.25
 50
0.0
 51
90.0
  0
ARC
  8
0
  6
CONTINUOUS
 62
     1
 10
142.05
 20
132.45
 30
0.0
 40
0.25
 50
270.0
 51
0.0
  0
ARC
  8
0
  6
CONTINUOUS
 62
     1
 10
139.3
 20
133.35
 30
0.0
 40
0.25
 50
180.0
 51
270.0
  0
LINE
  8
0
  6
CONTINUOUS
 62
     1
 10
139.05
 20
136.45
 30
0.0
 11
139.05
 21
133.35
 31
0.0
  0
LINE
  8
0
  6
CONTINUOUS
 62
     1
 10
139.3
 20
133.1
 30
0.0
 11
142.05
 21
133.1
 31
0.0
  0
LINE
  8
0
  6
CONTINUOUS
 62
     1
 10
142.05
 20
132.2
 30
0.0
 11
139.3
 21
132.2
 31
0.0
  0
LINE
  8
0
  6
CONTINUOUS
 62
     1
 10
138.081008684
 20
123.622626085
 30
0.0
 11
136.3
 21
123.4
 31
0.0
  0
LINE
  8
0
  6
CONTINUOUS
 62
     1
 10
136.3
 20
123.4
 30
0.0
 11
93.55
 21
123.17734375
 31
0.0
  0
LINE
  8
0
  6
CONTINUOUS
 62
     1
 10
136.3
 20
155.4
 30
0.0
 11
136.3
 21
123.4
 31
0.0
  0
ARC
  8
0
  6
CONTINUOUS
 62
     1
 10
138.7
 20
126.0
 30
0.0
 40
0.4
 50
90.0
 51
180.0
  0
LINE
  8
0
  6
CONTINUOUS
 62
     1
 10
138.3
 20
137.575
 30
0.0
 11
138.3
 21
123.870695555
 31
0.0
  0
ARC
  8
0
  6
CONTINUOUS
 62
     1
 10
138.05
 20
123.870695555
 30
0.0
 40
0.25
 50
277.125016349
 51
0.0
  0
LINE
  8
0
  6
CONTINUOUS
 62
     1
 10
142.3
 20
127.9
 30
0.0
 11
143.15
 21
127.9
 31
0.0
  0
ARC
  8
0
  6
CONTINUOUS
 62
     1
 10
143.15
 20
127.5
 30
0.0
 40
0.4
 50
360.0
 51
90.0
  0
LINE
  8
0
  6
CONTINUOUS
 62
     1
 10
143.55
 20
127.5
 30
0.0
 11
143.55
 21
126.8
 31
0.0
  0
ARC
  8
0
  6
CONTINUOUS
 62
     1
 10
143.15
 20
126.8
 30
0.0
 40
0.4
 50
270.0
 51
0.0
  0
LINE
  8
0
  6
CONTINUOUS
 62
     1
 10
143.15
 20
126.4
 30
0.0
 11
138.7
 21
126.4
 31
0.0
  0
ARC
  8
0
  6
CONTINUOUS
 62
     1
 10
139.3
 20
128.85
 30
0.0
 40
0.25
 50
180.0
 51
270.0
  0
ARC
  8
0
  6
CONTINUOUS
 62
     1
 10
142.05
 20
128.35
 30
0.0
 40
0.25
 50
0.0
 51
90.0
  0
LINE
  8
0
  6
CONTINUOUS
 62
     1
 10
139.3
 20
128.6
 30
0.0
 11
142.05
 21
128.6
 31
0.0
  0
LINE
  8
0
  6
CONTINUOUS
 62
     1
 10
139.05
 20
131.95
 30
0.0
 11
139.05
 21
128.85
 31
0.0
  0
ARC
  8
0
  6
CONTINUOUS
 62
     1
 10
139.3
 20
131.95
 30
0.0
 40
0.25
 50
90.0
 51
180.0
  0
LINE
  8
0
  6
CONTINUOUS
 62
     1
 10
88.3
 20
120.65
 30
0.0
 11
88.3
 21
162.15
 31
0.0
  0
ARC
  8
0
  6
CONTINUOUS
 62
     1
 10
164.925
 20
160.525
 30
0.0
 40
1.625
 50
90.0
 51
180.0
  0
LINE
  8
0
  6
CONTINUOUS
 62
     1
 10
211.675
 20
162.15
 30
0.0
 11
164.925
 21
162.15
 31
0.0
  0
LINE
  8
0
  6
CONTINUOUS
 62
     1
 10
213.3
 20
122.275
 30
0.0
 11
213.3
 21
160.525
 31
0.0
  0
ARC
  8
0
  6
CONTINUOUS
 62
     1
 10
211.675
 20
122.275
 30
0.0
 40
1.625
 50
270.0
 51
0.0
  0
ARC
  8
0
  6
CONTINUOUS
 62
     1
 10
211.675
 20
160.525
 30
0.0
 40
1.625
 50
0.0
 51
90.0
  0
LINE
  8
0
  6
CONTINUOUS
 62
     1
 10
164.925
 20
120.65
 30
0.0
 11
211.675
 21
120.65
 31
0.0
  0
ARC
  8
0
  6
CONTINUOUS
 62
     1
 10
164.925
 20
122.275
 30
0.0
 40
1.625
 50
180.0
 51
270.0
  0
LINE
  8
0
  6
CONTINUOUS
 62
     1
 10
163.3
 20
160.525
 30
0.0
 11
163.3
 21
122.275
 31
0.0
  0
CIRCLE
  8
0
  6
CONTINUOUS
 62
     1
 10
188.3
 20
139.4
 30
0.0
 40
16.0
  0
LINE
  8
0
  6
CONTINUOUS
 62
     2
 10
24.807806065
 20
150.479171955
 30
0.0
 11
39.128170962
 21
135.65
 31
0.0
  0
LINE
  8
0
  6
CONTINUOUS
 62
     2
 10
38.780630064
 20
135.65
 30
0.0
 11
24.627971115
 21
150.305507363
 31
0.0
  0
TEXT
  8
0
  6
CONTINUOUS
 62
     2
 10
21.775465285
 20
168.15
 30
0.3
 40
3.0
  1
指針
 50
0.0
 41
0.9
 51
0.0
  7
KANJI5
  0
LINE
  8
0
  6
CONTINUOUS
 62
     2
 10
27.7
 20
167.15
 30
0.0
 11
21.775465285
 21
167.15
 31
0.0
  0
LINE
  8
0
  6
LTYPE4
 62
     2
 10
77.8
 20
141.4
 30
0.0
 11
78.3
 21
141.4
 31
0.0
  0
CIRCLE
  8
0
  6
CONTINUOUS
 62
     2
 10
188.3
 20
71.4
 30
0.0
 40
16.75
  0
CIRCLE
  8
0
  6
CONTINUOUS
 62
     2
 10
172.3
 20
55.4
 30
0.0
 40
1.0
  0
CIRCLE
  8
0
  6
CONTINUOUS
 62
     2
 10
172.3
 20
87.4
 30
0.0
 40
1.0
  0
CIRCLE
  8
0
  6
CONTINUOUS
 62
     2
 10
204.3
 20
87.4
 30
0.0
 40
1.0
  0
CIRCLE
  8
0
  6
CONTINUOUS
 62
     2
 10
204.3
 20
55.4
 30
0.0
 40
1.0
  0
LINE
  8
0
  6
LTYPE1
 62
     2
 10
163.3
 20
71.4
 30
0.0
 11
213.3
 21
71.4
 31
0.0
  0
LINE
  8
0
  6
LTYPE2
 62
     2
 10
170.3
 20
87.4
 30
0.0
 11
174.3
 21
87.4
 31
0.0
  0
LINE
  8
0
  6
LTYPE2
 62
     2
 10
172.3
 20
89.4
 30
0.0
 11
172.3
 21
85.4
 31
0.0
  0
LINE
  8
0
  6
LTYPE2
 62
     2
 10
170.3
 20
55.4
 30
0.0
 11
174.3
 21
55.4
 31
0.0
  0
LINE
  8
0
  6
LTYPE2
 62
     2
 10
172.3
 20
57.4
 30
0.0
 11
172.3
 21
53.4
 31
0.0
  0
LINE
  8
0
  6
LTYPE2
 62
     2
 10
202.3
 20
55.4
 30
0.0
 11
206.3
 21
55.4
 31
0.0
  0
LINE
  8
0
  6
LTYPE2
 62
     2
 10
204.3
 20
57.4
 30
0.0
 11
204.3
 21
53.4
 31
0.0
  0
LINE
  8
0
  6
LTYPE2
 62
     2
 10
202.3
 20
87.4
 30
0.0
 11
206.3
 21
87.4
 31
0.0
  0
LINE
  8
0
  6
LTYPE2
 62
     2
 10
204.3
 20
89.4
 30
0.0
 11
204.3
 21
85.4
 31
0.0
  0
LINE
  8
0
  6
CONTINUOUS
 62
     2
 10
213.3
 20
71.4
 30
0.0
 11
216.3
 21
71.4
 31
0.0
  0
LINE
  8
0
  6
CONTINUOUS
 62
     2
 10
214.3
 20
71.4
 30
0.0
 11
213.652952387
 21
68.985185434
 31
0.0
  0
LINE
  8
0
  6
CONTINUOUS
 62
     2
 10
214.3
 20
71.4
 30
0.0
 11
214.947047613
 21
68.985185434
 31
0.0
  0
LINE
  8
0
  6
CONTINUOUS
 62
     2
 10
214.3
 20
71.4
 30
0.0
 11
214.3
 21
55.4
 31
0.0
  0
LINE
  8
0
  6
CONTINUOUS
 62
     2
 10
214.3
 20
55.4
 30
0.0
 11
214.947047613
 21
57.814814566
 31
0.0
  0
LINE
  8
0
  6
CONTINUOUS
 62
     2
 10
214.3
 20
55.4
 30
0.0
 11
213.652952387
 21
57.814814566
 31
0.0
  0
LINE
  8
0
  6
CONTINUOUS
 62
     2
 10
206.3
 20
55.4
 30
0.0
 11
216.3
 21
55.4
 31
0.0
  0
TEXT
  8
0
  6
CONTINUOUS
 62
     2
 10
213.3
 20
62.92
 30
0.18
 40
1.8
  1
±０．５
 50
90.0
 41
0.6
 51
0.0
  7
KANJI1
  0
TEXT
  8
0
  6
CONTINUOUS
 62
     2
 10
213.3
 20
59.02
 30
0.3
 40
3.0
  1
３２
 50
90.0
 41
0.6
 51
0.0
  7
KANJI2
  0
LINE
  8
0
  6
CONTINUOUS
 62
     2
 10
214.3
 20
71.4
 30
0.0
 11
214.947047613
 21
73.814814566
 31
0.0
  0
LINE
  8
0
  6
CONTINUOUS
 62
     2
 10
214.3
 20
71.4
 30
0.0
 11
213.652952387
 21
73.814814566
 31
0.0
  0
LINE
  8
0
  6
CONTINUOUS
 62
     2
 10
214.3
 20
71.4
 30
0.0
 11
214.3
 21
87.4
 31
0.0
  0
LINE
  8
0
  6
CONTINUOUS
 62
     2
 10
214.3
 20
87.4
 30
0.0
 11
213.652952387
 21
84.985185434
 31
0.0
  0
LINE
  8
0
  6
CONTINUOUS
 62
     2
 10
214.3
 20
87.4
 30
0.0
 11
214.947047613
 21
84.985185434
 31
0.0
  0
LINE
  8
0
  6
CONTINUOUS
 62
     2
 10
206.3
 20
87.4
 30
0.0
 11
216.3
 21
87.4
 31
0.0
  0
TEXT
  8
0
  6
CONTINUOUS
 62
     2
 10
213.3
 20
78.92
 30
0.18
 40
1.8
  1
±０．５
 50
90.0
 41
0.6
 51
0.0
  7
KANJI1
  0
TEXT
  8
0
  6
CONTINUOUS
 62
     2
 10
213.3
 20
75.02
 30
0.3
 40
3.0
  1
３２
 50
90.0
 41
0.6
 51
0.0
  7
KANJI2
  0
LINE
  8
0
  6
CONTINUOUS
 62
     2
 10
172.3
 20
89.4
 30
0.0
 11
172.3
 21
99.4
 31
0.0
  0
LINE
  8
0
  6
CONTINUOUS
 62
     2
 10
172.3
 20
97.4
 30
0.0
 11
174.714814566
 21
96.752952387
 31
0.0
  0
LINE
  8
0
  6
CONTINUOUS
 62
     2
 10
172.3
 20
97.4
 30
0.0
 11
174.714814566
 21
98.047047613
 31
0.0
  0
LINE
  8
0
  6
CONTINUOUS
 62
     2
 10
172.3
 20
97.4
 30
0.0
 11
188.3
 21
97.4
 31
0.0
  0
LINE
  8
0
  6
CONTINUOUS
 62
     2
 10
188.3
 20
97.4
 30
0.0
 11
185.885185434
 21
98.047047613
 31
0.0
  0
LINE
  8
0
  6
CONTINUOUS
 62
     2
 10
188.3
 20
97.4
 30
0.0
 11
185.885185434
 21
96.752952387
 31
0.0
  0
LINE
  8
0
  6
CONTINUOUS
 62
     2
 10
188.3
 20
96.4
 30
0.0
 11
188.3
 21
99.4
 31
0.0
  0
TEXT
  8
0
  6
CONTINUOUS
 62
     2
 10
179.82
 20
98.4
 30
0.18
 40
1.8
  1
±０．５
 50
0.0
 41
0.6
 51
0.0
  7
KANJI1
  0
LINE
  8
0
  6
CONTINUOUS
 62
     2
 10
188.3
 20
97.4
 30
0.0
 11
190.714814566
 21
96.752952387
 31
0.0
  0
LINE
  8
0
  6
CONTINUOUS
 62
     2
 10
188.3
 20
97.4
 30
0.0
 11
190.714814566
 21
98.047047613
 31
0.0
  0
LINE
  8
0
  6
CONTINUOUS
 62
     2
 10
188.3
 20
97.4
 30
0.0
 11
204.3
 21
97.4
 31
0.0
  0
LINE
  8
0
  6
CONTINUOUS
 62
     2
 10
204.3
 20
97.4
 30
0.0
 11
201.885185434
 21
98.047047613
 31
0.0
  0
LINE
  8
0
  6
CONTINUOUS
 62
     2
 10
204.3
 20
97.4
 30
0.0
 11
201.885185434
 21
96.752952387
 31
0.0
  0
LINE
  8
0
  6
CONTINUOUS
 62
     2
 10
204.3
 20
89.4
 30
0.0
 11
204.3
 21
99.4
 31
0.0
  0
TEXT
  8
0
  6
CONTINUOUS
 62
     2
 10
195.82
 20
98.4
 30
0.18
 40
1.8
  1
±０．５
 50
0.0
 41
0.6
 51
0.0
  7
KANJI1
  0
TEXT
  8
0
  6
CONTINUOUS
 62
     2
 10
175.92
 20
98.4
 30
0.3
 40
3.0
  1
３２
 50
0.0
 41
0.6
 51
0.0
  7
KANJI2
  0
TEXT
  8
0
  6
CONTINUOUS
 62
     2
 10
191.92
 20
98.4
 30
0.3
 40
3.0
  1
３２
 50
0.0
 41
0.6
 51
0.0
  7
KANJI2
  0
LINE
  8
0
  6
CONTINUOUS
 62
     2
 10
172.748015428
 20
65.179206171
 30
0.0
 11
175.230421915
 21
65.47527716
 31
0.0
  0
LINE
  8
0
  6
CONTINUOUS
 62
     2
 10
172.748015428
 20
65.179206171
 30
0.0
 11
174.749807014
 21
66.676814412
 31
0.0
  0
LINE
  8
0
  6
CONTINUOUS
 62
     2
 10
172.748015428
 20
65.179206171
 30
0.0
 11
203.851984572
 21
77.620793829
 31
0.0
  0
LINE
  8
0
  6
CONTINUOUS
 62
     2
 10
203.851984572
 20
77.620793829
 30
0.0
 11
201.369578085
 21
77.32472284
 31
0.0
  0
LINE
  8
0
  6
CONTINUOUS
 62
     2
 10
203.851984572
 20
77.620793829
 30
0.0
 11
201.850192986
 21
76.123185588
 31
0.0
  0
TEXT
  8
0
  6
CONTINUOUS
 62
     2
 10
189.899071571
 20
73.11666159
 30
0.18
 40
1.8
  1
±１
 50
21.801409486
 41
0.6
 51
0.0
  7
KANJI1
  0
TEXT
  8
0
  6
CONTINUOUS
 62
     2
 10
184.178609324
 20
70.828476691
 30
0.3
 40
3.0
  1
φ６７
 50
21.801409486
 41
0.6
 51
0.0
  7
KANJI2
  0
TEXT
  8
0
  6
CONTINUOUS
 62
     2
 10
209.3
 20
51.4
 30
0.3
 40
3.0
  1
４－φ４穴
 50
0.0
 41
0.6
 51
0.0
  7
KANJI2
  0
TEXT
  8
0
  6
CONTINUOUS
 62
     2
 10
220.27
 20
50.9
 30
0.18
 40
1.8
  1
－０
 50
0.0
 41
0.6
 51
0.0
  7
KANJI1
  0
TEXT
  8
0
  6
CONTINUOUS
 62
     2
 10
220.27
 20
52.7
 30
0.18
 40
1.8
  1
＋０．５
 50
0.0
 41
0.6
 51
0.0
  7
KANJI1
  0
LINE
  8
0
  6
CONTINUOUS
 62
     2
 10
209.3
 20
50.4
 30
0.0
 11
225.5
 21
50.4
 31
0.0
  0
LINE
  8
0
  6
CONTINUOUS
 62
     2
 10
205.007106781
 20
54.692893219
 30
0.0
 11
206.257106781
 21
52.527829709
 31
0.0
  0
LINE
  8
0
  6
CONTINUOUS
 62
     2
 10
205.007106781
 20
54.692893219
 30
0.0
 11
207.172170291
 21
53.442893219
 31
0.0
  0
LINE
  8
0
  6
CONTINUOUS
 62
     2
 10
205.007106781
 20
54.692893219
 30
0.0
 11
209.3
 21
50.4
 31
0.0
  0
TEXT
  8
0
  6
CONTINUOUS
 62
     2
 10
179.5
 20
46.4
 30
0.3
 40
3.0
  1
パネルカット
 50
0.0
 41
0.9
 51
0.0
  7
KANJI5
  0
LINE
  8
0
  6
CONTINUOUS
 62
     2
 10
179.3
 20
45.4
 30
0.0
 11
197.3
 21
45.4
 31
0.0
  0
LINE
  8
0
  6
LTYPE1
 62
     2
 10
188.3
 20
96.4
 30
0.0
 11
188.3
 21
50.8
 31
0.0
  0
LINE
  8
0
  6
LTYPE4
 62
     2
 10
43.3
 20
166.4
 30
0.0
 11
43.3
 21
116.4
 31
0.0
  0
LINE
  8
0
  6
LTYPE4
 62
     2
 10
13.3
 20
141.4
 30
0.0
 11
69.5
 21
141.4
 31
0.0
  0
LINE
  8
0
  6
LTYPE4
 62
     2
 10
78.3
 20
141.4
 30
0.0
 11
148.3
 21
141.4
 31
0.0
  0
LINE
  8
0
  6
LTYPE4
 62
     2
 10
77.9
 20
139.4
 30
0.0
 11
148.3
 21
139.4
 31
0.0
  0
LINE
  8
0
  6
LTYPE4
 62
     2
 10
188.3
 20
166.4
 30
0.0
 11
188.3
 21
116.4
 31
0.0
  0
LINE
  8
0
  6
LTYPE4
 62
     2
 10
156.3
 20
141.4
 30
0.0
 11
215.3
 21
141.4
 31
0.0
  0
LINE
  8
0
  6
LTYPE4
 62
     2
 10
215.3
 20
139.4
 30
0.0
 11
156.3
 21
139.4
 31
0.0
  0
CIRCLE
  8
0
  6
CONTINUOUS
 62
     2
 10
79.7
 20
72.6
 30
0.0
 40
1.375
  0
CIRCLE
  8
0
  6
CONTINUOUS
 62
     2
 10
79.7
 20
77.1
 30
0.0
 40
1.375
  0
CIRCLE
  8
0
  6
CONTINUOUS
 62
     2
 10
87.7
 20
68.1
 30
0.0
 40
1.375
  0
CIRCLE
  8
0
  6
CONTINUOUS
 62
     2
 10
87.7
 20
63.6
 30
0.0
 40
1.375
  0
CIRCLE
  8
0
  6
CONTINUOUS
 62
     2
 10
87.7
 20
59.1
 30
0.0
 40
1.375
  0
CIRCLE
  8
0
  6
CONTINUOUS
 62
     2
 10
91.7
 20
68.1
 30
0.0
 40
1.0
  0
CIRCLE
  8
0
  6
CONTINUOUS
 62
     2
 10
91.7
 20
63.6
 30
0.0
 40
1.0
  0
CIRCLE
  8
0
  6
CONTINUOUS
 62
     2
 10
91.7
 20
59.1
 30
0.0
 40
1.0
  0
LINE
  8
0
  6
CONTINUOUS
 62
     2
 10
92.7
 20
68.1
 30
0.0
 11
99.7
 21
68.1
 31
0.0
  0
LINE
  8
0
  6
CONTINUOUS
 62
     2
 10
92.7
 20
59.1
 30
0.0
 11
99.7
 21
59.1
 31
0.0
  0
TEXT
  8
0
  6
CONTINUOUS
 62
     2
 10
88.975
 20
67.5
 30
0.2
 40
2.0
  1
ａ
 50
0.0
 41
0.9
 51
0.0
  7
KANJI6
  0
TEXT
  8
0
  6
CONTINUOUS
 62
     2
 10
88.975
 20
63.0
 30
0.2
 40
2.0
  1
ｃ
 50
0.0
 41
0.9
 51
0.0
  7
KANJI6
  0
TEXT
  8
0
  6
CONTINUOUS
 62
     2
 10
88.975
 20
58.5
 30
0.2
 40
2.0
  1
ｂ
 50
0.0
 41
0.9
 51
0.0
  7
KANJI6
  0
TEXT
  8
0
  6
CONTINUOUS
 62
     2
 10
81.6
 20
76.35
 30
0.15
 40
1.5
  1
１
 50
0.0
 41
0.9
 51
0.0
  7
KANJI3
  0
TEXT
  8
0
  6
CONTINUOUS
 62
     2
 10
81.6
 20
71.85
 30
0.15
 40
1.5
  1
２
 50
0.0
 41
0.9
 51
0.0
  7
KANJI3
  0
TEXT
  8
0
  6
CONTINUOUS
 62
     2
 10
84.6
 20
67.35
 30
0.15
 40
1.5
  1
６
 50
0.0
 41
0.9
 51
0.0
  7
KANJI3
  0
TEXT
  8
0
  6
CONTINUOUS
 62
     2
 10
84.6
 20
62.85
 30
0.15
 40
1.5
  1
７
 50
0.0
 41
0.9
 51
0.0
  7
KANJI3
  0
TEXT
  8
0
  6
CONTINUOUS
 62
     2
 10
84.6
 20
58.35
 30
0.15
 40
1.5
  1
８
 50
0.0
 41
0.9
 51
0.0
  7
KANJI3
  0
LINE
  8
0
  6
CONTINUOUS
 62
     2
 10
92.7
 20
63.6
 30
0.0
 11
99.7
 21
63.6
 31
0.0
  0
LINE
  8
0
  6
CONTINUOUS
 62
     2
 10
78.325
 20
72.6
 30
0.0
 11
71.7
 21
72.6
 31
0.0
  0
LINE
  8
0
  6
CONTINUOUS
 62
     2
 10
78.325
 20
77.1
 30
0.0
 11
71.7
 21
77.1
 31
0.0
  0
TEXT
  8
0
  6
CONTINUOUS
 62
     2
 10
59.3
 20
68.9
 30
0.3
 40
3.0
  1
回転数センサ
 50
0.0
 41
0.9
 51
0.0
  7
KANJI5
  0
TEXT
  8
0
  6
CONTINUOUS
 62
     2
 10
59.3
 20
64.9
 30
0.3
 40
3.0
  1
ＴＮ－１形
 50
0.0
 41
0.9
 51
0.0
  7
KANJI5
  0
TEXT
  8
0
  6
CONTINUOUS
 62
     2
 10
59.3
 20
60.9
 30
0.3
 40
3.0
  1
又は
 50
0.0
 41
0.9
 51
0.0
  7
KANJI5
  0
TEXT
  8
0
  6
CONTINUOUS
 62
     2
 10
59.3
 20
55.9
 30
0.3
 40
3.0
  1
ＴＮ－２形
 50
0.0
 41
0.9
 51
0.0
  7
KANJI5
  0
TEXT
  8
0
  6
CONTINUOUS
 62
     2
 10
60.2
 20
77.5
 30
0.3
 40
3.0
  1
計器入力
 50
0.0
 41
0.9
 51
0.0
  7
KANJI5
  0
TEXT
  8
0
  6
CONTINUOUS
 62
     2
 10
100.7
 20
66.6
 30
0.1
 40
3.0
  1
ＣＯＭ
 50
0.0
 41
0.6
 51
0.0
  7
KANJI7
  0
TEXT
  8
0
  6
CONTINUOUS
 62
     2
 10
100.7
 20
57.6
 30
0.1
 40
3.0
  1
２００／２２０Ｖ
 50
0.0
 41
0.6
 51
0.0
  7
KANJI7
  0
TEXT
  8
0
  6
CONTINUOUS
 62
     2
 10
100.7
 20
62.1
 30
0.1
 40
3.0
  1
１００／１１０Ｖ
 50
0.0
 41
0.6
 51
0.0
  7
KANJI7
  0
TEXT
  8
0
  6
CONTINUOUS
 62
     2
 10
100.7
 20
71.1
 30
0.3
 40
3.0
  1
制御電源
 50
0.0
 41
0.9
 51
0.0
  7
KANJI5
  0
TEXT
  8
0
  6
CONTINUOUS
 62
     2
 10
112.7
 20
71.1
 30
0.1
 40
3.0
  1
（５０／６０Ｈｚ）
 50
0.0
 41
0.6
 51
0.0
  7
KANJI7
  0
TEXT
  8
0
  6
CONTINUOUS
 62
     2
 10
74.5
 20
49.7
 30
0.3
 40
3.0
  1
端子構成図
 50
0.0
 41
0.9
 51
0.0
  7
KANJI5
  0
LINE
  8
0
  6
CONTINUOUS
 62
     2
 10
72.5
 20
48.7
 30
0.0
 11
90.5
 21
48.7
 31
0.0
  0
CIRCLE
  8
0
  6
CONTINUOUS
 62
     2
 10
184.3
 20
139.4
 30
0.0
 40
1.1
  0
CIRCLE
  8
0
  6
CONTINUOUS
 62
     2
 10
184.3
 20
134.9
 30
0.0
 40
1.1
  0
CIRCLE
  8
0
  6
CONTINUOUS
 62
     2
 10
184.3
 20
130.4
 30
0.0
 40
1.1
  0
CIRCLE
  8
0
  6
CONTINUOUS
 62
     2
 10
192.3
 20
148.4
 30
0.0
 40
1.1
  0
CIRCLE
  8
0
  6
CONTINUOUS
 62
     2
 10
192.3
 20
143.9
 30
0.0
 40
1.1
  0
LINE
  8
0
  6
CONTINUOUS
 62
     2
 10
191.6125
 20
129.20921507
 30
0.0
 11
190.965452387
 21
126.794400504
 31
0.0
  0
LINE
  8
0
  6
CONTINUOUS
 62
     2
 10
191.6125
 20
129.20921507
 30
0.0
 11
189.844733047
 21
127.441448117
 31
0.0
  0
LINE
  8
0
  6
CONTINUOUS
 62
     2
 10
191.6125
 20
129.20921507
 30
0.0
 11
183.784083529
 21
115.65
 31
0.0
  0
LINE
  8
0
  6
CONTINUOUS
 62
     2
 10
158.684083529
 20
115.65
 30
0.0
 11
183.784083529
 21
115.65
 31
0.0
  0
TEXT
  8
0
  6
CONTINUOUS
 62
     2
 10
159.184083529
 20
116.65
 30
0.3
 40
3.0
  1
５－Ｍ３タ－ミナルネジ
 50
0.0
 41
0.6
 51
0.0
  7
KANJI2
  0
TEXT
  8
0
  6
CONTINUOUS
 62
     2
 10
233.0
 20
45.0
 30
0.4
 40
4.0
  1
ＣＣＦ－１０Ｐ
 50
0.0
 41
0.9
 51
0.0
  7
KANJI8
  0
TEXT
  8
0
  6
CONTINUOUS
 62
     2
 10
233.0
 20
35.0
 30
0.4
 40
4.0
  1
回転計　外形図
 50
0.0
 41
0.9
 51
0.0
  7
KANJI8
  0
ENDSEC
  0
EOF
