  0
SECTION
  2
HEADER
  9
$ACADVER
  1
AC1009
  9
$DWGCODEPAGE
  3
dos932
  9
$EXTMIN
 10
0.0
 20
0.0
 30
0.0
  9
$EXTMAX
 10
297.0
 20
210.0
 30
0.0
  9
$LIMMIN
 10
0.0
 20
0.0
  9
$LIMMAX
 10
297.0
 20
210.0
  9
$LTSCALE
 40
1.0
  9
$PDMODE
 70
     0
  0
ENDSEC
  0
SECTION
  2
TABLES
  0
TABLE
  2
VPORT
 70
     1
  0
VPORT
  2
*ACTIVE
 70
     0
 10
0.0
 20
0.0
 11
1.0
 21
1.0
 12
148.5
 22
105.0
 13
0.0
 23
0.0
 14
10.0
 24
10.0
 15
10.0
 25
10.0
 16
0.0
 26
0.0
 36
1.0
 17
0.0
 27
0.0
 37
0.0
 40
297.0
 41
1.414285714
 42
50.0
 43
0.0
 44
0.0
 50
0.0
 51
0.0
 71
     0
 72
  1000
 73
     1
 74
     3
 75
     0
 76
     0
 77
     0
 78
     0
  0
ENDTAB
  0
TABLE
  2
LTYPE
 70
     2
  0
LTYPE
  2
CONTINUOUS
 70
    64
  3
Solid line
 72
    65
 73
     0
 40
0.0
  0
LTYPE
  2
LTYPE1
 70
    64
  3
CENTER
 72
    65
 73
     4
 40
15.0
 49
10.5
 49
-1.5
 49
1.5
 49
-1.5
  0
ENDTAB
  0
TABLE
  2
LAYER
 70
   128
  0
LAYER
  2
0
 70
     0
 62
     7
  6
CONTINUOUS
  0
LAYER
  2
2
 70
     0
 62
     7
  6
CONTINUOUS
  0
LAYER
  2
3
 70
     0
 62
     7
  6
CONTINUOUS
  0
LAYER
  2
4
 70
     0
 62
     7
  6
CONTINUOUS
  0
LAYER
  2
5
 70
     0
 62
     7
  6
CONTINUOUS
  0
LAYER
  2
6
 70
     0
 62
     7
  6
CONTINUOUS
  0
LAYER
  2
7
 70
     0
 62
     7
  6
CONTINUOUS
  0
LAYER
  2
8
 70
     0
 62
     7
  6
CONTINUOUS
  0
LAYER
  2
9
 70
     0
 62
     7
  6
CONTINUOUS
  0
LAYER
  2
10
 70
     0
 62
     7
  6
CONTINUOUS
  0
LAYER
  2
11
 70
     0
 62
     7
  6
CONTINUOUS
  0
LAYER
  2
12
 70
     0
 62
     7
  6
CONTINUOUS
  0
LAYER
  2
13
 70
     0
 62
     7
  6
CONTINUOUS
  0
LAYER
  2
14
 70
     0
 62
     7
  6
CONTINUOUS
  0
LAYER
  2
15
 70
     0
 62
     7
  6
CONTINUOUS
  0
LAYER
  2
16
 70
     0
 62
     7
  6
CONTINUOUS
  0
LAYER
  2
17
 70
     0
 62
     7
  6
CONTINUOUS
  0
LAYER
  2
18
 70
     0
 62
     7
  6
CONTINUOUS
  0
LAYER
  2
19
 70
     0
 62
     7
  6
CONTINUOUS
  0
LAYER
  2
20
 70
     0
 62
     7
  6
CONTINUOUS
  0
LAYER
  2
21
 70
     0
 62
     7
  6
CONTINUOUS
  0
LAYER
  2
22
 70
     0
 62
     7
  6
CONTINUOUS
  0
LAYER
  2
23
 70
     0
 62
     7
  6
CONTINUOUS
  0
LAYER
  2
24
 70
     0
 62
     7
  6
CONTINUOUS
  0
LAYER
  2
25
 70
     0
 62
     7
  6
CONTINUOUS
  0
LAYER
  2
26
 70
     0
 62
     7
  6
CONTINUOUS
  0
LAYER
  2
27
 70
     0
 62
     7
  6
CONTINUOUS
  0
LAYER
  2
28
 70
     0
 62
     7
  6
CONTINUOUS
  0
LAYER
  2
29
 70
     0
 62
     7
  6
CONTINUOUS
  0
LAYER
  2
30
 70
     0
 62
     7
  6
CONTINUOUS
  0
LAYER
  2
31
 70
     0
 62
     7
  6
CONTINUOUS
  0
LAYER
  2
32
 70
     0
 62
     7
  6
CONTINUOUS
  0
LAYER
  2
33
 70
     0
 62
     7
  6
CONTINUOUS
  0
LAYER
  2
34
 70
     0
 62
     7
  6
CONTINUOUS
  0
LAYER
  2
35
 70
     0
 62
     7
  6
CONTINUOUS
  0
LAYER
  2
36
 70
     0
 62
     7
  6
CONTINUOUS
  0
LAYER
  2
37
 70
     0
 62
     7
  6
CONTINUOUS
  0
LAYER
  2
38
 70
     0
 62
     7
  6
CONTINUOUS
  0
LAYER
  2
39
 70
     0
 62
     7
  6
CONTINUOUS
  0
LAYER
  2
40
 70
     0
 62
     7
  6
CONTINUOUS
  0
LAYER
  2
41
 70
     0
 62
     7
  6
CONTINUOUS
  0
LAYER
  2
42
 70
     0
 62
     7
  6
CONTINUOUS
  0
LAYER
  2
43
 70
     0
 62
     7
  6
CONTINUOUS
  0
LAYER
  2
44
 70
     0
 62
     7
  6
CONTINUOUS
  0
LAYER
  2
45
 70
     0
 62
     7
  6
CONTINUOUS
  0
LAYER
  2
46
 70
     0
 62
     7
  6
CONTINUOUS
  0
LAYER
  2
47
 70
     0
 62
     7
  6
CONTINUOUS
  0
LAYER
  2
48
 70
     0
 62
     7
  6
CONTINUOUS
  0
LAYER
  2
49
 70
     0
 62
     7
  6
CONTINUOUS
  0
LAYER
  2
50
 70
     0
 62
     7
  6
CONTINUOUS
  0
LAYER
  2
51
 70
     0
 62
     7
  6
CONTINUOUS
  0
LAYER
  2
52
 70
     0
 62
     7
  6
CONTINUOUS
  0
LAYER
  2
53
 70
     0
 62
     7
  6
CONTINUOUS
  0
LAYER
  2
54
 70
     0
 62
     7
  6
CONTINUOUS
  0
LAYER
  2
55
 70
     0
 62
     7
  6
CONTINUOUS
  0
LAYER
  2
56
 70
     0
 62
     7
  6
CONTINUOUS
  0
LAYER
  2
57
 70
     0
 62
     7
  6
CONTINUOUS
  0
LAYER
  2
58
 70
     0
 62
     7
  6
CONTINUOUS
  0
LAYER
  2
59
 70
     0
 62
     7
  6
CONTINUOUS
  0
LAYER
  2
60
 70
     0
 62
     7
  6
CONTINUOUS
  0
LAYER
  2
61
 70
     0
 62
     7
  6
CONTINUOUS
  0
LAYER
  2
62
 70
     0
 62
     7
  6
CONTINUOUS
  0
LAYER
  2
63
 70
     0
 62
     7
  6
CONTINUOUS
  0
LAYER
  2
64
 70
     0
 62
     7
  6
CONTINUOUS
  0
LAYER
  2
65
 70
     0
 62
     7
  6
CONTINUOUS
  0
LAYER
  2
66
 70
     0
 62
     7
  6
CONTINUOUS
  0
LAYER
  2
67
 70
     0
 62
     7
  6
CONTINUOUS
  0
LAYER
  2
68
 70
     0
 62
     7
  6
CONTINUOUS
  0
LAYER
  2
69
 70
     0
 62
     7
  6
CONTINUOUS
  0
LAYER
  2
70
 70
     0
 62
     7
  6
CONTINUOUS
  0
LAYER
  2
71
 70
     0
 62
     7
  6
CONTINUOUS
  0
LAYER
  2
72
 70
     0
 62
     7
  6
CONTINUOUS
  0
LAYER
  2
73
 70
     0
 62
     7
  6
CONTINUOUS
  0
LAYER
  2
74
 70
     0
 62
     7
  6
CONTINUOUS
  0
LAYER
  2
75
 70
     0
 62
     7
  6
CONTINUOUS
  0
LAYER
  2
76
 70
     0
 62
     7
  6
CONTINUOUS
  0
LAYER
  2
77
 70
     0
 62
     7
  6
CONTINUOUS
  0
LAYER
  2
78
 70
     0
 62
     7
  6
CONTINUOUS
  0
LAYER
  2
79
 70
     0
 62
     7
  6
CONTINUOUS
  0
LAYER
  2
80
 70
     0
 62
     7
  6
CONTINUOUS
  0
LAYER
  2
81
 70
     0
 62
     7
  6
CONTINUOUS
  0
LAYER
  2
82
 70
     0
 62
     7
  6
CONTINUOUS
  0
LAYER
  2
83
 70
     0
 62
     7
  6
CONTINUOUS
  0
LAYER
  2
84
 70
     0
 62
     7
  6
CONTINUOUS
  0
LAYER
  2
85
 70
     0
 62
     7
  6
CONTINUOUS
  0
LAYER
  2
86
 70
     0
 62
     7
  6
CONTINUOUS
  0
LAYER
  2
87
 70
     0
 62
     7
  6
CONTINUOUS
  0
LAYER
  2
88
 70
     0
 62
     7
  6
CONTINUOUS
  0
LAYER
  2
89
 70
     0
 62
     7
  6
CONTINUOUS
  0
LAYER
  2
90
 70
     0
 62
     7
  6
CONTINUOUS
  0
LAYER
  2
91
 70
     0
 62
     7
  6
CONTINUOUS
  0
LAYER
  2
92
 70
     0
 62
     7
  6
CONTINUOUS
  0
LAYER
  2
93
 70
     0
 62
     7
  6
CONTINUOUS
  0
LAYER
  2
94
 70
     0
 62
     7
  6
CONTINUOUS
  0
LAYER
  2
95
 70
     0
 62
     7
  6
CONTINUOUS
  0
LAYER
  2
96
 70
     0
 62
     7
  6
CONTINUOUS
  0
LAYER
  2
97
 70
     0
 62
     7
  6
CONTINUOUS
  0
LAYER
  2
98
 70
     0
 62
     7
  6
CONTINUOUS
  0
LAYER
  2
99
 70
     0
 62
     7
  6
CONTINUOUS
  0
LAYER
  2
100
 70
     0
 62
     7
  6
CONTINUOUS
  0
LAYER
  2
101
 70
     0
 62
     7
  6
CONTINUOUS
  0
LAYER
  2
102
 70
     0
 62
     7
  6
CONTINUOUS
  0
LAYER
  2
103
 70
     0
 62
     7
  6
CONTINUOUS
  0
LAYER
  2
104
 70
     0
 62
     7
  6
CONTINUOUS
  0
LAYER
  2
105
 70
     0
 62
     7
  6
CONTINUOUS
  0
LAYER
  2
106
 70
     0
 62
     7
  6
CONTINUOUS
  0
LAYER
  2
107
 70
     0
 62
     7
  6
CONTINUOUS
  0
LAYER
  2
108
 70
     0
 62
     7
  6
CONTINUOUS
  0
LAYER
  2
109
 70
     0
 62
     7
  6
CONTINUOUS
  0
LAYER
  2
110
 70
     0
 62
     7
  6
CONTINUOUS
  0
LAYER
  2
111
 70
     0
 62
     7
  6
CONTINUOUS
  0
LAYER
  2
112
 70
     0
 62
     7
  6
CONTINUOUS
  0
LAYER
  2
113
 70
     0
 62
     7
  6
CONTINUOUS
  0
LAYER
  2
114
 70
     0
 62
     7
  6
CONTINUOUS
  0
LAYER
  2
115
 70
     0
 62
     7
  6
CONTINUOUS
  0
LAYER
  2
116
 70
     0
 62
     7
  6
CONTINUOUS
  0
LAYER
  2
117
 70
     0
 62
     7
  6
CONTINUOUS
  0
LAYER
  2
118
 70
     0
 62
     7
  6
CONTINUOUS
  0
LAYER
  2
119
 70
     0
 62
     7
  6
CONTINUOUS
  0
LAYER
  2
120
 70
     0
 62
     7
  6
CONTINUOUS
  0
LAYER
  2
121
 70
     0
 62
     7
  6
CONTINUOUS
  0
LAYER
  2
122
 70
     0
 62
     7
  6
CONTINUOUS
  0
LAYER
  2
123
 70
     0
 62
     7
  6
CONTINUOUS
  0
LAYER
  2
124
 70
     0
 62
     7
  6
CONTINUOUS
  0
LAYER
  2
125
 70
     0
 62
     7
  6
CONTINUOUS
  0
LAYER
  2
126
 70
     0
 62
     7
  6
CONTINUOUS
  0
LAYER
  2
127
 70
     0
 62
     7
  6
CONTINUOUS
  0
LAYER
  2
128
 70
     0
 62
     7
  6
CONTINUOUS
  0
ENDTAB
  0
TABLE
  2
STYLE
 70
    12
  0
STYLE
  2
STANDARD
 70
     0
 40
0.0
 41
1.0
 50
0.0
 71
     0
 42
0.2
  3
txt.shx
  4
extfont.shx
  0
STYLE
  2
KANJI0
 70
     0
 40
5.8
 41
0.827586207
 50
0.0
 71
     0
 42
5.8
  3
txt.shx
  4
extfont.shx
  0
STYLE
  2
KANJI1
 70
     0
 40
1.2
 41
0.9
 50
0.0
 71
     0
 42
1.2
  3
txt.shx
  4
extfont.shx
  0
STYLE
  2
KANJI2
 70
     0
 40
1.2
 41
0.9
 50
0.0
 71
     0
 42
1.2
  3
txt.shx
  4
extfont.shx
  0
STYLE
  2
KANJI3
 70
     0
 40
3.0
 41
0.666666667
 50
0.0
 71
     0
 42
3.0
  3
txt.shx
  4
extfont.shx
  0
STYLE
  2
KANJI4
 70
     0
 40
1.5
 41
0.9
 50
0.0
 71
     0
 42
1.5
  3
txt.shx
  4
extfont.shx
  0
STYLE
  2
KANJI5
 70
     0
 40
3.0
 41
0.9
 50
0.0
 71
     0
 42
3.0
  3
txt.shx
  4
extfont.shx
  0
STYLE
  2
KANJI6
 70
     0
 40
3.0
 41
0.6
 50
0.0
 71
     0
 42
3.0
  3
txt.shx
  4
extfont.shx
  0
STYLE
  2
KANJI7
 70
     0
 40
1.8
 41
0.666666667
 50
0.0
 71
     0
 42
1.8
  3
txt.shx
  4
extfont.shx
  0
STYLE
  2
KANJI8
 70
     0
 40
4.0
 41
0.9
 50
0.0
 71
     0
 42
4.0
  3
txt.shx
  4
extfont.shx
  0
STYLE
  2
KANJI9
 70
     0
 40
4.0
 41
0.9
 50
0.0
 71
     0
 42
4.0
  3
txt.shx
  4
extfont.shx
  0
STYLE
  2
KANJI10
 70
     0
 40
4.0
 41
0.875
 50
0.0
 71
     0
 42
4.0
  3
txt.shx
  4
extfont.shx
  0
ENDTAB
  0
TABLE
  2
VIEW
 70
     0
  0
ENDTAB
  0
ENDSEC
  0
SECTION
  2
BLOCKS
  0
ENDSEC
  0
SECTION
  2
ENTITIES
  0
LINE
  8
0
  6
CONTINUOUS
 62
     1
 10
20.0
 20
114.0
 30
0.0
 11
215.0
 21
114.0
 31
0.0
  0
TEXT
  8
0
  6
CONTINUOUS
 62
     3
 10
235.0
 20
17.0
 30
0.2
 40
5.8
  1
ＭＳ－１１３８５　Ａ
 50
0.0
 41
0.827586207
 51
0.0
  7
KANJI0
  0
LINE
  8
0
  6
CONTINUOUS
 62
     1
 10
67.5
 20
125.5
 30
0.0
 11
67.5
 21
164.5
 31
0.0
  0
LINE
  8
0
  6
CONTINUOUS
 62
     1
 10
42.5
 20
164.5
 30
0.0
 11
42.5
 21
125.5
 31
0.0
  0
LINE
  8
0
  6
CONTINUOUS
 62
     1
 10
66.5
 20
126.5
 30
0.0
 11
66.5
 21
131.75
 31
0.0
  0
LINE
  8
0
  6
CONTINUOUS
 62
     1
 10
66.5
 20
131.75
 30
0.0
 11
65.5
 21
131.75
 31
0.0
  0
LINE
  8
0
  6
CONTINUOUS
 62
     1
 10
43.5
 20
126.5
 30
0.0
 11
43.5
 21
131.75
 31
0.0
  0
LINE
  8
0
  6
CONTINUOUS
 62
     1
 10
43.5
 20
131.75
 30
0.0
 11
44.5
 21
131.75
 31
0.0
  0
LINE
  8
0
  6
CONTINUOUS
 62
     1
 10
44.5
 20
158.25
 30
0.0
 11
43.5
 21
158.25
 31
0.0
  0
LINE
  8
0
  6
CONTINUOUS
 62
     1
 10
43.5
 20
158.25
 30
0.0
 11
43.5
 21
163.5
 31
0.0
  0
LINE
  8
0
  6
CONTINUOUS
 62
     1
 10
66.5
 20
163.5
 30
0.0
 11
66.5
 21
158.25
 31
0.0
  0
LINE
  8
0
  6
CONTINUOUS
 62
     1
 10
66.5
 20
158.25
 30
0.0
 11
65.5
 21
158.25
 31
0.0
  0
LINE
  8
0
  6
CONTINUOUS
 62
     1
 10
65.5
 20
158.25
 30
0.0
 11
65.5
 21
153.75
 31
0.0
  0
LINE
  8
0
  6
CONTINUOUS
 62
     1
 10
65.5
 20
153.75
 30
0.0
 11
44.5
 21
153.75
 31
0.0
  0
LINE
  8
0
  6
CONTINUOUS
 62
     1
 10
44.5
 20
153.75
 30
0.0
 11
44.5
 21
158.25
 31
0.0
  0
LINE
  8
0
  6
CONTINUOUS
 62
     1
 10
44.5
 20
131.75
 30
0.0
 11
44.5
 21
136.25
 31
0.0
  0
LINE
  8
0
  6
CONTINUOUS
 62
     1
 10
44.5
 20
136.25
 30
0.0
 11
65.5
 21
136.25
 31
0.0
  0
LINE
  8
0
  6
CONTINUOUS
 62
     1
 10
65.5
 20
136.25
 30
0.0
 11
65.5
 21
131.75
 31
0.0
  0
LINE
  8
0
  6
CONTINUOUS
 62
     1
 10
66.5
 20
131.75
 30
0.0
 11
66.5
 21
158.25
 31
0.0
  0
LINE
  8
0
  6
CONTINUOUS
 62
     1
 10
43.5
 20
158.25
 30
0.0
 11
43.5
 21
131.75
 31
0.0
  0
LINE
  8
0
  6
CONTINUOUS
 62
     1
 10
44.5
 20
137.25
 30
0.0
 11
65.5
 21
137.25
 31
0.0
  0
LINE
  8
0
  6
CONTINUOUS
 62
     1
 10
65.5
 20
137.25
 30
0.0
 11
65.5
 21
152.75
 31
0.0
  0
LINE
  8
0
  6
CONTINUOUS
 62
     1
 10
65.5
 20
152.75
 30
0.0
 11
44.5
 21
152.75
 31
0.0
  0
LINE
  8
0
  6
CONTINUOUS
 62
     1
 10
44.5
 20
152.75
 30
0.0
 11
44.5
 21
137.25
 31
0.0
  0
LINE
  8
0
  6
CONTINUOUS
 62
     1
 10
53.0
 20
129.0
 30
0.0
 11
57.0
 21
129.0
 31
0.0
  0
LINE
  8
0
  6
CONTINUOUS
 62
     1
 10
42.5
 20
125.5
 30
0.0
 11
54.0
 21
125.5
 31
0.0
  0
LINE
  8
0
  6
CONTINUOUS
 62
     1
 10
56.0
 20
125.5
 30
0.0
 11
67.5
 21
125.5
 31
0.0
  0
LINE
  8
0
  6
CONTINUOUS
 62
     1
 10
57.0
 20
126.5
 30
0.0
 11
66.5
 21
126.5
 31
0.0
  0
LINE
  8
0
  6
CONTINUOUS
 62
     1
 10
53.0
 20
129.0
 30
0.0
 11
53.0
 21
126.5
 31
0.0
  0
LINE
  8
0
  6
CONTINUOUS
 62
     1
 10
43.5
 20
126.5
 30
0.0
 11
53.0
 21
126.5
 31
0.0
  0
LINE
  8
0
  6
CONTINUOUS
 62
     1
 10
54.0
 20
128.0
 30
0.0
 11
54.0
 21
125.5
 31
0.0
  0
LINE
  8
0
  6
CONTINUOUS
 62
     1
 10
56.0
 20
128.0
 30
0.0
 11
54.0
 21
128.0
 31
0.0
  0
LINE
  8
0
  6
CONTINUOUS
 62
     1
 10
56.0
 20
128.0
 30
0.0
 11
56.0
 21
125.5
 31
0.0
  0
LINE
  8
0
  6
CONTINUOUS
 62
     1
 10
57.0
 20
161.0
 30
0.0
 11
57.0
 21
163.5
 31
0.0
  0
LINE
  8
0
  6
CONTINUOUS
 62
     1
 10
56.0
 20
162.0
 30
0.0
 11
54.0
 21
162.0
 31
0.0
  0
LINE
  8
0
  6
CONTINUOUS
 62
     1
 10
56.0
 20
162.0
 30
0.0
 11
56.0
 21
164.5
 31
0.0
  0
LINE
  8
0
  6
CONTINUOUS
 62
     1
 10
67.5
 20
164.5
 30
0.0
 11
56.0
 21
164.5
 31
0.0
  0
LINE
  8
0
  6
CONTINUOUS
 62
     1
 10
54.0
 20
162.0
 30
0.0
 11
54.0
 21
164.5
 31
0.0
  0
LINE
  8
0
  6
CONTINUOUS
 62
     1
 10
54.0
 20
164.5
 30
0.0
 11
42.5
 21
164.5
 31
0.0
  0
LINE
  8
0
  6
CONTINUOUS
 62
     1
 10
43.5
 20
163.5
 30
0.0
 11
53.0
 21
163.5
 31
0.0
  0
LINE
  8
0
  6
CONTINUOUS
 62
     1
 10
53.0
 20
161.0
 30
0.0
 11
53.0
 21
163.5
 31
0.0
  0
LINE
  8
0
  6
CONTINUOUS
 62
     1
 10
53.0
 20
161.0
 30
0.0
 11
57.0
 21
161.0
 31
0.0
  0
LINE
  8
0
  6
CONTINUOUS
 62
     1
 10
57.0
 20
163.5
 30
0.0
 11
66.5
 21
163.5
 31
0.0
  0
LINE
  8
0
  6
CONTINUOUS
 62
     1
 10
57.0
 20
161.0
 30
0.0
 11
57.0
 21
153.75
 31
0.0
  0
LINE
  8
0
  6
CONTINUOUS
 62
     1
 10
53.0
 20
161.0
 30
0.0
 11
53.0
 21
158.25
 31
0.0
  0
LINE
  8
0
  6
CONTINUOUS
 62
     1
 10
49.0
 20
158.25
 30
0.0
 11
57.0
 21
158.25
 31
0.0
  0
LINE
  8
0
  6
CONTINUOUS
 62
     1
 10
47.5
 20
153.75
 30
0.0
 11
47.5
 21
156.75
 31
0.0
  0
ARC
  8
0
  6
CONTINUOUS
 62
     1
 10
49.0
 20
156.75
 30
0.0
 40
1.5
 50
90.0
 51
180.0
  0
ARC
  8
0
  6
CONTINUOUS
 62
     1
 10
54.0
 20
156.25
 30
0.0
 40
0.5
 50
0.0
 51
180.0
  0
ARC
  8
0
  6
CONTINUOUS
 62
     1
 10
54.0
 20
154.75
 30
0.0
 40
0.5
 50
180.0
 51
0.0
  0
LINE
  8
0
  6
CONTINUOUS
 62
     1
 10
54.5
 20
154.75
 30
0.0
 11
54.5
 21
156.25
 31
0.0
  0
LINE
  8
0
  6
CONTINUOUS
 62
     1
 10
53.5
 20
156.25
 30
0.0
 11
53.5
 21
154.75
 31
0.0
  0
ARC
  8
0
  6
CONTINUOUS
 62
     1
 10
52.0
 20
156.25
 30
0.0
 40
0.5
 50
0.0
 51
180.0
  0
ARC
  8
0
  6
CONTINUOUS
 62
     1
 10
52.0
 20
154.75
 30
0.0
 40
0.5
 50
180.0
 51
0.0
  0
LINE
  8
0
  6
CONTINUOUS
 62
     1
 10
52.5
 20
154.75
 30
0.0
 11
52.5
 21
156.25
 31
0.0
  0
LINE
  8
0
  6
CONTINUOUS
 62
     1
 10
51.5
 20
156.25
 30
0.0
 11
51.5
 21
154.75
 31
0.0
  0
ARC
  8
0
  6
CONTINUOUS
 62
     1
 10
50.0
 20
156.25
 30
0.0
 40
0.5
 50
0.0
 51
180.0
  0
ARC
  8
0
  6
CONTINUOUS
 62
     1
 10
50.0
 20
154.75
 30
0.0
 40
0.5
 50
180.0
 51
0.0
  0
LINE
  8
0
  6
CONTINUOUS
 62
     1
 10
50.5
 20
154.75
 30
0.0
 11
50.5
 21
156.25
 31
0.0
  0
LINE
  8
0
  6
CONTINUOUS
 62
     1
 10
49.5
 20
156.25
 30
0.0
 11
49.5
 21
154.75
 31
0.0
  0
LINE
  8
0
  6
CONTINUOUS
 62
     1
 10
66.5
 20
138.25
 30
0.0
 11
66.25
 21
138.25
 31
0.0
  0
LINE
  8
0
  6
CONTINUOUS
 62
     1
 10
66.25
 20
138.25
 30
0.0
 11
66.25
 21
135.75
 31
0.0
  0
LINE
  8
0
  6
CONTINUOUS
 62
     1
 10
66.25
 20
135.75
 30
0.0
 11
66.5
 21
135.75
 31
0.0
  0
LINE
  8
0
  6
CONTINUOUS
 62
     1
 10
66.5
 20
151.75
 30
0.0
 11
66.25
 21
151.75
 31
0.0
  0
LINE
  8
0
  6
CONTINUOUS
 62
     1
 10
66.25
 20
151.75
 30
0.0
 11
66.25
 21
154.25
 31
0.0
  0
LINE
  8
0
  6
CONTINUOUS
 62
     1
 10
66.25
 20
154.25
 30
0.0
 11
66.5
 21
154.25
 31
0.0
  0
LINE
  8
0
  6
CONTINUOUS
 62
     1
 10
43.5
 20
138.25
 30
0.0
 11
43.75
 21
138.25
 31
0.0
  0
LINE
  8
0
  6
CONTINUOUS
 62
     1
 10
43.75
 20
138.25
 30
0.0
 11
43.75
 21
135.75
 31
0.0
  0
LINE
  8
0
  6
CONTINUOUS
 62
     1
 10
43.75
 20
135.75
 30
0.0
 11
43.5
 21
135.75
 31
0.0
  0
LINE
  8
0
  6
CONTINUOUS
 62
     1
 10
43.5
 20
151.75
 30
0.0
 11
43.75
 21
151.75
 31
0.0
  0
LINE
  8
0
  6
CONTINUOUS
 62
     1
 10
43.75
 20
151.75
 30
0.0
 11
43.75
 21
154.25
 31
0.0
  0
LINE
  8
0
  6
CONTINUOUS
 62
     1
 10
43.75
 20
154.25
 30
0.0
 11
43.5
 21
154.25
 31
0.0
  0
LINE
  8
0
  6
CONTINUOUS
 62
     1
 10
53.0
 20
129.0
 30
0.0
 11
53.0
 21
131.75
 31
0.0
  0
LINE
  8
0
  6
CONTINUOUS
 62
     1
 10
53.0
 20
131.75
 30
0.0
 11
57.0
 21
131.75
 31
0.0
  0
LINE
  8
0
  6
CONTINUOUS
 62
     1
 10
57.0
 20
131.75
 30
0.0
 11
57.0
 21
126.5
 31
0.0
  0
LINE
  8
0
  6
CONTINUOUS
 62
     1
 10
43.5
 20
128.5
 30
0.0
 11
47.5
 21
128.5
 31
0.0
  0
LINE
  8
0
  6
CONTINUOUS
 62
     1
 10
47.5
 20
128.5
 30
0.0
 11
47.5
 21
126.5
 31
0.0
  0
LINE
  8
0
  6
CONTINUOUS
 62
     1
 10
45.25
 20
128.5
 30
0.0
 11
45.25
 21
128.0
 31
0.0
  0
LINE
  8
0
  6
CONTINUOUS
 62
     1
 10
45.25
 20
128.0
 30
0.0
 11
45.75
 21
128.0
 31
0.0
  0
LINE
  8
0
  6
CONTINUOUS
 62
     1
 10
45.75
 20
128.0
 30
0.0
 11
45.75
 21
128.5
 31
0.0
  0
LINE
  8
0
  6
CONTINUOUS
 62
     1
 10
46.75
 20
128.5
 30
0.0
 11
46.75
 21
127.0
 31
0.0
  0
LINE
  8
0
  6
CONTINUOUS
 62
     1
 10
46.75
 20
127.0
 30
0.0
 11
44.25
 21
127.0
 31
0.0
  0
LINE
  8
0
  6
CONTINUOUS
 62
     1
 10
44.25
 20
127.0
 30
0.0
 11
44.25
 21
128.5
 31
0.0
  0
LINE
  8
0
  6
CONTINUOUS
 62
     1
 10
66.5
 20
128.5
 30
0.0
 11
62.5
 21
128.5
 31
0.0
  0
LINE
  8
0
  6
CONTINUOUS
 62
     1
 10
62.5
 20
128.5
 30
0.0
 11
62.5
 21
126.5
 31
0.0
  0
LINE
  8
0
  6
CONTINUOUS
 62
     1
 10
64.75
 20
128.5
 30
0.0
 11
64.75
 21
128.0
 31
0.0
  0
LINE
  8
0
  6
CONTINUOUS
 62
     1
 10
64.75
 20
128.0
 30
0.0
 11
64.25
 21
128.0
 31
0.0
  0
LINE
  8
0
  6
CONTINUOUS
 62
     1
 10
64.25
 20
128.0
 30
0.0
 11
64.25
 21
128.5
 31
0.0
  0
LINE
  8
0
  6
CONTINUOUS
 62
     1
 10
63.25
 20
128.5
 30
0.0
 11
63.25
 21
127.0
 31
0.0
  0
LINE
  8
0
  6
CONTINUOUS
 62
     1
 10
63.25
 20
127.0
 30
0.0
 11
65.75
 21
127.0
 31
0.0
  0
LINE
  8
0
  6
CONTINUOUS
 62
     1
 10
65.75
 20
127.0
 30
0.0
 11
65.75
 21
128.5
 31
0.0
  0
LINE
  8
0
  6
CONTINUOUS
 62
     1
 10
66.5
 20
161.5
 30
0.0
 11
62.5
 21
161.5
 31
0.0
  0
LINE
  8
0
  6
CONTINUOUS
 62
     1
 10
62.5
 20
161.5
 30
0.0
 11
62.5
 21
163.5
 31
0.0
  0
LINE
  8
0
  6
CONTINUOUS
 62
     1
 10
64.75
 20
161.5
 30
0.0
 11
64.75
 21
162.0
 31
0.0
  0
LINE
  8
0
  6
CONTINUOUS
 62
     1
 10
64.75
 20
162.0
 30
0.0
 11
64.25
 21
162.0
 31
0.0
  0
LINE
  8
0
  6
CONTINUOUS
 62
     1
 10
64.25
 20
162.0
 30
0.0
 11
64.25
 21
161.5
 31
0.0
  0
LINE
  8
0
  6
CONTINUOUS
 62
     1
 10
63.25
 20
161.5
 30
0.0
 11
63.25
 21
163.0
 31
0.0
  0
LINE
  8
0
  6
CONTINUOUS
 62
     1
 10
63.25
 20
163.0
 30
0.0
 11
65.75
 21
163.0
 31
0.0
  0
LINE
  8
0
  6
CONTINUOUS
 62
     1
 10
65.75
 20
163.0
 30
0.0
 11
65.75
 21
161.5
 31
0.0
  0
LINE
  8
0
  6
CONTINUOUS
 62
     1
 10
43.5
 20
161.5
 30
0.0
 11
47.5
 21
161.5
 31
0.0
  0
LINE
  8
0
  6
CONTINUOUS
 62
     1
 10
47.5
 20
161.5
 30
0.0
 11
47.5
 21
163.5
 31
0.0
  0
LINE
  8
0
  6
CONTINUOUS
 62
     1
 10
45.25
 20
161.5
 30
0.0
 11
45.25
 21
162.0
 31
0.0
  0
LINE
  8
0
  6
CONTINUOUS
 62
     1
 10
45.25
 20
162.0
 30
0.0
 11
45.75
 21
162.0
 31
0.0
  0
LINE
  8
0
  6
CONTINUOUS
 62
     1
 10
45.75
 20
162.0
 30
0.0
 11
45.75
 21
161.5
 31
0.0
  0
LINE
  8
0
  6
CONTINUOUS
 62
     1
 10
46.75
 20
161.5
 30
0.0
 11
46.75
 21
163.0
 31
0.0
  0
LINE
  8
0
  6
CONTINUOUS
 62
     1
 10
46.75
 20
163.0
 30
0.0
 11
44.25
 21
163.0
 31
0.0
  0
LINE
  8
0
  6
CONTINUOUS
 62
     1
 10
44.25
 20
163.0
 30
0.0
 11
44.25
 21
161.5
 31
0.0
  0
CIRCLE
  8
0
  6
CONTINUOUS
 62
     1
 10
55.0
 20
145.0
 30
0.0
 40
7.0
  0
CIRCLE
  8
0
  6
CONTINUOUS
 62
     1
 10
55.0
 20
145.0
 30
0.0
 40
6.25
  0
CIRCLE
  8
0
  6
CONTINUOUS
 62
     1
 10
55.0
 20
145.0
 30
0.0
 40
1.875
  0
ARC
  8
0
  6
CONTINUOUS
 62
     1
 10
55.0
 20
143.05
 30
0.0
 40
0.375
 50
180.0
 51
0.0
  0
LINE
  8
0
  6
CONTINUOUS
 62
     1
 10
54.65
 20
143.05
 30
0.0
 11
54.65
 21
143.15
 31
0.0
  0
LINE
  8
0
  6
CONTINUOUS
 62
     1
 10
55.35
 20
143.05
 30
0.0
 11
55.35
 21
143.15
 31
0.0
  0
LINE
  8
0
  6
CONTINUOUS
 62
     1
 10
54.752501001
 20
142.752501001
 30
0.0
 11
54.75
 21
138.755002002
 31
0.0
  0
LINE
  8
0
  6
CONTINUOUS
 62
     1
 10
55.25
 20
138.755002002
 30
0.0
 11
55.25
 21
142.770491503
 31
0.0
  0
LINE
  8
0
  6
CONTINUOUS
 62
     1
 10
48.75
 20
144.75
 30
0.0
 11
53.143844699
 21
144.734834957
 31
0.0
  0
LINE
  8
0
  6
CONTINUOUS
 62
     1
 10
56.856887169
 20
144.740009534
 30
0.0
 11
61.244343664
 21
144.734157555
 31
0.0
  0
LINE
  8
0
  6
CONTINUOUS
 62
     1
 10
56.129176487
 20
143.50314147
 30
0.0
 11
59.227438753
 21
140.396603255
 31
0.0
  0
LINE
  8
0
  6
CONTINUOUS
 62
     1
 10
59.580992144
 20
140.750156646
 30
0.0
 11
56.490432842
 21
143.862355528
 31
0.0
  0
LINE
  8
0
  6
CONTINUOUS
 62
     1
 10
50.757359313
 20
140.403805922
 30
0.0
 11
53.875
 21
143.5
 31
0.0
  0
LINE
  8
0
  6
CONTINUOUS
 62
     1
 10
53.51221571
 20
143.858893998
 30
0.0
 11
50.413618903
 21
140.754106875
 31
0.0
  0
CIRCLE
  8
0
  6
CONTINUOUS
 62
     1
 10
53.413243114
 20
141.159874948
 30
0.0
 40
0.5
  0
CIRCLE
  8
0
  6
CONTINUOUS
 62
     1
 10
51.16469501
 20
143.404301584
 30
0.0
 40
0.5
  0
CIRCLE
  8
0
  6
CONTINUOUS
 62
     1
 10
56.586756886
 20
141.159874948
 30
0.0
 40
0.5
  0
CIRCLE
  8
0
  6
CONTINUOUS
 62
     1
 10
58.83530499
 20
143.404301584
 30
0.0
 40
0.5
  0
LINE
  8
0
  6
CONTINUOUS
 62
     1
 10
48.75
 20
145.25
 30
0.0
 11
53.143844699
 21
145.265165043
 31
0.0
  0
LINE
  8
0
  6
CONTINUOUS
 62
     1
 10
50.757359313
 20
149.596194078
 30
0.0
 11
53.875
 21
146.5
 31
0.0
  0
LINE
  8
0
  6
CONTINUOUS
 62
     1
 10
53.51221571
 20
146.141106002
 30
0.0
 11
50.413618903
 21
149.245893125
 31
0.0
  0
CIRCLE
  8
0
  6
CONTINUOUS
 62
     1
 10
53.413243114
 20
148.840125052
 30
0.0
 40
0.5
  0
CIRCLE
  8
0
  6
CONTINUOUS
 62
     1
 10
51.16469501
 20
146.595698416
 30
0.0
 40
0.5
  0
LINE
  8
0
  6
CONTINUOUS
 62
     1
 10
56.856887169
 20
145.259990466
 30
0.0
 11
61.244343664
 21
145.265842445
 31
0.0
  0
LINE
  8
0
  6
CONTINUOUS
 62
     1
 10
56.129176487
 20
146.49685853
 30
0.0
 11
59.227438753
 21
149.603396745
 31
0.0
  0
LINE
  8
0
  6
CONTINUOUS
 62
     1
 10
59.580992144
 20
149.249843354
 30
0.0
 11
56.490432842
 21
146.137644472
 31
0.0
  0
CIRCLE
  8
0
  6
CONTINUOUS
 62
     1
 10
56.586756886
 20
148.840125052
 30
0.0
 40
0.5
  0
CIRCLE
  8
0
  6
CONTINUOUS
 62
     1
 10
58.83530499
 20
146.595698416
 30
0.0
 40
0.5
  0
LINE
  8
0
  6
CONTINUOUS
 62
     1
 10
54.75
 20
151.244997998
 30
0.0
 11
54.734834957
 21
146.856155301
 31
0.0
  0
LINE
  8
0
  6
CONTINUOUS
 62
     1
 10
55.25
 20
151.244997998
 30
0.0
 11
55.26824283
 21
146.855713012
 31
0.0
  0
LINE
  8
0
  6
LTYPE1
 62
     2
 10
55.0
 20
169.5
 30
0.0
 11
55.0
 21
120.5
 31
0.0
  0
LINE
  8
0
  6
LTYPE1
 62
     2
 10
37.5
 20
145.0
 30
0.0
 11
72.5
 21
145.0
 31
0.0
  0
TEXT
  8
0
  6
CONTINUOUS
 62
     2
 10
53.4
 20
147.1
 30
0.0
 40
1.2
  1
４
 50
0.0
 41
0.9
 51
0.0
  7
KANJI1
  0
TEXT
  8
0
  6
CONTINUOUS
 62
     2
 10
51.9
 20
145.5
 30
0.12
 40
1.2
  1
３
 50
0.0
 41
0.9
 51
0.0
  7
KANJI2
  0
TEXT
  8
0
  6
CONTINUOUS
 62
     2
 10
51.8
 20
143.4
 30
0.0
 40
1.2
  1
２
 50
0.0
 41
0.9
 51
0.0
  7
KANJI1
  0
TEXT
  8
0
  6
CONTINUOUS
 62
     2
 10
53.4
 20
141.8
 30
0.0
 40
1.2
  1
１
 50
0.0
 41
0.9
 51
0.0
  7
KANJI1
  0
TEXT
  8
0
  6
CONTINUOUS
 62
     2
 10
55.6
 20
141.8
 30
0.0
 40
1.2
  1
８
 50
0.0
 41
0.9
 51
0.0
  7
KANJI1
  0
TEXT
  8
0
  6
CONTINUOUS
 62
     2
 10
57.1
 20
143.3
 30
0.0
 40
1.2
  1
７
 50
0.0
 41
0.9
 51
0.0
  7
KANJI1
  0
TEXT
  8
0
  6
CONTINUOUS
 62
     2
 10
57.1
 20
145.5
 30
0.0
 40
1.2
  1
６
 50
0.0
 41
0.9
 51
0.0
  7
KANJI1
  0
TEXT
  8
0
  6
CONTINUOUS
 62
     2
 10
55.5
 20
147.1
 30
0.0
 40
1.2
  1
５
 50
0.0
 41
0.9
 51
0.0
  7
KANJI1
  0
LINE
  8
0
  6
CONTINUOUS
 62
     1
 10
90.0
 20
164.5
 30
0.0
 11
90.0
 21
125.5
 31
0.0
  0
LINE
  8
0
  6
CONTINUOUS
 62
     1
 10
90.3
 20
158.25
 30
0.0
 11
90.3
 21
145.0
 31
0.0
  0
LINE
  8
0
  6
CONTINUOUS
 62
     1
 10
94.0
 20
158.75
 30
0.0
 11
94.0
 21
164.5
 31
0.0
  0
LINE
  8
0
  6
CONTINUOUS
 62
     1
 10
90.0
 20
158.25
 30
0.0
 11
93.5
 21
158.25
 31
0.0
  0
ARC
  8
0
  6
CONTINUOUS
 62
     1
 10
93.5
 20
158.75
 30
0.0
 40
0.5
 50
270.0
 51
0.0
  0
LINE
  8
0
  6
CONTINUOUS
 62
     1
 10
91.5
 20
151.5
 30
0.0
 11
92.7
 21
151.5
 31
0.0
  0
LINE
  8
0
  6
CONTINUOUS
 62
     1
 10
92.7
 20
151.5
 30
0.0
 11
92.7
 21
154.5
 31
0.0
  0
LINE
  8
0
  6
CONTINUOUS
 62
     1
 10
92.7
 20
154.5
 30
0.0
 11
91.5
 21
154.5
 31
0.0
  0
LINE
  8
0
  6
CONTINUOUS
 62
     1
 10
91.5
 20
154.5
 30
0.0
 11
91.5
 21
151.5
 31
0.0
  0
LINE
  8
0
  6
CONTINUOUS
 62
     1
 10
90.3
 20
131.75
 30
0.0
 11
90.3
 21
145.0
 31
0.0
  0
LINE
  8
0
  6
CONTINUOUS
 62
     1
 10
94.0
 20
131.25
 30
0.0
 11
94.0
 21
125.5
 31
0.0
  0
LINE
  8
0
  6
CONTINUOUS
 62
     1
 10
90.0
 20
131.75
 30
0.0
 11
93.5
 21
131.75
 31
0.0
  0
ARC
  8
0
  6
CONTINUOUS
 62
     1
 10
93.5
 20
131.25
 30
0.0
 40
0.5
 50
0.0
 51
90.0
  0
LINE
  8
0
  6
CONTINUOUS
 62
     1
 10
91.5
 20
138.5
 30
0.0
 11
92.7
 21
138.5
 31
0.0
  0
LINE
  8
0
  6
CONTINUOUS
 62
     1
 10
92.7
 20
138.5
 30
0.0
 11
92.7
 21
135.5
 31
0.0
  0
LINE
  8
0
  6
CONTINUOUS
 62
     1
 10
92.7
 20
135.5
 30
0.0
 11
91.5
 21
135.5
 31
0.0
  0
LINE
  8
0
  6
CONTINUOUS
 62
     1
 10
91.5
 20
135.5
 30
0.0
 11
91.5
 21
138.5
 31
0.0
  0
LINE
  8
0
  6
CONTINUOUS
 62
     1
 10
90.0
 20
149.340125052
 30
0.0
 11
87.0
 21
149.340125052
 31
0.0
  0
LINE
  8
0
  6
CONTINUOUS
 62
     1
 10
90.0
 20
148.340125052
 30
0.0
 11
87.0
 21
148.340125052
 31
0.0
  0
ARC
  8
0
  6
CONTINUOUS
 62
     1
 10
87.0
 20
148.840125052
 30
0.0
 40
0.5
 50
90.0
 51
270.0
  0
LINE
  8
0
  6
CONTINUOUS
 62
     1
 10
90.0
 20
147.095698416
 30
0.0
 11
87.0
 21
147.095698416
 31
0.0
  0
LINE
  8
0
  6
CONTINUOUS
 62
     1
 10
90.0
 20
146.095698416
 30
0.0
 11
87.0
 21
146.095698416
 31
0.0
  0
ARC
  8
0
  6
CONTINUOUS
 62
     1
 10
87.0
 20
146.595698416
 30
0.0
 40
0.5
 50
90.0
 51
270.0
  0
LINE
  8
0
  6
CONTINUOUS
 62
     1
 10
85.0
 20
145.0
 30
0.0
 11
85.0
 21
146.395698416
 31
0.0
  0
LINE
  8
0
  6
CONTINUOUS
 62
     1
 10
85.2
 20
146.595698416
 30
0.0
 11
86.5
 21
146.595698416
 31
0.0
  0
ARC
  8
0
  6
CONTINUOUS
 62
     1
 10
85.2
 20
146.395698416
 30
0.0
 40
0.2
 50
90.0
 51
180.0
  0
LINE
  8
0
  6
CONTINUOUS
 62
     1
 10
90.0
 20
140.659874948
 30
0.0
 11
87.0
 21
140.659874948
 31
0.0
  0
LINE
  8
0
  6
CONTINUOUS
 62
     1
 10
90.0
 20
141.659874948
 30
0.0
 11
87.0
 21
141.659874948
 31
0.0
  0
ARC
  8
0
  6
CONTINUOUS
 62
     1
 10
87.0
 20
141.159874948
 30
0.0
 40
0.5
 50
90.0
 51
270.0
  0
LINE
  8
0
  6
CONTINUOUS
 62
     1
 10
90.0
 20
142.904301584
 30
0.0
 11
87.0
 21
142.904301584
 31
0.0
  0
LINE
  8
0
  6
CONTINUOUS
 62
     1
 10
90.0
 20
143.904301584
 30
0.0
 11
87.0
 21
143.904301584
 31
0.0
  0
ARC
  8
0
  6
CONTINUOUS
 62
     1
 10
87.0
 20
143.404301584
 30
0.0
 40
0.5
 50
90.0
 51
270.0
  0
LINE
  8
0
  6
CONTINUOUS
 62
     1
 10
85.0
 20
145.0
 30
0.0
 11
85.0
 21
143.604301584
 31
0.0
  0
LINE
  8
0
  6
CONTINUOUS
 62
     1
 10
85.2
 20
143.404301584
 30
0.0
 11
86.5
 21
143.404301584
 31
0.0
  0
ARC
  8
0
  6
CONTINUOUS
 62
     1
 10
85.2
 20
143.604301584
 30
0.0
 40
0.2
 50
180.0
 51
270.0
  0
POINT
  8
0
  6
CONTINUOUS
 62
     1
 10
86.0
 20
143.404301584
 30
0.0
  0
LINE
  8
0
  6
CONTINUOUS
 62
     1
 10
86.0
 20
143.404301584
 30
0.0
 11
86.02
 21
143.204301584
 31
0.0
  0
LINE
  8
0
  6
CONTINUOUS
 62
     1
 10
86.02
 20
143.204301584
 30
0.0
 11
86.1
 21
143.104301584
 31
0.0
  0
LINE
  8
0
  6
CONTINUOUS
 62
     1
 10
86.1
 20
143.104301584
 30
0.0
 11
86.29
 21
142.974301584
 31
0.0
  0
LINE
  8
0
  6
CONTINUOUS
 62
     1
 10
86.29
 20
142.974301584
 30
0.0
 11
86.7
 21
142.954301584
 31
0.0
  0
LINE
  8
0
  6
CONTINUOUS
 62
     1
 10
86.7
 20
142.954301584
 30
0.0
 11
86.93
 21
142.954301584
 31
0.0
  0
LINE
  8
0
  6
CONTINUOUS
 62
     1
 10
90.0
 20
164.5
 30
0.0
 11
140.0
 21
164.5
 31
0.0
  0
LINE
  8
0
  6
CONTINUOUS
 62
     1
 10
90.0
 20
125.5
 30
0.0
 11
140.0
 21
125.5
 31
0.0
  0
LINE
  8
0
  6
CONTINUOUS
 62
     1
 10
140.0
 20
125.5
 30
0.0
 11
140.0
 21
164.5
 31
0.0
  0
LINE
  8
0
  6
LTYPE1
 62
     2
 10
80.0
 20
145.0
 30
0.0
 11
145.0
 21
145.0
 31
0.0
  0
LINE
  8
0
  6
CONTINUOUS
 62
     2
 10
90.0
 20
165.5
 30
0.0
 11
90.0
 21
176.0
 31
0.0
  0
LINE
  8
0
  6
CONTINUOUS
 62
     1
 10
167.5
 20
125.5
 30
0.0
 11
192.5
 21
125.5
 31
0.0
  0
LINE
  8
0
  6
CONTINUOUS
 62
     1
 10
192.5
 20
125.5
 30
0.0
 11
192.5
 21
164.5
 31
0.0
  0
LINE
  8
0
  6
CONTINUOUS
 62
     1
 10
192.5
 20
164.5
 30
0.0
 11
167.5
 21
164.5
 31
0.0
  0
LINE
  8
0
  6
CONTINUOUS
 62
     1
 10
167.5
 20
164.5
 30
0.0
 11
167.5
 21
125.5
 31
0.0
  0
LINE
  8
0
  6
CONTINUOUS
 62
     1
 10
169.625
 20
127.75
 30
0.0
 11
190.375
 21
127.75
 31
0.0
  0
LINE
  8
0
  6
CONTINUOUS
 62
     1
 10
190.375
 20
127.75
 30
0.0
 11
190.375
 21
162.25
 31
0.0
  0
LINE
  8
0
  6
CONTINUOUS
 62
     1
 10
190.375
 20
162.25
 30
0.0
 11
169.625
 21
162.25
 31
0.0
  0
LINE
  8
0
  6
CONTINUOUS
 62
     1
 10
169.625
 20
162.25
 30
0.0
 11
169.625
 21
127.75
 31
0.0
  0
LINE
  8
0
  6
CONTINUOUS
 62
     1
 10
168.25
 20
126.25
 30
0.0
 11
191.75
 21
126.25
 31
0.0
  0
LINE
  8
0
  6
CONTINUOUS
 62
     1
 10
191.75
 20
126.25
 30
0.0
 11
191.75
 21
163.75
 31
0.0
  0
LINE
  8
0
  6
CONTINUOUS
 62
     1
 10
191.75
 20
163.75
 30
0.0
 11
168.25
 21
163.75
 31
0.0
  0
LINE
  8
0
  6
CONTINUOUS
 62
     1
 10
168.25
 20
163.75
 30
0.0
 11
168.25
 21
126.25
 31
0.0
  0
LINE
  8
0
  6
CONTINUOUS
 62
     1
 10
170.375
 20
161.5
 30
0.0
 11
170.375
 21
128.5
 31
0.0
  0
LINE
  8
0
  6
CONTINUOUS
 62
     1
 10
170.375
 20
128.5
 30
0.0
 11
189.625
 21
128.5
 31
0.0
  0
LINE
  8
0
  6
CONTINUOUS
 62
     1
 10
189.625
 20
128.5
 30
0.0
 11
189.625
 21
161.5
 31
0.0
  0
LINE
  8
0
  6
CONTINUOUS
 62
     1
 10
189.625
 20
161.5
 30
0.0
 11
170.375
 21
161.5
 31
0.0
  0
LINE
  8
0
  6
LTYPE1
 62
     2
 10
180.0
 20
169.5
 30
0.0
 11
180.0
 21
120.5
 31
0.0
  0
LINE
  8
0
  6
LTYPE1
 62
     2
 10
197.5
 20
145.0
 30
0.0
 11
162.5
 21
145.0
 31
0.0
  0
LINE
  8
0
  6
CONTINUOUS
 62
     2
 10
167.5
 20
179.5
 30
0.0
 11
169.914814566
 21
178.852952387
 31
0.0
  0
LINE
  8
0
  6
CONTINUOUS
 62
     2
 10
167.5
 20
179.5
 30
0.0
 11
169.914814566
 21
180.147047613
 31
0.0
  0
LINE
  8
0
  6
CONTINUOUS
 62
     2
 10
167.5
 20
179.5
 30
0.0
 11
192.5
 21
179.5
 31
0.0
  0
LINE
  8
0
  6
CONTINUOUS
 62
     2
 10
192.5
 20
179.5
 30
0.0
 11
190.085185434
 21
180.147047613
 31
0.0
  0
LINE
  8
0
  6
CONTINUOUS
 62
     2
 10
192.5
 20
179.5
 30
0.0
 11
190.085185434
 21
178.852952387
 31
0.0
  0
TEXT
  8
0
  6
CONTINUOUS
 62
     2
 10
177.75
 20
180.5
 30
0.5
 40
3.0
  1
５０
 50
0.0
 41
0.666666667
 51
0.0
  7
KANJI3
  0
LINE
  8
0
  6
CONTINUOUS
 62
     2
 10
167.5
 20
165.0
 30
0.0
 11
167.5
 21
180.5
 31
0.0
  0
LINE
  8
0
  6
CONTINUOUS
 62
     2
 10
192.5
 20
165.0
 30
0.0
 11
192.5
 21
180.5
 31
0.0
  0
LINE
  8
0
  6
CONTINUOUS
 62
     1
 10
147.0
 20
33.0
 30
0.0
 11
145.0
 21
33.0
 31
0.0
  0
LINE
  8
0
  6
CONTINUOUS
 62
     1
 10
150.0
 20
74.0
 30
0.0
 11
156.5
 21
74.0
 31
0.0
  0
LINE
  8
0
  6
CONTINUOUS
 62
     1
 10
156.5
 20
74.0
 30
0.0
 11
157.25
 21
73.25
 31
0.0
  0
LINE
  8
0
  6
CONTINUOUS
 62
     1
 10
157.25
 20
73.25
 30
0.0
 11
157.25
 21
36.75
 31
0.0
  0
LINE
  8
0
  6
CONTINUOUS
 62
     1
 10
157.25
 20
36.75
 30
0.0
 11
156.5
 21
36.0
 31
0.0
  0
LINE
  8
0
  6
CONTINUOUS
 62
     1
 10
156.5
 20
36.0
 30
0.0
 11
150.0
 21
36.0
 31
0.0
  0
LINE
  8
0
  6
CONTINUOUS
 62
     1
 10
150.0
 20
36.0
 30
0.0
 11
150.0
 21
74.0
 31
0.0
  0
LINE
  8
0
  6
CONTINUOUS
 62
     1
 10
150.0
 20
74.0
 30
0.0
 11
148.0
 21
74.0
 31
0.0
  0
LINE
  8
0
  6
CONTINUOUS
 62
     1
 10
148.0
 20
74.0
 30
0.0
 11
148.0
 21
63.75
 31
0.0
  0
LINE
  8
0
  6
CONTINUOUS
 62
     1
 10
148.0
 20
63.75
 30
0.0
 11
150.0
 21
63.75
 31
0.0
  0
LINE
  8
0
  6
CONTINUOUS
 62
     1
 10
150.0
 20
36.0
 30
0.0
 11
148.0
 21
36.0
 31
0.0
  0
LINE
  8
0
  6
CONTINUOUS
 62
     1
 10
148.0
 20
36.0
 30
0.0
 11
148.0
 21
46.25
 31
0.0
  0
LINE
  8
0
  6
CONTINUOUS
 62
     1
 10
148.0
 20
46.25
 30
0.0
 11
150.0
 21
46.25
 31
0.0
  0
LINE
  8
0
  6
CONTINUOUS
 62
     1
 10
157.25
 20
52.875
 30
0.0
 11
155.25
 21
52.875
 31
0.0
  0
LINE
  8
0
  6
CONTINUOUS
 62
     1
 10
155.25
 20
52.875
 30
0.0
 11
155.25
 21
57.125
 31
0.0
  0
LINE
  8
0
  6
CONTINUOUS
 62
     1
 10
155.25
 20
57.125
 30
0.0
 11
157.25
 21
57.125
 31
0.0
  0
LINE
  8
0
  6
CONTINUOUS
 62
     1
 10
157.25
 20
38.75
 30
0.0
 11
150.0
 21
38.75
 31
0.0
  0
LINE
  8
0
  6
CONTINUOUS
 62
     1
 10
150.0
 20
37.0
 30
0.0
 11
157.25
 21
37.0
 31
0.0
  0
LINE
  8
0
  6
CONTINUOUS
 62
     1
 10
157.25
 20
73.0
 30
0.0
 11
150.0
 21
73.0
 31
0.0
  0
LINE
  8
0
  6
CONTINUOUS
 62
     1
 10
150.0
 20
71.25
 30
0.0
 11
157.25
 21
71.25
 31
0.0
  0
LINE
  8
0
  6
CONTINUOUS
 62
     1
 10
150.0
 20
52.5
 30
0.0
 11
148.0
 21
52.5
 31
0.0
  0
LINE
  8
0
  6
CONTINUOUS
 62
     1
 10
148.0
 20
52.5
 30
0.0
 11
148.0
 21
50.5
 31
0.0
  0
LINE
  8
0
  6
CONTINUOUS
 62
     1
 10
148.0
 20
50.5
 30
0.0
 11
150.0
 21
50.5
 31
0.0
  0
LINE
  8
0
  6
CONTINUOUS
 62
     1
 10
150.0
 20
57.5
 30
0.0
 11
148.0
 21
57.5
 31
0.0
  0
LINE
  8
0
  6
CONTINUOUS
 62
     1
 10
148.0
 20
57.5
 30
0.0
 11
148.0
 21
59.5
 31
0.0
  0
LINE
  8
0
  6
CONTINUOUS
 62
     1
 10
148.0
 20
59.5
 30
0.0
 11
150.0
 21
59.5
 31
0.0
  0
LINE
  8
0
  6
CONTINUOUS
 62
     1
 10
157.25
 20
46.25
 30
0.0
 11
158.0
 21
46.25
 31
0.0
  0
LINE
  8
0
  6
CONTINUOUS
 62
     1
 10
158.0
 20
46.25
 30
0.0
 11
158.0
 21
44.0
 31
0.0
  0
LINE
  8
0
  6
CONTINUOUS
 62
     1
 10
158.0
 20
44.0
 30
0.0
 11
157.25
 21
44.0
 31
0.0
  0
LINE
  8
0
  6
CONTINUOUS
 62
     1
 10
157.25
 20
63.75
 30
0.0
 11
158.0
 21
63.75
 31
0.0
  0
LINE
  8
0
  6
CONTINUOUS
 62
     1
 10
158.0
 20
63.75
 30
0.0
 11
158.0
 21
66.0
 31
0.0
  0
LINE
  8
0
  6
CONTINUOUS
 62
     1
 10
158.0
 20
66.0
 30
0.0
 11
157.25
 21
66.0
 31
0.0
  0
LINE
  8
0
  6
CONTINUOUS
 62
     1
 10
149.1
 20
46.25
 30
0.0
 11
149.1
 21
47.25
 31
0.0
  0
LINE
  8
0
  6
CONTINUOUS
 62
     1
 10
149.1
 20
47.25
 30
0.0
 11
148.6
 21
47.25
 31
0.0
  0
LINE
  8
0
  6
CONTINUOUS
 62
     1
 10
148.6
 20
47.25
 30
0.0
 11
148.0
 21
46.25
 31
0.0
  0
LINE
  8
0
  6
CONTINUOUS
 62
     1
 10
150.0
 20
36.0
 30
0.0
 11
150.0
 21
33.0
 31
0.0
  0
LINE
  8
0
  6
CONTINUOUS
 62
     1
 10
150.0
 20
33.0
 30
0.0
 11
148.0
 21
33.0
 31
0.0
  0
LINE
  8
0
  6
CONTINUOUS
 62
     1
 10
148.0
 20
33.0
 30
0.0
 11
148.0
 21
36.0
 31
0.0
  0
LINE
  8
0
  6
CONTINUOUS
 62
     1
 10
150.0
 20
35.0
 30
0.0
 11
148.0
 21
35.0
 31
0.0
  0
LINE
  8
0
  6
CONTINUOUS
 62
     1
 10
150.0
 20
34.0
 30
0.0
 11
148.0
 21
34.0
 31
0.0
  0
LINE
  8
0
  6
CONTINUOUS
 62
     1
 10
158.249259711
 20
44.5525
 30
0.0
 11
157.999259711
 21
44.7025
 31
0.0
  0
LINE
  8
0
  6
CONTINUOUS
 62
     1
 10
158.249259711
 20
65.4475
 30
0.0
 11
157.999259711
 21
65.2975
 31
0.0
  0
LINE
  8
0
  6
CONTINUOUS
 62
     1
 10
148.0
 20
63.75
 30
0.0
 11
148.0
 21
63.35
 31
0.0
  0
LINE
  8
0
  6
CONTINUOUS
 62
     1
 10
148.0
 20
63.35
 30
0.0
 11
148.7
 21
61.55
 31
0.0
  0
LINE
  8
0
  6
CONTINUOUS
 62
     1
 10
148.7
 20
61.55
 30
0.0
 11
149.1
 21
61.55
 31
0.0
  0
LINE
  8
0
  6
CONTINUOUS
 62
     1
 10
149.1
 20
61.55
 30
0.0
 11
149.1
 21
63.75
 31
0.0
  0
LINE
  8
0
  6
CONTINUOUS
 62
     1
 10
158.0
 20
74.5
 30
0.0
 11
158.0
 21
35.5
 31
0.0
  0
LINE
  8
0
  6
CONTINUOUS
 62
     1
 10
158.3
 20
68.25
 30
0.0
 11
158.3
 21
55.0
 31
0.0
  0
LINE
  8
0
  6
CONTINUOUS
 62
     1
 10
162.0
 20
68.75
 30
0.0
 11
162.0
 21
74.5
 31
0.0
  0
LINE
  8
0
  6
CONTINUOUS
 62
     1
 10
158.0
 20
68.25
 30
0.0
 11
161.5
 21
68.25
 31
0.0
  0
ARC
  8
0
  6
CONTINUOUS
 62
     1
 10
161.5
 20
68.75
 30
0.0
 40
0.5
 50
270.0
 51
0.0
  0
LINE
  8
0
  6
CONTINUOUS
 62
     1
 10
159.5
 20
61.5
 30
0.0
 11
160.7
 21
61.5
 31
0.0
  0
LINE
  8
0
  6
CONTINUOUS
 62
     1
 10
160.7
 20
61.5
 30
0.0
 11
160.7
 21
64.5
 31
0.0
  0
LINE
  8
0
  6
CONTINUOUS
 62
     1
 10
160.7
 20
64.5
 30
0.0
 11
159.5
 21
64.5
 31
0.0
  0
LINE
  8
0
  6
CONTINUOUS
 62
     1
 10
159.5
 20
64.5
 30
0.0
 11
159.5
 21
61.5
 31
0.0
  0
LINE
  8
0
  6
CONTINUOUS
 62
     1
 10
158.3
 20
41.75
 30
0.0
 11
158.3
 21
55.0
 31
0.0
  0
LINE
  8
0
  6
CONTINUOUS
 62
     1
 10
162.0
 20
41.25
 30
0.0
 11
162.0
 21
35.5
 31
0.0
  0
LINE
  8
0
  6
CONTINUOUS
 62
     1
 10
158.0
 20
41.75
 30
0.0
 11
161.5
 21
41.75
 31
0.0
  0
ARC
  8
0
  6
CONTINUOUS
 62
     1
 10
161.5
 20
41.25
 30
0.0
 40
0.5
 50
0.0
 51
90.0
  0
LINE
  8
0
  6
CONTINUOUS
 62
     1
 10
159.5
 20
48.5
 30
0.0
 11
160.7
 21
48.5
 31
0.0
  0
LINE
  8
0
  6
CONTINUOUS
 62
     1
 10
160.7
 20
48.5
 30
0.0
 11
160.7
 21
45.5
 31
0.0
  0
LINE
  8
0
  6
CONTINUOUS
 62
     1
 10
160.7
 20
45.5
 30
0.0
 11
159.5
 21
45.5
 31
0.0
  0
LINE
  8
0
  6
CONTINUOUS
 62
     1
 10
159.5
 20
45.5
 30
0.0
 11
159.5
 21
48.5
 31
0.0
  0
LINE
  8
0
  6
CONTINUOUS
 62
     1
 10
157.25
 20
62.2
 30
0.0
 11
158.0
 21
62.2
 31
0.0
  0
LINE
  8
0
  6
CONTINUOUS
 62
     1
 10
157.25
 20
47.8
 30
0.0
 11
158.0
 21
47.8
 31
0.0
  0
ARC
  8
0
  6
CONTINUOUS
 62
     1
 10
163.249744349
 20
35.10653992
 30
0.0
 40
0.405
 50
270.0
 51
90.0
  0
LINE
  8
0
  6
CONTINUOUS
 62
     1
 10
163.249744349
 20
35.51153992
 30
0.0
 11
162.375225296
 21
35.526251352
 31
0.0
  0
LINE
  8
0
  6
CONTINUOUS
 62
     1
 10
163.249744349
 20
34.70153992
 30
0.0
 11
157.375225296
 21
34.626251352
 31
0.0
  0
LINE
  8
0
  6
CONTINUOUS
 62
     1
 10
157.375225296
 20
34.626251352
 30
0.0
 11
156.275225296
 21
35.926251352
 31
0.0
  0
ARC
  8
0
  6
CONTINUOUS
 62
     1
 10
163.249744349
 20
74.89346008
 30
0.0
 40
0.405
 50
270.0
 51
90.0
  0
LINE
  8
0
  6
CONTINUOUS
 62
     1
 10
163.249744349
 20
75.29846008
 30
0.0
 11
157.375225296
 21
75.373748648
 31
0.0
  0
LINE
  8
0
  6
CONTINUOUS
 62
     1
 10
157.375225296
 20
75.373748648
 30
0.0
 11
156.275225296
 21
74.073748648
 31
0.0
  0
LINE
  8
0
  6
CONTINUOUS
 62
     1
 10
148.0
 20
53.0
 30
0.0
 11
143.0
 21
57.0
 31
0.0
  0
LINE
  8
0
  6
CONTINUOUS
 62
     1
 10
148.0
 20
55.0
 30
0.0
 11
143.0
 21
59.0
 31
0.0
  0
LINE
  8
0
  6
CONTINUOUS
 62
     1
 10
148.0
 20
57.0
 30
0.0
 11
143.0
 21
61.0
 31
0.0
  0
LINE
  8
0
  6
CONTINUOUS
 62
     1
 10
148.0
 20
59.0
 30
0.0
 11
143.0
 21
63.0
 31
0.0
  0
LINE
  8
0
  6
CONTINUOUS
 62
     1
 10
148.0
 20
61.0
 30
0.0
 11
143.0
 21
65.0
 31
0.0
  0
LINE
  8
0
  6
CONTINUOUS
 62
     1
 10
148.0
 20
63.0
 30
0.0
 11
143.0
 21
67.0
 31
0.0
  0
LINE
  8
0
  6
CONTINUOUS
 62
     1
 10
148.0
 20
65.0
 30
0.0
 11
143.0
 21
69.0
 31
0.0
  0
LINE
  8
0
  6
CONTINUOUS
 62
     1
 10
148.0
 20
67.0
 30
0.0
 11
143.0
 21
71.0
 31
0.0
  0
LINE
  8
0
  6
CONTINUOUS
 62
     1
 10
148.0
 20
69.0
 30
0.0
 11
143.0
 21
73.0
 31
0.0
  0
LINE
  8
0
  6
CONTINUOUS
 62
     1
 10
148.0
 20
71.0
 30
0.0
 11
143.0
 21
75.0
 31
0.0
  0
LINE
  8
0
  6
CONTINUOUS
 62
     1
 10
148.0
 20
73.0
 30
0.0
 11
143.0
 21
77.0
 31
0.0
  0
LINE
  8
0
  6
CONTINUOUS
 62
     1
 10
148.0
 20
75.0
 30
0.0
 11
143.0
 21
79.0
 31
0.0
  0
LINE
  8
0
  6
CONTINUOUS
 62
     1
 10
148.0
 20
77.0
 30
0.0
 11
143.0
 21
81.0
 31
0.0
  0
LINE
  8
0
  6
CONTINUOUS
 62
     1
 10
148.0
 20
79.0
 30
0.0
 11
143.0
 21
83.0
 31
0.0
  0
LINE
  8
0
  6
CONTINUOUS
 62
     1
 10
148.0
 20
81.0
 30
0.0
 11
143.0
 21
85.0
 31
0.0
  0
LINE
  8
0
  6
CONTINUOUS
 62
     1
 10
148.0
 20
83.0
 30
0.0
 11
143.0
 21
87.0
 31
0.0
  0
LINE
  8
0
  6
CONTINUOUS
 62
     1
 10
148.0
 20
51.0
 30
0.0
 11
143.0
 21
55.0
 31
0.0
  0
LINE
  8
0
  6
CONTINUOUS
 62
     1
 10
148.0
 20
49.0
 30
0.0
 11
143.0
 21
53.0
 31
0.0
  0
LINE
  8
0
  6
CONTINUOUS
 62
     1
 10
148.0
 20
47.0
 30
0.0
 11
143.0
 21
51.0
 31
0.0
  0
LINE
  8
0
  6
CONTINUOUS
 62
     1
 10
148.0
 20
45.0
 30
0.0
 11
143.0
 21
49.0
 31
0.0
  0
LINE
  8
0
  6
CONTINUOUS
 62
     1
 10
148.0
 20
43.0
 30
0.0
 11
143.0
 21
47.0
 31
0.0
  0
LINE
  8
0
  6
CONTINUOUS
 62
     1
 10
148.0
 20
41.0
 30
0.0
 11
143.0
 21
45.0
 31
0.0
  0
LINE
  8
0
  6
CONTINUOUS
 62
     1
 10
148.0
 20
39.0
 30
0.0
 11
143.0
 21
43.0
 31
0.0
  0
LINE
  8
0
  6
CONTINUOUS
 62
     1
 10
148.0
 20
37.0
 30
0.0
 11
143.0
 21
41.0
 31
0.0
  0
LINE
  8
0
  6
CONTINUOUS
 62
     1
 10
148.0
 20
35.0
 30
0.0
 11
143.0
 21
39.0
 31
0.0
  0
LINE
  8
0
  6
CONTINUOUS
 62
     1
 10
148.0
 20
33.0
 30
0.0
 11
143.0
 21
37.0
 31
0.0
  0
LINE
  8
0
  6
CONTINUOUS
 62
     1
 10
148.0
 20
31.0
 30
0.0
 11
143.0
 21
35.0
 31
0.0
  0
LINE
  8
0
  6
CONTINUOUS
 62
     1
 10
148.0
 20
29.0
 30
0.0
 11
143.0
 21
33.0
 31
0.0
  0
LINE
  8
0
  6
CONTINUOUS
 62
     1
 10
148.0
 20
85.0
 30
0.0
 11
143.0
 21
89.0
 31
0.0
  0
LINE
  8
0
  6
CONTINUOUS
 62
     1
 10
148.0
 20
87.0
 30
0.0
 11
145.5
 21
89.0
 31
0.0
  0
LINE
  8
0
  6
CONTINUOUS
 62
     1
 10
148.0
 20
89.0
 30
0.0
 11
148.0
 21
28.0
 31
0.0
  0
LINE
  8
0
  6
CONTINUOUS
 62
     1
 10
146.75
 20
28.0
 30
0.0
 11
143.0
 21
31.0
 31
0.0
  0
LINE
  8
0
  6
CONTINUOUS
 62
     1
 10
144.25
 20
28.0
 30
0.0
 11
143.0
 21
29.0
 31
0.0
  0
LINE
  8
0
  6
CONTINUOUS
 62
     1
 10
158.0
 20
74.5
 30
0.0
 11
208.0
 21
74.5
 31
0.0
  0
LINE
  8
0
  6
CONTINUOUS
 62
     1
 10
158.0
 20
35.5
 30
0.0
 11
208.0
 21
35.5
 31
0.0
  0
LINE
  8
0
  6
CONTINUOUS
 62
     1
 10
208.0
 20
35.5
 30
0.0
 11
208.0
 21
74.5
 31
0.0
  0
LINE
  8
0
  6
LTYPE1
 62
     2
 10
213.0
 20
55.0
 30
0.0
 11
138.0
 21
55.0
 31
0.0
  0
LINE
  8
0
  6
CONTINUOUS
 62
     2
 10
208.0
 20
75.0
 30
0.0
 11
208.0
 21
85.0
 31
0.0
  0
LINE
  8
0
  6
CONTINUOUS
 62
     1
 10
114.75
 20
74.0
 30
0.0
 11
108.25
 21
74.0
 31
0.0
  0
LINE
  8
0
  6
CONTINUOUS
 62
     1
 10
108.25
 20
74.0
 30
0.0
 11
107.5
 21
73.25
 31
0.0
  0
LINE
  8
0
  6
CONTINUOUS
 62
     1
 10
107.5
 20
73.25
 30
0.0
 11
107.5
 21
36.75
 31
0.0
  0
LINE
  8
0
  6
CONTINUOUS
 62
     1
 10
107.5
 20
36.75
 30
0.0
 11
108.25
 21
36.0
 31
0.0
  0
LINE
  8
0
  6
CONTINUOUS
 62
     1
 10
108.25
 20
36.0
 30
0.0
 11
114.75
 21
36.0
 31
0.0
  0
LINE
  8
0
  6
CONTINUOUS
 62
     1
 10
114.75
 20
36.0
 30
0.0
 11
114.75
 21
74.0
 31
0.0
  0
LINE
  8
0
  6
CONTINUOUS
 62
     1
 10
114.75
 20
74.0
 30
0.0
 11
116.75
 21
74.0
 31
0.0
  0
LINE
  8
0
  6
CONTINUOUS
 62
     1
 10
116.75
 20
74.0
 30
0.0
 11
116.75
 21
63.75
 31
0.0
  0
LINE
  8
0
  6
CONTINUOUS
 62
     1
 10
116.75
 20
63.75
 30
0.0
 11
114.75
 21
63.75
 31
0.0
  0
LINE
  8
0
  6
CONTINUOUS
 62
     1
 10
114.75
 20
36.0
 30
0.0
 11
116.75
 21
36.0
 31
0.0
  0
LINE
  8
0
  6
CONTINUOUS
 62
     1
 10
116.75
 20
36.0
 30
0.0
 11
116.75
 21
46.25
 31
0.0
  0
LINE
  8
0
  6
CONTINUOUS
 62
     1
 10
116.75
 20
46.25
 30
0.0
 11
114.75
 21
46.25
 31
0.0
  0
LINE
  8
0
  6
CONTINUOUS
 62
     1
 10
107.5
 20
52.875
 30
0.0
 11
109.5
 21
52.875
 31
0.0
  0
LINE
  8
0
  6
CONTINUOUS
 62
     1
 10
109.5
 20
52.875
 30
0.0
 11
109.5
 21
57.125
 31
0.0
  0
LINE
  8
0
  6
CONTINUOUS
 62
     1
 10
109.5
 20
57.125
 30
0.0
 11
107.5
 21
57.125
 31
0.0
  0
LINE
  8
0
  6
CONTINUOUS
 62
     1
 10
107.5
 20
38.75
 30
0.0
 11
114.75
 21
38.75
 31
0.0
  0
LINE
  8
0
  6
CONTINUOUS
 62
     1
 10
114.75
 20
37.0
 30
0.0
 11
107.5
 21
37.0
 31
0.0
  0
LINE
  8
0
  6
CONTINUOUS
 62
     1
 10
107.5
 20
73.0
 30
0.0
 11
114.75
 21
73.0
 31
0.0
  0
LINE
  8
0
  6
CONTINUOUS
 62
     1
 10
114.75
 20
71.25
 30
0.0
 11
107.5
 21
71.25
 31
0.0
  0
LINE
  8
0
  6
CONTINUOUS
 62
     1
 10
114.75
 20
52.5
 30
0.0
 11
116.75
 21
52.5
 31
0.0
  0
LINE
  8
0
  6
CONTINUOUS
 62
     1
 10
116.75
 20
52.5
 30
0.0
 11
116.75
 21
50.5
 31
0.0
  0
LINE
  8
0
  6
CONTINUOUS
 62
     1
 10
116.75
 20
50.5
 30
0.0
 11
114.75
 21
50.5
 31
0.0
  0
LINE
  8
0
  6
CONTINUOUS
 62
     1
 10
114.75
 20
57.5
 30
0.0
 11
116.75
 21
57.5
 31
0.0
  0
LINE
  8
0
  6
CONTINUOUS
 62
     1
 10
116.75
 20
57.5
 30
0.0
 11
116.75
 21
59.5
 31
0.0
  0
LINE
  8
0
  6
CONTINUOUS
 62
     1
 10
116.75
 20
59.5
 30
0.0
 11
114.75
 21
59.5
 31
0.0
  0
LINE
  8
0
  6
CONTINUOUS
 62
     1
 10
107.5
 20
62.2
 30
0.0
 11
105.0
 21
62.2
 31
0.0
  0
LINE
  8
0
  6
CONTINUOUS
 62
     1
 10
105.0
 20
62.2
 30
0.0
 11
105.0
 21
47.8
 31
0.0
  0
LINE
  8
0
  6
CONTINUOUS
 62
     1
 10
105.0
 20
47.8
 30
0.0
 11
107.5
 21
47.8
 31
0.0
  0
LINE
  8
0
  6
CONTINUOUS
 62
     1
 10
107.5
 20
46.25
 30
0.0
 11
106.75
 21
46.25
 31
0.0
  0
LINE
  8
0
  6
CONTINUOUS
 62
     1
 10
106.75
 20
46.25
 30
0.0
 11
106.75
 21
44.0
 31
0.0
  0
LINE
  8
0
  6
CONTINUOUS
 62
     1
 10
106.75
 20
44.0
 30
0.0
 11
107.5
 21
44.0
 31
0.0
  0
LINE
  8
0
  6
CONTINUOUS
 62
     1
 10
107.5
 20
63.75
 30
0.0
 11
106.75
 21
63.75
 31
0.0
  0
LINE
  8
0
  6
CONTINUOUS
 62
     1
 10
106.75
 20
63.75
 30
0.0
 11
106.75
 21
66.0
 31
0.0
  0
LINE
  8
0
  6
CONTINUOUS
 62
     1
 10
106.75
 20
66.0
 30
0.0
 11
107.5
 21
66.0
 31
0.0
  0
LINE
  8
0
  6
CONTINUOUS
 62
     1
 10
115.65
 20
46.25
 30
0.0
 11
115.65
 21
47.25
 31
0.0
  0
LINE
  8
0
  6
CONTINUOUS
 62
     1
 10
115.65
 20
47.25
 30
0.0
 11
116.15
 21
47.25
 31
0.0
  0
LINE
  8
0
  6
CONTINUOUS
 62
     1
 10
116.15
 20
47.25
 30
0.0
 11
116.75
 21
46.25
 31
0.0
  0
LINE
  8
0
  6
CONTINUOUS
 62
     1
 10
114.75
 20
36.0
 30
0.0
 11
114.75
 21
33.0
 31
0.0
  0
LINE
  8
0
  6
CONTINUOUS
 62
     1
 10
114.75
 20
33.0
 30
0.0
 11
116.75
 21
33.0
 31
0.0
  0
LINE
  8
0
  6
CONTINUOUS
 62
     1
 10
116.75
 20
33.0
 30
0.0
 11
116.75
 21
36.0
 31
0.0
  0
LINE
  8
0
  6
CONTINUOUS
 62
     1
 10
114.75
 20
35.0
 30
0.0
 11
116.75
 21
35.0
 31
0.0
  0
LINE
  8
0
  6
CONTINUOUS
 62
     1
 10
114.75
 20
34.0
 30
0.0
 11
116.75
 21
34.0
 31
0.0
  0
ARC
  8
0
  6
CONTINUOUS
 62
     1
 10
105.7
 20
45.1
 30
0.0
 40
0.405
 50
30.0
 51
210.0
  0
LINE
  8
0
  6
CONTINUOUS
 62
     1
 10
107.5
 20
41.25
 30
0.0
 11
105.349259711
 21
44.8975
 31
0.0
  0
LINE
  8
0
  6
CONTINUOUS
 62
     1
 10
106.050740289
 20
45.3025
 30
0.0
 11
106.500740289
 21
44.5525
 31
0.0
  0
LINE
  8
0
  6
CONTINUOUS
 62
     1
 10
106.500740289
 20
44.5525
 30
0.0
 11
106.750740289
 21
44.7025
 31
0.0
  0
ARC
  8
0
  6
CONTINUOUS
 62
     1
 10
105.7
 20
64.9
 30
0.0
 40
0.405
 50
150.0
 51
330.0
  0
LINE
  8
0
  6
CONTINUOUS
 62
     1
 10
107.5
 20
68.75
 30
0.0
 11
105.349259711
 21
65.1025
 31
0.0
  0
LINE
  8
0
  6
CONTINUOUS
 62
     1
 10
106.050740289
 20
64.6975
 30
0.0
 11
106.500740289
 21
65.4475
 31
0.0
  0
LINE
  8
0
  6
CONTINUOUS
 62
     1
 10
106.500740289
 20
65.4475
 30
0.0
 11
106.750740289
 21
65.2975
 31
0.0
  0
LINE
  8
0
  6
CONTINUOUS
 62
     1
 10
116.75
 20
63.75
 30
0.0
 11
116.75
 21
63.35
 31
0.0
  0
LINE
  8
0
  6
CONTINUOUS
 62
     1
 10
116.75
 20
63.35
 30
0.0
 11
116.05
 21
61.55
 31
0.0
  0
LINE
  8
0
  6
CONTINUOUS
 62
     1
 10
116.05
 20
61.55
 30
0.0
 11
115.65
 21
61.55
 31
0.0
  0
LINE
  8
0
  6
CONTINUOUS
 62
     1
 10
115.65
 20
61.55
 30
0.0
 11
115.65
 21
63.75
 31
0.0
  0
LINE
  8
0
  6
LTYPE1
 62
     2
 10
100.0
 20
55.0
 30
0.0
 11
121.75
 21
55.0
 31
0.0
  0
LINE
  8
0
  6
CONTINUOUS
 62
     2
 10
105.0
 20
62.7
 30
0.0
 11
105.0
 21
90.0
 31
0.0
  0
LINE
  8
0
  6
CONTINUOUS
 62
     2
 10
116.75
 20
74.5
 30
0.0
 11
116.75
 21
90.0
 31
0.0
  0
LINE
  8
0
  6
CONTINUOUS
 62
     2
 10
107.5
 20
73.75
 30
0.0
 11
107.5
 21
85.0
 31
0.0
  0
LINE
  8
0
  6
CONTINUOUS
 62
     2
 10
114.75
 20
74.5
 30
0.0
 11
114.75
 21
85.0
 31
0.0
  0
LINE
  8
0
  6
CONTINUOUS
 62
     2
 10
117.5
 20
46.25
 30
0.0
 11
132.0
 21
46.25
 31
0.0
  0
LINE
  8
0
  6
CONTINUOUS
 62
     2
 10
117.5
 20
63.75
 30
0.0
 11
132.0
 21
63.75
 31
0.0
  0
LINE
  8
0
  6
CONTINUOUS
 62
     1
 10
48.8
 20
74.0
 30
0.0
 11
47.5
 21
74.0
 31
0.0
  0
LINE
  8
0
  6
CONTINUOUS
 62
     1
 10
48.8
 20
74.0
 30
0.0
 11
48.8
 21
66.0
 31
0.0
  0
LINE
  8
0
  6
CONTINUOUS
 62
     1
 10
48.8
 20
66.0
 30
0.0
 11
52.7
 21
66.0
 31
0.0
  0
LINE
  8
0
  6
CONTINUOUS
 62
     1
 10
52.7
 20
66.0
 30
0.0
 11
52.7
 21
74.0
 31
0.0
  0
LINE
  8
0
  6
CONTINUOUS
 62
     1
 10
52.7
 20
74.0
 30
0.0
 11
54.0
 21
74.0
 31
0.0
  0
LINE
  8
0
  6
CONTINUOUS
 62
     1
 10
54.0
 20
74.0
 30
0.0
 11
54.0
 21
66.0
 31
0.0
  0
LINE
  8
0
  6
CONTINUOUS
 62
     1
 10
54.0
 20
66.0
 30
0.0
 11
57.9
 21
66.0
 31
0.0
  0
LINE
  8
0
  6
CONTINUOUS
 62
     1
 10
57.9
 20
66.0
 30
0.0
 11
57.9
 21
75.0
 31
0.0
  0
LINE
  8
0
  6
CONTINUOUS
 62
     1
 10
57.9
 20
75.0
 30
0.0
 11
59.125
 21
75.0
 31
0.0
  0
LINE
  8
0
  6
CONTINUOUS
 62
     1
 10
59.125
 20
75.0
 30
0.0
 11
59.125
 21
63.2
 31
0.0
  0
LINE
  8
0
  6
CONTINUOUS
 62
     1
 10
59.125
 20
63.2
 30
0.0
 11
60.0
 21
63.2
 31
0.0
  0
LINE
  8
0
  6
CONTINUOUS
 62
     1
 10
48.8
 20
74.0
 30
0.0
 11
52.7
 21
74.0
 31
0.0
  0
LINE
  8
0
  6
CONTINUOUS
 62
     1
 10
54.0
 20
74.0
 30
0.0
 11
57.9
 21
74.0
 31
0.0
  0
LINE
  8
0
  6
CONTINUOUS
 62
     1
 10
57.9
 20
71.7
 30
0.0
 11
57.9
 21
71.2
 31
0.0
  0
ARC
  8
0
  6
CONTINUOUS
 62
     1
 10
48.0
 20
64.25
 30
0.0
 40
0.5
 50
180.0
 51
270.0
  0
LINE
  8
0
  6
CONTINUOUS
 62
     1
 10
48.0
 20
63.75
 30
0.0
 11
49.25
 21
63.75
 31
0.0
  0
ARC
  8
0
  6
CONTINUOUS
 62
     1
 10
49.25
 20
64.25
 30
0.0
 40
0.5
 50
270.0
 51
0.0
  0
LINE
  8
0
  6
CONTINUOUS
 62
     1
 10
49.75
 20
64.25
 30
0.0
 11
49.75
 21
65.5
 31
0.0
  0
ARC
  8
0
  6
CONTINUOUS
 62
     1
 10
49.25
 20
65.5
 30
0.0
 40
0.5
 50
0.0
 51
90.0
  0
LINE
  8
0
  6
CONTINUOUS
 62
     1
 10
49.25
 20
66.0
 30
0.0
 11
48.0
 21
66.0
 31
0.0
  0
ARC
  8
0
  6
CONTINUOUS
 62
     1
 10
48.0
 20
65.5
 30
0.0
 40
0.5
 50
90.0
 51
180.0
  0
LINE
  8
0
  6
CONTINUOUS
 62
     1
 10
47.5
 20
65.5
 30
0.0
 11
47.5
 21
64.25
 31
0.0
  0
LINE
  8
0
  6
CONTINUOUS
 62
     1
 10
48.236615639
 20
61.969530887
 30
0.0
 11
49.161615639
 21
61.969530887
 31
0.0
  0
LINE
  8
0
  6
CONTINUOUS
 62
     1
 10
49.161615639
 20
61.969530887
 30
0.0
 11
49.161615639
 21
63.809530887
 31
0.0
  0
LINE
  8
0
  6
CONTINUOUS
 62
     1
 10
49.161615639
 20
63.809530887
 30
0.0
 11
48.236615639
 21
63.809530887
 31
0.0
  0
LINE
  8
0
  6
CONTINUOUS
 62
     1
 10
48.236615639
 20
63.809530887
 30
0.0
 11
48.236615639
 21
61.969530887
 31
0.0
  0
LINE
  8
0
  6
CONTINUOUS
 62
     1
 10
47.5
 20
74.0
 30
0.0
 11
47.5
 21
55.0
 31
0.0
  0
LINE
  8
0
  6
CONTINUOUS
 62
     1
 10
71.2
 20
74.0
 30
0.0
 11
72.5
 21
74.0
 31
0.0
  0
LINE
  8
0
  6
CONTINUOUS
 62
     1
 10
71.2
 20
74.0
 30
0.0
 11
71.2
 21
66.0
 31
0.0
  0
LINE
  8
0
  6
CONTINUOUS
 62
     1
 10
71.2
 20
66.0
 30
0.0
 11
67.3
 21
66.0
 31
0.0
  0
LINE
  8
0
  6
CONTINUOUS
 62
     1
 10
67.3
 20
66.0
 30
0.0
 11
67.3
 21
74.0
 31
0.0
  0
LINE
  8
0
  6
CONTINUOUS
 62
     1
 10
67.3
 20
74.0
 30
0.0
 11
66.0
 21
74.0
 31
0.0
  0
LINE
  8
0
  6
CONTINUOUS
 62
     1
 10
66.0
 20
74.0
 30
0.0
 11
66.0
 21
66.0
 31
0.0
  0
LINE
  8
0
  6
CONTINUOUS
 62
     1
 10
66.0
 20
66.0
 30
0.0
 11
62.1
 21
66.0
 31
0.0
  0
LINE
  8
0
  6
CONTINUOUS
 62
     1
 10
62.1
 20
66.0
 30
0.0
 11
62.1
 21
75.0
 31
0.0
  0
LINE
  8
0
  6
CONTINUOUS
 62
     1
 10
62.1
 20
75.0
 30
0.0
 11
60.875
 21
75.0
 31
0.0
  0
LINE
  8
0
  6
CONTINUOUS
 62
     1
 10
60.875
 20
75.0
 30
0.0
 11
60.875
 21
63.2
 31
0.0
  0
LINE
  8
0
  6
CONTINUOUS
 62
     1
 10
60.875
 20
63.2
 30
0.0
 11
60.0
 21
63.2
 31
0.0
  0
LINE
  8
0
  6
CONTINUOUS
 62
     1
 10
71.2
 20
74.0
 30
0.0
 11
67.3
 21
74.0
 31
0.0
  0
LINE
  8
0
  6
CONTINUOUS
 62
     1
 10
66.0
 20
74.0
 30
0.0
 11
62.1
 21
74.0
 31
0.0
  0
LINE
  8
0
  6
CONTINUOUS
 62
     1
 10
62.1
 20
71.7
 30
0.0
 11
62.1
 21
71.2
 31
0.0
  0
ARC
  8
0
  6
CONTINUOUS
 62
     1
 10
72.0
 20
64.25
 30
0.0
 40
0.5
 50
270.0
 51
0.0
  0
LINE
  8
0
  6
CONTINUOUS
 62
     1
 10
72.0
 20
63.75
 30
0.0
 11
70.75
 21
63.75
 31
0.0
  0
ARC
  8
0
  6
CONTINUOUS
 62
     1
 10
70.75
 20
64.25
 30
0.0
 40
0.5
 50
180.0
 51
270.0
  0
LINE
  8
0
  6
CONTINUOUS
 62
     1
 10
70.25
 20
64.25
 30
0.0
 11
70.25
 21
65.5
 31
0.0
  0
ARC
  8
0
  6
CONTINUOUS
 62
     1
 10
70.75
 20
65.5
 30
0.0
 40
0.5
 50
90.0
 51
180.0
  0
LINE
  8
0
  6
CONTINUOUS
 62
     1
 10
70.75
 20
66.0
 30
0.0
 11
72.0
 21
66.0
 31
0.0
  0
ARC
  8
0
  6
CONTINUOUS
 62
     1
 10
72.0
 20
65.5
 30
0.0
 40
0.5
 50
0.0
 51
90.0
  0
LINE
  8
0
  6
CONTINUOUS
 62
     1
 10
72.5
 20
65.5
 30
0.0
 11
72.5
 21
64.25
 31
0.0
  0
LINE
  8
0
  6
CONTINUOUS
 62
     1
 10
71.763384361
 20
61.969530887
 30
0.0
 11
70.838384361
 21
61.969530887
 31
0.0
  0
LINE
  8
0
  6
CONTINUOUS
 62
     1
 10
70.838384361
 20
61.969530887
 30
0.0
 11
70.838384361
 21
63.809530887
 31
0.0
  0
LINE
  8
0
  6
CONTINUOUS
 62
     1
 10
70.838384361
 20
63.809530887
 30
0.0
 11
71.763384361
 21
63.809530887
 31
0.0
  0
LINE
  8
0
  6
CONTINUOUS
 62
     1
 10
71.763384361
 20
63.809530887
 30
0.0
 11
71.763384361
 21
61.969530887
 31
0.0
  0
LINE
  8
0
  6
CONTINUOUS
 62
     1
 10
72.5
 20
74.0
 30
0.0
 11
72.5
 21
55.0
 31
0.0
  0
LINE
  8
0
  6
CONTINUOUS
 62
     1
 10
59.125
 20
75.0
 30
0.0
 11
60.875
 21
75.0
 31
0.0
  0
LINE
  8
0
  6
CONTINUOUS
 62
     1
 10
59.125
 20
69.75
 30
0.0
 11
60.875
 21
69.8
 31
0.0
  0
LINE
  8
0
  6
CONTINUOUS
 62
     1
 10
59.125
 20
68.7
 30
0.0
 11
60.875
 21
68.7
 31
0.0
  0
LINE
  8
0
  6
CONTINUOUS
 62
     1
 10
59.125
 20
73.9
 30
0.0
 11
60.875
 21
73.9
 31
0.0
  0
LINE
  8
0
  6
CONTINUOUS
 62
     1
 10
48.8
 20
36.0
 30
0.0
 11
47.5
 21
36.0
 31
0.0
  0
LINE
  8
0
  6
CONTINUOUS
 62
     1
 10
48.8
 20
36.0
 30
0.0
 11
48.8
 21
44.0
 31
0.0
  0
LINE
  8
0
  6
CONTINUOUS
 62
     1
 10
48.8
 20
44.0
 30
0.0
 11
52.7
 21
44.0
 31
0.0
  0
LINE
  8
0
  6
CONTINUOUS
 62
     1
 10
52.7
 20
44.0
 30
0.0
 11
52.7
 21
36.0
 31
0.0
  0
LINE
  8
0
  6
CONTINUOUS
 62
     1
 10
52.7
 20
36.0
 30
0.0
 11
54.0
 21
36.0
 31
0.0
  0
LINE
  8
0
  6
CONTINUOUS
 62
     1
 10
54.0
 20
44.0
 30
0.0
 11
57.9
 21
44.0
 31
0.0
  0
LINE
  8
0
  6
CONTINUOUS
 62
     1
 10
57.9
 20
44.0
 30
0.0
 11
57.9
 21
35.0
 31
0.0
  0
LINE
  8
0
  6
CONTINUOUS
 62
     1
 10
57.9
 20
35.0
 30
0.0
 11
59.125
 21
35.0
 31
0.0
  0
LINE
  8
0
  6
CONTINUOUS
 62
     1
 10
59.125
 20
35.0
 30
0.0
 11
59.125
 21
46.8
 31
0.0
  0
LINE
  8
0
  6
CONTINUOUS
 62
     1
 10
59.125
 20
46.8
 30
0.0
 11
60.0
 21
46.8
 31
0.0
  0
LINE
  8
0
  6
CONTINUOUS
 62
     1
 10
48.8
 20
36.0
 30
0.0
 11
52.7
 21
36.0
 31
0.0
  0
LINE
  8
0
  6
CONTINUOUS
 62
     1
 10
54.0
 20
36.0
 30
0.0
 11
57.9
 21
36.0
 31
0.0
  0
LINE
  8
0
  6
CONTINUOUS
 62
     1
 10
57.9
 20
38.3
 30
0.0
 11
57.9
 21
38.8
 31
0.0
  0
ARC
  8
0
  6
CONTINUOUS
 62
     1
 10
48.0
 20
45.75
 30
0.0
 40
0.5
 50
90.0
 51
180.0
  0
LINE
  8
0
  6
CONTINUOUS
 62
     1
 10
48.0
 20
46.25
 30
0.0
 11
49.25
 21
46.25
 31
0.0
  0
ARC
  8
0
  6
CONTINUOUS
 62
     1
 10
49.25
 20
45.75
 30
0.0
 40
0.5
 50
0.0
 51
90.0
  0
LINE
  8
0
  6
CONTINUOUS
 62
     1
 10
49.75
 20
45.75
 30
0.0
 11
49.75
 21
44.5
 31
0.0
  0
ARC
  8
0
  6
CONTINUOUS
 62
     1
 10
49.25
 20
44.5
 30
0.0
 40
0.5
 50
270.0
 51
0.0
  0
LINE
  8
0
  6
CONTINUOUS
 62
     1
 10
49.25
 20
44.0
 30
0.0
 11
48.0
 21
44.0
 31
0.0
  0
ARC
  8
0
  6
CONTINUOUS
 62
     1
 10
48.0
 20
44.5
 30
0.0
 40
0.5
 50
180.0
 51
270.0
  0
LINE
  8
0
  6
CONTINUOUS
 62
     1
 10
47.5
 20
44.5
 30
0.0
 11
47.5
 21
45.75
 31
0.0
  0
LINE
  8
0
  6
CONTINUOUS
 62
     1
 10
48.236615639
 20
48.030469113
 30
0.0
 11
49.161615639
 21
48.030469113
 31
0.0
  0
LINE
  8
0
  6
CONTINUOUS
 62
     1
 10
49.161615639
 20
48.030469113
 30
0.0
 11
49.161615639
 21
46.190469113
 31
0.0
  0
LINE
  8
0
  6
CONTINUOUS
 62
     1
 10
49.161615639
 20
46.190469113
 30
0.0
 11
48.236615639
 21
46.190469113
 31
0.0
  0
LINE
  8
0
  6
CONTINUOUS
 62
     1
 10
48.236615639
 20
46.190469113
 30
0.0
 11
48.236615639
 21
48.030469113
 31
0.0
  0
LINE
  8
0
  6
CONTINUOUS
 62
     1
 10
47.5
 20
36.0
 30
0.0
 11
47.5
 21
55.0
 31
0.0
  0
LINE
  8
0
  6
CONTINUOUS
 62
     1
 10
71.2
 20
36.0
 30
0.0
 11
72.5
 21
36.0
 31
0.0
  0
LINE
  8
0
  6
CONTINUOUS
 62
     1
 10
71.2
 20
36.0
 30
0.0
 11
71.2
 21
44.0
 31
0.0
  0
LINE
  8
0
  6
CONTINUOUS
 62
     1
 10
71.2
 20
44.0
 30
0.0
 11
67.3
 21
44.0
 31
0.0
  0
LINE
  8
0
  6
CONTINUOUS
 62
     1
 10
67.3
 20
44.0
 30
0.0
 11
67.3
 21
36.0
 31
0.0
  0
LINE
  8
0
  6
CONTINUOUS
 62
     1
 10
67.3
 20
36.0
 30
0.0
 11
66.0
 21
36.0
 31
0.0
  0
LINE
  8
0
  6
CONTINUOUS
 62
     1
 10
66.0
 20
36.0
 30
0.0
 11
66.0
 21
44.0
 31
0.0
  0
LINE
  8
0
  6
CONTINUOUS
 62
     1
 10
66.0
 20
44.0
 30
0.0
 11
62.1
 21
44.0
 31
0.0
  0
LINE
  8
0
  6
CONTINUOUS
 62
     1
 10
62.1
 20
44.0
 30
0.0
 11
62.1
 21
35.0
 31
0.0
  0
LINE
  8
0
  6
CONTINUOUS
 62
     1
 10
62.1
 20
35.0
 30
0.0
 11
60.875
 21
35.0
 31
0.0
  0
LINE
  8
0
  6
CONTINUOUS
 62
     1
 10
60.875
 20
35.0
 30
0.0
 11
60.875
 21
46.8
 31
0.0
  0
LINE
  8
0
  6
CONTINUOUS
 62
     1
 10
60.875
 20
46.8
 30
0.0
 11
60.0
 21
46.8
 31
0.0
  0
LINE
  8
0
  6
CONTINUOUS
 62
     1
 10
71.2
 20
36.0
 30
0.0
 11
67.3
 21
36.0
 31
0.0
  0
LINE
  8
0
  6
CONTINUOUS
 62
     1
 10
66.0
 20
36.0
 30
0.0
 11
62.1
 21
36.0
 31
0.0
  0
LINE
  8
0
  6
CONTINUOUS
 62
     1
 10
62.1
 20
38.3
 30
0.0
 11
62.1
 21
38.8
 31
0.0
  0
ARC
  8
0
  6
CONTINUOUS
 62
     1
 10
72.0
 20
45.75
 30
0.0
 40
0.5
 50
0.0
 51
90.0
  0
LINE
  8
0
  6
CONTINUOUS
 62
     1
 10
72.0
 20
46.25
 30
0.0
 11
70.75
 21
46.25
 31
0.0
  0
ARC
  8
0
  6
CONTINUOUS
 62
     1
 10
70.75
 20
45.75
 30
0.0
 40
0.5
 50
90.0
 51
180.0
  0
LINE
  8
0
  6
CONTINUOUS
 62
     1
 10
70.25
 20
45.75
 30
0.0
 11
70.25
 21
44.5
 31
0.0
  0
ARC
  8
0
  6
CONTINUOUS
 62
     1
 10
70.75
 20
44.5
 30
0.0
 40
0.5
 50
180.0
 51
270.0
  0
LINE
  8
0
  6
CONTINUOUS
 62
     1
 10
70.75
 20
44.0
 30
0.0
 11
72.0
 21
44.0
 31
0.0
  0
ARC
  8
0
  6
CONTINUOUS
 62
     1
 10
72.0
 20
44.5
 30
0.0
 40
0.5
 50
270.0
 51
0.0
  0
LINE
  8
0
  6
CONTINUOUS
 62
     1
 10
72.5
 20
44.5
 30
0.0
 11
72.5
 21
45.75
 31
0.0
  0
LINE
  8
0
  6
CONTINUOUS
 62
     1
 10
71.763384361
 20
48.030469113
 30
0.0
 11
70.838384361
 21
48.030469113
 31
0.0
  0
LINE
  8
0
  6
CONTINUOUS
 62
     1
 10
70.838384361
 20
48.030469113
 30
0.0
 11
70.838384361
 21
46.190469113
 31
0.0
  0
LINE
  8
0
  6
CONTINUOUS
 62
     1
 10
70.838384361
 20
46.190469113
 30
0.0
 11
71.763384361
 21
46.190469113
 31
0.0
  0
LINE
  8
0
  6
CONTINUOUS
 62
     1
 10
71.763384361
 20
46.190469113
 30
0.0
 11
71.763384361
 21
48.030469113
 31
0.0
  0
LINE
  8
0
  6
CONTINUOUS
 62
     1
 10
72.5
 20
36.0
 30
0.0
 11
72.5
 21
55.0
 31
0.0
  0
LINE
  8
0
  6
CONTINUOUS
 62
     1
 10
59.125
 20
35.0
 30
0.0
 11
60.875
 21
35.0
 31
0.0
  0
LINE
  8
0
  6
CONTINUOUS
 62
     1
 10
59.125
 20
40.25
 30
0.0
 11
60.875
 21
40.2
 31
0.0
  0
LINE
  8
0
  6
CONTINUOUS
 62
     1
 10
59.125
 20
41.3
 30
0.0
 11
60.875
 21
41.3
 31
0.0
  0
LINE
  8
0
  6
CONTINUOUS
 62
     1
 10
59.125
 20
36.1
 30
0.0
 11
60.875
 21
36.1
 31
0.0
  0
CIRCLE
  8
0
  6
CONTINUOUS
 62
     1
 10
60.0
 20
55.0
 30
0.0
 40
7.2
  0
LINE
  8
0
  6
CONTINUOUS
 62
     1
 10
51.5
 20
52.875
 30
0.0
 11
47.5
 21
52.875
 31
0.0
  0
ARC
  8
0
  6
CONTINUOUS
 62
     1
 10
51.5
 20
53.375
 30
0.0
 40
0.5
 50
270.0
 51
360.0
  0
LINE
  8
0
  6
CONTINUOUS
 62
     1
 10
47.5
 20
57.125
 30
0.0
 11
51.5
 21
57.125
 31
0.0
  0
LINE
  8
0
  6
CONTINUOUS
 62
     1
 10
52.0
 20
56.625
 30
0.0
 11
52.0
 21
53.375
 31
0.0
  0
ARC
  8
0
  6
CONTINUOUS
 62
     1
 10
51.5
 20
56.625
 30
0.0
 40
0.5
 50
0.0
 51
90.0
  0
CIRCLE
  8
0
  6
CONTINUOUS
 62
     1
 10
50.0
 20
55.0
 30
0.0
 40
1.125
  0
CIRCLE
  8
0
  6
CONTINUOUS
 62
     1
 10
60.0
 20
55.0
 30
0.0
 40
2.75
  0
ARC
  8
0
  6
CONTINUOUS
 62
     1
 10
60.0
 20
52.875
 30
0.0
 40
0.625
 50
180.0
 51
0.0
  0
ARC
  8
0
  6
CONTINUOUS
 62
     1
 10
60.0
 20
55.0
 30
0.0
 40
2.125
 50
287.744671625
 51
0.0
  0
LINE
  8
0
  6
CONTINUOUS
 62
     1
 10
60.625
 20
52.875
 30
0.0
 11
60.64764842
 21
52.976098687
 31
0.0
  0
ARC
  8
0
  6
CONTINUOUS
 62
     1
 10
60.0
 20
55.0
 30
0.0
 40
2.125
 50
0.0
 51
252.361095784
  0
LINE
  8
0
  6
CONTINUOUS
 62
     1
 10
59.356088782
 20
52.974906584
 30
0.0
 11
59.375
 21
52.875
 31
0.0
  0
LINE
  8
0
  6
CONTINUOUS
 62
     1
 10
68.5
 20
52.875
 30
0.0
 11
72.5
 21
52.875
 31
0.0
  0
ARC
  8
0
  6
CONTINUOUS
 62
     1
 10
68.5
 20
53.375
 30
0.0
 40
0.5
 50
180.0
 51
270.0
  0
LINE
  8
0
  6
CONTINUOUS
 62
     1
 10
72.5
 20
57.125
 30
0.0
 11
68.5
 21
57.125
 31
0.0
  0
LINE
  8
0
  6
CONTINUOUS
 62
     1
 10
68.0
 20
56.625
 30
0.0
 11
68.0
 21
53.375
 31
0.0
  0
ARC
  8
0
  6
CONTINUOUS
 62
     1
 10
68.5
 20
56.625
 30
0.0
 40
0.5
 50
90.0
 51
180.0
  0
CIRCLE
  8
0
  6
CONTINUOUS
 62
     1
 10
70.0
 20
55.0
 30
0.0
 40
1.125
  0
CIRCLE
  8
0
  6
CONTINUOUS
 62
     1
 10
56.16469501
 20
53.404301584
 30
0.0
 40
0.5
  0
CIRCLE
  8
0
  6
CONTINUOUS
 62
     1
 10
63.83530499
 20
53.404301584
 30
0.0
 40
0.5
  0
CIRCLE
  8
0
  6
CONTINUOUS
 62
     1
 10
56.16469501
 20
56.595698416
 30
0.0
 40
0.5
  0
CIRCLE
  8
0
  6
CONTINUOUS
 62
     1
 10
63.83530499
 20
56.595698416
 30
0.0
 40
0.5
  0
CIRCLE
  8
0
  6
CONTINUOUS
 62
     1
 10
58.413243114
 20
51.159874948
 30
0.0
 40
0.5
  0
CIRCLE
  8
0
  6
CONTINUOUS
 62
     1
 10
61.586756886
 20
51.159874948
 30
0.0
 40
0.5
  0
CIRCLE
  8
0
  6
CONTINUOUS
 62
     1
 10
58.413243114
 20
58.840125052
 30
0.0
 40
0.5
  0
CIRCLE
  8
0
  6
CONTINUOUS
 62
     1
 10
61.586756886
 20
58.840125052
 30
0.0
 40
0.5
  0
CIRCLE
  8
0
  6
CONTINUOUS
 62
     1
 10
58.413243114
 20
58.840125052
 30
0.0
 40
0.6
  0
CIRCLE
  8
0
  6
CONTINUOUS
 62
     1
 10
61.586756886
 20
58.840125052
 30
0.0
 40
0.6
  0
CIRCLE
  8
0
  6
CONTINUOUS
 62
     1
 10
63.83530499
 20
56.595698416
 30
0.0
 40
0.6
  0
CIRCLE
  8
0
  6
CONTINUOUS
 62
     1
 10
63.83530499
 20
53.404301584
 30
0.0
 40
0.6
  0
CIRCLE
  8
0
  6
CONTINUOUS
 62
     1
 10
61.586756886
 20
51.159874948
 30
0.0
 40
0.6
  0
CIRCLE
  8
0
  6
CONTINUOUS
 62
     1
 10
58.413243114
 20
51.159874948
 30
0.0
 40
0.6
  0
CIRCLE
  8
0
  6
CONTINUOUS
 62
     1
 10
56.16469501
 20
53.404301584
 30
0.0
 40
0.6
  0
CIRCLE
  8
0
  6
CONTINUOUS
 62
     1
 10
56.16469501
 20
56.595698416
 30
0.0
 40
0.6
  0
LINE
  8
0
  6
CONTINUOUS
 62
     1
 10
53.0
 20
36.0
 30
0.0
 11
53.0
 21
35.75
 31
0.0
  0
LINE
  8
0
  6
CONTINUOUS
 62
     1
 10
53.0
 20
35.75
 30
0.0
 11
53.75
 21
35.0
 31
0.0
  0
LINE
  8
0
  6
CONTINUOUS
 62
     1
 10
53.75
 20
35.0
 30
0.0
 11
57.25
 21
35.0
 31
0.0
  0
LINE
  8
0
  6
CONTINUOUS
 62
     1
 10
57.25
 20
35.0
 30
0.0
 11
57.25
 21
34.0
 31
0.0
  0
LINE
  8
0
  6
CONTINUOUS
 62
     1
 10
57.25
 20
34.0
 30
0.0
 11
58.75
 21
33.0
 31
0.0
  0
LINE
  8
0
  6
CONTINUOUS
 62
     1
 10
58.75
 20
33.0
 30
0.0
 11
61.25
 21
33.0
 31
0.0
  0
LINE
  8
0
  6
CONTINUOUS
 62
     1
 10
61.25
 20
33.0
 30
0.0
 11
62.75
 21
34.0
 31
0.0
  0
LINE
  8
0
  6
CONTINUOUS
 62
     1
 10
62.75
 20
34.0
 30
0.0
 11
62.75
 21
35.0
 31
0.0
  0
LINE
  8
0
  6
CONTINUOUS
 62
     1
 10
62.75
 20
35.0
 30
0.0
 11
66.25
 21
35.0
 31
0.0
  0
LINE
  8
0
  6
CONTINUOUS
 62
     1
 10
66.25
 20
35.0
 30
0.0
 11
67.0
 21
35.75
 31
0.0
  0
LINE
  8
0
  6
CONTINUOUS
 62
     1
 10
67.0
 20
35.75
 30
0.0
 11
67.0
 21
36.0
 31
0.0
  0
LINE
  8
0
  6
CONTINUOUS
 62
     1
 10
58.25
 20
35.0
 30
0.0
 11
58.25
 21
34.5
 31
0.0
  0
LINE
  8
0
  6
CONTINUOUS
 62
     1
 10
58.25
 20
34.5
 30
0.0
 11
59.0
 21
34.5
 31
0.0
  0
LINE
  8
0
  6
CONTINUOUS
 62
     1
 10
61.0
 20
34.5
 30
0.0
 11
61.75
 21
34.5
 31
0.0
  0
LINE
  8
0
  6
CONTINUOUS
 62
     1
 10
61.75
 20
34.5
 30
0.0
 11
61.75
 21
35.0
 31
0.0
  0
ARC
  8
0
  6
CONTINUOUS
 62
     1
 10
60.0
 20
34.5
 30
0.0
 40
1.0
 50
180.0
 51
0.0
  0
LINE
  8
0
  6
CONTINUOUS
 62
     1
 10
48.8
 20
36.75
 30
0.0
 11
47.5
 21
36.75
 31
0.0
  0
LINE
  8
0
  6
CONTINUOUS
 62
     1
 10
52.75
 20
36.75
 30
0.0
 11
54.0
 21
36.75
 31
0.0
  0
LINE
  8
0
  6
CONTINUOUS
 62
     1
 10
66.0
 20
36.75
 30
0.0
 11
67.3
 21
36.75
 31
0.0
  0
LINE
  8
0
  6
CONTINUOUS
 62
     1
 10
71.2
 20
36.75
 30
0.0
 11
72.5
 21
36.75
 31
0.0
  0
LINE
  8
0
  6
CONTINUOUS
 62
     1
 10
57.9
 20
35.75
 30
0.0
 11
59.125
 21
35.75
 31
0.0
  0
LINE
  8
0
  6
CONTINUOUS
 62
     1
 10
60.875
 20
35.75
 30
0.0
 11
62.125
 21
35.75
 31
0.0
  0
LINE
  8
0
  6
CONTINUOUS
 62
     1
 10
48.8
 20
73.25
 30
0.0
 11
47.5
 21
73.25
 31
0.0
  0
LINE
  8
0
  6
CONTINUOUS
 62
     1
 10
52.75
 20
73.25
 30
0.0
 11
54.0
 21
73.25
 31
0.0
  0
LINE
  8
0
  6
CONTINUOUS
 62
     1
 10
57.9
 20
74.25
 30
0.0
 11
59.125
 21
74.25
 31
0.0
  0
LINE
  8
0
  6
CONTINUOUS
 62
     1
 10
60.875
 20
74.25
 30
0.0
 11
62.125
 21
74.25
 31
0.0
  0
LINE
  8
0
  6
CONTINUOUS
 62
     1
 10
66.0
 20
73.25
 30
0.0
 11
67.3
 21
73.25
 31
0.0
  0
LINE
  8
0
  6
CONTINUOUS
 62
     1
 10
71.2
 20
73.25
 30
0.0
 11
72.5
 21
73.25
 31
0.0
  0
LINE
  8
0
  6
LTYPE1
 62
     2
 10
42.5
 20
55.0
 30
0.0
 11
77.5
 21
55.0
 31
0.0
  0
LINE
  8
0
  6
LTYPE1
 62
     2
 10
50.0
 20
50.0
 30
0.0
 11
50.0
 21
60.0
 31
0.0
  0
LINE
  8
0
  6
LTYPE1
 62
     2
 10
70.0
 20
50.0
 30
0.0
 11
70.0
 21
60.0
 31
0.0
  0
LINE
  8
0
  6
LTYPE1
 62
     2
 10
60.0
 20
28.0
 30
0.0
 11
60.0
 21
80.0
 31
0.0
  0
LINE
  8
0
  6
CONTINUOUS
 62
     2
 10
70.8
 20
55.8
 30
0.0
 11
72.965063509
 21
57.05
 31
0.0
  0
LINE
  8
0
  6
CONTINUOUS
 62
     2
 10
70.8
 20
55.8
 30
0.0
 11
72.05
 21
57.965063509
 31
0.0
  0
LINE
  8
0
  6
CONTINUOUS
 62
     2
 10
70.8
 20
55.8
 30
0.0
 11
76.5
 21
61.5
 31
0.0
  0
LINE
  8
0
  6
CONTINUOUS
 62
     2
 10
48.8
 20
38.3
 30
0.0
 11
52.7
 21
38.3
 31
0.0
  0
LINE
  8
0
  6
CONTINUOUS
 62
     2
 10
52.7
 20
38.8
 30
0.0
 11
48.8
 21
38.8
 31
0.0
  0
LINE
  8
0
  6
CONTINUOUS
 62
     2
 10
48.8
 20
39.3
 30
0.0
 11
52.7
 21
39.3
 31
0.0
  0
LINE
  8
0
  6
CONTINUOUS
 62
     2
 10
52.7
 20
39.55
 30
0.0
 11
48.8
 21
39.55
 31
0.0
  0
CIRCLE
  8
0
  6
CONTINUOUS
 62
     2
 10
50.75
 20
41.75
 30
0.0
 40
1.375
  0
LINE
  8
0
  6
CONTINUOUS
 62
     2
 10
48.962471773
 20
43.249914276
 30
0.0
 11
52.249914276
 21
43.537528227
 31
0.0
  0
LINE
  8
0
  6
CONTINUOUS
 62
     2
 10
52.249914276
 20
43.537528227
 30
0.0
 11
52.537528227
 21
40.250085724
 31
0.0
  0
LINE
  8
0
  6
CONTINUOUS
 62
     2
 10
52.537528227
 20
40.250085724
 30
0.0
 11
49.250085724
 21
39.962471773
 31
0.0
  0
LINE
  8
0
  6
CONTINUOUS
 62
     2
 10
49.250085724
 20
39.962471773
 30
0.0
 11
48.962471773
 21
43.249914276
 31
0.0
  0
LINE
  8
0
  6
CONTINUOUS
 62
     2
 10
50.7
 20
40.1
 30
0.0
 11
50.65
 21
40.4
 31
0.0
  0
LINE
  8
0
  6
CONTINUOUS
 62
     2
 10
51.1
 20
40.15
 30
0.0
 11
51.1
 21
40.45
 31
0.0
  0
LINE
  8
0
  6
CONTINUOUS
 62
     2
 10
50.35
 20
43.075
 30
0.0
 11
50.35
 21
43.375
 31
0.0
  0
LINE
  8
0
  6
CONTINUOUS
 62
     2
 10
50.8
 20
43.125
 30
0.0
 11
50.7
 21
43.425
 31
0.0
  0
LINE
  8
0
  6
CONTINUOUS
 62
     2
 10
49.381274415
 20
41.881206987
 30
0.0
 11
49.956160173
 21
41.931502974
 31
0.0
  0
LINE
  8
0
  6
CONTINUOUS
 62
     2
 10
50.261130778
 20
43.035158311
 30
0.0
 11
50.319775755
 21
42.36484315
 31
0.0
  0
ARC
  8
0
  6
CONTINUOUS
 62
     2
 10
49.921297876
 20
42.329980853
 30
0.0
 40
0.4
 50
275.0
 51
5.0
  0
LINE
  8
0
  6
CONTINUOUS
 62
     2
 10
51.066921779
 20
42.430209957
 30
0.0
 11
51.008276801
 21
43.100525118
 31
0.0
  0
LINE
  8
0
  6
CONTINUOUS
 62
     2
 10
51.500261955
 20
42.066594375
 30
0.0
 11
52.075147713
 21
42.116890362
 31
0.0
  0
ARC
  8
0
  6
CONTINUOUS
 62
     2
 10
51.465399658
 20
42.465072254
 30
0.0
 40
0.4
 50
185.0
 51
275.0
  0
LINE
  8
0
  6
CONTINUOUS
 62
     2
 10
49.424852287
 20
41.383109638
 30
0.0
 11
49.999738045
 21
41.433405625
 31
0.0
  0
ARC
  8
0
  6
CONTINUOUS
 62
     2
 10
50.034600342
 20
41.034927746
 30
0.0
 40
0.4
 50
5.0
 51
95.0
  0
LINE
  8
0
  6
CONTINUOUS
 62
     2
 10
51.543839827
 20
41.568497026
 30
0.0
 11
52.118725585
 21
41.618793013
 31
0.0
  0
ARC
  8
0
  6
CONTINUOUS
 62
     2
 10
51.578702124
 20
41.170019147
 30
0.0
 40
0.4
 50
95.0
 51
185.0
  0
LINE
  8
0
  6
CONTINUOUS
 62
     2
 10
50.491723199
 20
40.399474882
 30
0.0
 11
50.433078221
 21
41.069790043
 31
0.0
  0
LINE
  8
0
  6
CONTINUOUS
 62
     2
 10
51.180224245
 20
41.13515685
 30
0.0
 11
51.238869222
 21
40.464841689
 31
0.0
  0
LINE
  8
0
  6
CONTINUOUS
 62
     2
 10
54.0
 20
38.3
 30
0.0
 11
57.9
 21
38.3
 31
0.0
  0
LINE
  8
0
  6
CONTINUOUS
 62
     2
 10
57.9
 20
38.8
 30
0.0
 11
54.0
 21
38.8
 31
0.0
  0
LINE
  8
0
  6
CONTINUOUS
 62
     2
 10
54.0
 20
39.3
 30
0.0
 11
57.9
 21
39.3
 31
0.0
  0
LINE
  8
0
  6
CONTINUOUS
 62
     2
 10
54.162471773
 20
43.249914276
 30
0.0
 11
57.449914276
 21
43.537528227
 31
0.0
  0
LINE
  8
0
  6
CONTINUOUS
 62
     2
 10
57.449914276
 20
43.537528227
 30
0.0
 11
57.737528227
 21
40.250085724
 31
0.0
  0
LINE
  8
0
  6
CONTINUOUS
 62
     2
 10
55.9
 20
40.1
 30
0.0
 11
55.85
 21
40.4
 31
0.0
  0
LINE
  8
0
  6
CONTINUOUS
 62
     2
 10
56.3
 20
40.15
 30
0.0
 11
56.3
 21
40.45
 31
0.0
  0
LINE
  8
0
  6
CONTINUOUS
 62
     2
 10
55.55
 20
43.075
 30
0.0
 11
55.55
 21
43.375
 31
0.0
  0
LINE
  8
0
  6
CONTINUOUS
 62
     2
 10
56.0
 20
43.125
 30
0.0
 11
55.9
 21
43.425
 31
0.0
  0
LINE
  8
0
  6
CONTINUOUS
 62
     2
 10
54.581274415
 20
41.881206987
 30
0.0
 11
55.156160173
 21
41.931502974
 31
0.0
  0
LINE
  8
0
  6
CONTINUOUS
 62
     2
 10
55.461130778
 20
43.035158311
 30
0.0
 11
55.519775755
 21
42.36484315
 31
0.0
  0
ARC
  8
0
  6
CONTINUOUS
 62
     2
 10
55.121297876
 20
42.329980853
 30
0.0
 40
0.4
 50
275.0
 51
5.0
  0
LINE
  8
0
  6
CONTINUOUS
 62
     2
 10
56.266921779
 20
42.430209957
 30
0.0
 11
56.208276801
 21
43.100525118
 31
0.0
  0
LINE
  8
0
  6
CONTINUOUS
 62
     2
 10
56.700261955
 20
42.066594375
 30
0.0
 11
57.275147713
 21
42.116890362
 31
0.0
  0
ARC
  8
0
  6
CONTINUOUS
 62
     2
 10
56.665399658
 20
42.465072254
 30
0.0
 40
0.4
 50
185.0
 51
275.0
  0
LINE
  8
0
  6
CONTINUOUS
 62
     2
 10
54.624852287
 20
41.383109638
 30
0.0
 11
55.199738045
 21
41.433405625
 31
0.0
  0
ARC
  8
0
  6
CONTINUOUS
 62
     2
 10
55.234600342
 20
41.034927746
 30
0.0
 40
0.4
 50
5.0
 51
95.0
  0
LINE
  8
0
  6
CONTINUOUS
 62
     2
 10
56.743839827
 20
41.568497026
 30
0.0
 11
57.318725585
 21
41.618793013
 31
0.0
  0
ARC
  8
0
  6
CONTINUOUS
 62
     2
 10
56.778702124
 20
41.170019147
 30
0.0
 40
0.4
 50
95.0
 51
185.0
  0
LINE
  8
0
  6
CONTINUOUS
 62
     2
 10
55.691723199
 20
40.399474882
 30
0.0
 11
55.633078221
 21
41.069790043
 31
0.0
  0
LINE
  8
0
  6
CONTINUOUS
 62
     2
 10
56.380224245
 20
41.13515685
 30
0.0
 11
56.438869222
 21
40.464841689
 31
0.0
  0
LINE
  8
0
  6
CONTINUOUS
 62
     2
 10
57.9
 20
39.55
 30
0.0
 11
54.0
 21
39.55
 31
0.0
  0
CIRCLE
  8
0
  6
CONTINUOUS
 62
     2
 10
55.95
 20
41.75
 30
0.0
 40
1.375
  0
LINE
  8
0
  6
CONTINUOUS
 62
     2
 10
54.450085724
 20
39.962471773
 30
0.0
 11
54.162471773
 21
43.249914276
 31
0.0
  0
LINE
  8
0
  6
CONTINUOUS
 62
     2
 10
57.737528227
 20
40.250085724
 30
0.0
 11
54.450085724
 21
39.962471773
 31
0.0
  0
LINE
  8
0
  6
CONTINUOUS
 62
     1
 10
54.0
 20
36.0
 30
0.0
 11
54.0
 21
44.0
 31
0.0
  0
LINE
  8
0
  6
CONTINUOUS
 62
     2
 10
66.0
 20
38.3
 30
0.0
 11
62.1
 21
38.3
 31
0.0
  0
LINE
  8
0
  6
CONTINUOUS
 62
     2
 10
62.1
 20
38.8
 30
0.0
 11
66.0
 21
38.8
 31
0.0
  0
LINE
  8
0
  6
CONTINUOUS
 62
     2
 10
66.0
 20
39.3
 30
0.0
 11
62.1
 21
39.3
 31
0.0
  0
LINE
  8
0
  6
CONTINUOUS
 62
     2
 10
62.1
 20
39.55
 30
0.0
 11
66.0
 21
39.55
 31
0.0
  0
LINE
  8
0
  6
CONTINUOUS
 62
     2
 10
65.837528227
 20
43.249914276
 30
0.0
 11
62.550085724
 21
43.537528227
 31
0.0
  0
LINE
  8
0
  6
CONTINUOUS
 62
     2
 10
62.550085724
 20
43.537528227
 30
0.0
 11
62.262471773
 21
40.250085724
 31
0.0
  0
LINE
  8
0
  6
CONTINUOUS
 62
     2
 10
64.1
 20
40.1
 30
0.0
 11
64.15
 21
40.4
 31
0.0
  0
LINE
  8
0
  6
CONTINUOUS
 62
     2
 10
63.7
 20
40.15
 30
0.0
 11
63.7
 21
40.45
 31
0.0
  0
LINE
  8
0
  6
CONTINUOUS
 62
     2
 10
64.45
 20
43.075
 30
0.0
 11
64.45
 21
43.375
 31
0.0
  0
LINE
  8
0
  6
CONTINUOUS
 62
     2
 10
64.0
 20
43.125
 30
0.0
 11
64.1
 21
43.425
 31
0.0
  0
LINE
  8
0
  6
CONTINUOUS
 62
     2
 10
65.418725585
 20
41.881206987
 30
0.0
 11
64.843839827
 21
41.931502974
 31
0.0
  0
LINE
  8
0
  6
CONTINUOUS
 62
     2
 10
64.538869222
 20
43.035158311
 30
0.0
 11
64.480224245
 21
42.36484315
 31
0.0
  0
ARC
  8
0
  6
CONTINUOUS
 62
     2
 10
64.878702124
 20
42.329980853
 30
0.0
 40
0.4
 50
175.0
 51
265.0
  0
LINE
  8
0
  6
CONTINUOUS
 62
     2
 10
63.733078221
 20
42.430209957
 30
0.0
 11
63.791723199
 21
43.100525118
 31
0.0
  0
LINE
  8
0
  6
CONTINUOUS
 62
     2
 10
63.299738045
 20
42.066594375
 30
0.0
 11
62.724852287
 21
42.116890362
 31
0.0
  0
ARC
  8
0
  6
CONTINUOUS
 62
     2
 10
63.334600342
 20
42.465072254
 30
0.0
 40
0.4
 50
265.0
 51
355.0
  0
LINE
  8
0
  6
CONTINUOUS
 62
     2
 10
65.375147713
 20
41.383109638
 30
0.0
 11
64.800261955
 21
41.433405625
 31
0.0
  0
ARC
  8
0
  6
CONTINUOUS
 62
     2
 10
64.765399658
 20
41.034927746
 30
0.0
 40
0.4
 50
85.0
 51
175.0
  0
LINE
  8
0
  6
CONTINUOUS
 62
     2
 10
63.256160173
 20
41.568497026
 30
0.0
 11
62.681274415
 21
41.618793013
 31
0.0
  0
ARC
  8
0
  6
CONTINUOUS
 62
     2
 10
63.221297876
 20
41.170019147
 30
0.0
 40
0.4
 50
355.0
 51
85.0
  0
LINE
  8
0
  6
CONTINUOUS
 62
     2
 10
64.308276801
 20
40.399474882
 30
0.0
 11
64.366921779
 21
41.069790043
 31
0.0
  0
LINE
  8
0
  6
CONTINUOUS
 62
     2
 10
63.619775755
 20
41.13515685
 30
0.0
 11
63.561130778
 21
40.464841689
 31
0.0
  0
CIRCLE
  8
0
  6
CONTINUOUS
 62
     2
 10
64.05
 20
41.75
 30
0.0
 40
1.375
  0
LINE
  8
0
  6
CONTINUOUS
 62
     2
 10
62.262471773
 20
40.250085724
 30
0.0
 11
65.549914276
 21
39.962471773
 31
0.0
  0
LINE
  8
0
  6
CONTINUOUS
 62
     2
 10
71.2
 20
38.3
 30
0.0
 11
67.3
 21
38.3
 31
0.0
  0
LINE
  8
0
  6
CONTINUOUS
 62
     2
 10
67.3
 20
38.8
 30
0.0
 11
71.2
 21
38.8
 31
0.0
  0
LINE
  8
0
  6
CONTINUOUS
 62
     2
 10
71.2
 20
39.3
 30
0.0
 11
67.3
 21
39.3
 31
0.0
  0
LINE
  8
0
  6
CONTINUOUS
 62
     2
 10
67.3
 20
39.55
 30
0.0
 11
71.2
 21
39.55
 31
0.0
  0
CIRCLE
  8
0
  6
CONTINUOUS
 62
     2
 10
69.25
 20
41.75
 30
0.0
 40
1.375
  0
LINE
  8
0
  6
CONTINUOUS
 62
     2
 10
71.037528227
 20
43.249914276
 30
0.0
 11
67.750085724
 21
43.537528227
 31
0.0
  0
LINE
  8
0
  6
CONTINUOUS
 62
     2
 10
67.750085724
 20
43.537528227
 30
0.0
 11
67.462471773
 21
40.250085724
 31
0.0
  0
LINE
  8
0
  6
CONTINUOUS
 62
     2
 10
67.462471773
 20
40.250085724
 30
0.0
 11
70.749914276
 21
39.962471773
 31
0.0
  0
LINE
  8
0
  6
CONTINUOUS
 62
     2
 10
70.749914276
 20
39.962471773
 30
0.0
 11
71.037528227
 21
43.249914276
 31
0.0
  0
LINE
  8
0
  6
CONTINUOUS
 62
     2
 10
69.3
 20
40.1
 30
0.0
 11
69.35
 21
40.4
 31
0.0
  0
LINE
  8
0
  6
CONTINUOUS
 62
     2
 10
68.9
 20
40.15
 30
0.0
 11
68.9
 21
40.45
 31
0.0
  0
LINE
  8
0
  6
CONTINUOUS
 62
     2
 10
69.65
 20
43.075
 30
0.0
 11
69.65
 21
43.375
 31
0.0
  0
LINE
  8
0
  6
CONTINUOUS
 62
     2
 10
69.2
 20
43.125
 30
0.0
 11
69.3
 21
43.425
 31
0.0
  0
LINE
  8
0
  6
CONTINUOUS
 62
     2
 10
70.618725585
 20
41.881206987
 30
0.0
 11
70.043839827
 21
41.931502974
 31
0.0
  0
LINE
  8
0
  6
CONTINUOUS
 62
     2
 10
69.738869222
 20
43.035158311
 30
0.0
 11
69.680224245
 21
42.36484315
 31
0.0
  0
ARC
  8
0
  6
CONTINUOUS
 62
     2
 10
70.078702124
 20
42.329980853
 30
0.0
 40
0.4
 50
175.0
 51
265.0
  0
LINE
  8
0
  6
CONTINUOUS
 62
     2
 10
68.933078221
 20
42.430209957
 30
0.0
 11
68.991723199
 21
43.100525118
 31
0.0
  0
LINE
  8
0
  6
CONTINUOUS
 62
     2
 10
68.499738045
 20
42.066594375
 30
0.0
 11
67.924852287
 21
42.116890362
 31
0.0
  0
ARC
  8
0
  6
CONTINUOUS
 62
     2
 10
68.534600342
 20
42.465072254
 30
0.0
 40
0.4
 50
265.0
 51
355.0
  0
LINE
  8
0
  6
CONTINUOUS
 62
     2
 10
70.575147713
 20
41.383109638
 30
0.0
 11
70.000261955
 21
41.433405625
 31
0.0
  0
ARC
  8
0
  6
CONTINUOUS
 62
     2
 10
69.965399658
 20
41.034927746
 30
0.0
 40
0.4
 50
85.0
 51
175.0
  0
LINE
  8
0
  6
CONTINUOUS
 62
     2
 10
68.456160173
 20
41.568497026
 30
0.0
 11
67.881274415
 21
41.618793013
 31
0.0
  0
ARC
  8
0
  6
CONTINUOUS
 62
     2
 10
68.421297876
 20
41.170019147
 30
0.0
 40
0.4
 50
355.0
 51
85.0
  0
LINE
  8
0
  6
CONTINUOUS
 62
     2
 10
69.508276801
 20
40.399474882
 30
0.0
 11
69.566921779
 21
41.069790043
 31
0.0
  0
LINE
  8
0
  6
CONTINUOUS
 62
     2
 10
68.819775755
 20
41.13515685
 30
0.0
 11
68.761130778
 21
40.464841689
 31
0.0
  0
LINE
  8
0
  6
CONTINUOUS
 62
     2
 10
69.25
 20
40.45
 30
0.0
 11
69.906041267
 21
38.037613245
 31
0.0
  0
LINE
  8
0
  6
CONTINUOUS
 62
     2
 10
69.25
 20
40.45
 30
0.0
 11
71.02434178
 21
38.68883242
 31
0.0
  0
LINE
  8
0
  6
CONTINUOUS
 62
     2
 10
69.25
 20
40.45
 30
0.0
 11
76.5
 21
28.0
 31
0.0
  0
LINE
  8
0
  6
CONTINUOUS
 62
     2
 10
48.8
 20
71.7
 30
0.0
 11
52.7
 21
71.7
 31
0.0
  0
LINE
  8
0
  6
CONTINUOUS
 62
     2
 10
52.7
 20
71.2
 30
0.0
 11
48.8
 21
71.2
 31
0.0
  0
LINE
  8
0
  6
CONTINUOUS
 62
     2
 10
48.8
 20
70.7
 30
0.0
 11
52.7
 21
70.7
 31
0.0
  0
LINE
  8
0
  6
CONTINUOUS
 62
     2
 10
52.7
 20
70.45
 30
0.0
 11
48.8
 21
70.45
 31
0.0
  0
CIRCLE
  8
0
  6
CONTINUOUS
 62
     2
 10
50.75
 20
68.25
 30
0.0
 40
1.375
  0
LINE
  8
0
  6
CONTINUOUS
 62
     2
 10
48.962471773
 20
66.750085724
 30
0.0
 11
52.249914276
 21
66.462471773
 31
0.0
  0
LINE
  8
0
  6
CONTINUOUS
 62
     2
 10
52.249914276
 20
66.462471773
 30
0.0
 11
52.537528227
 21
69.749914276
 31
0.0
  0
LINE
  8
0
  6
CONTINUOUS
 62
     2
 10
52.537528227
 20
69.749914276
 30
0.0
 11
49.250085724
 21
70.037528227
 31
0.0
  0
LINE
  8
0
  6
CONTINUOUS
 62
     2
 10
49.250085724
 20
70.037528227
 30
0.0
 11
48.962471773
 21
66.750085724
 31
0.0
  0
LINE
  8
0
  6
CONTINUOUS
 62
     2
 10
50.7
 20
69.9
 30
0.0
 11
50.65
 21
69.6
 31
0.0
  0
LINE
  8
0
  6
CONTINUOUS
 62
     2
 10
51.1
 20
69.85
 30
0.0
 11
51.1
 21
69.55
 31
0.0
  0
LINE
  8
0
  6
CONTINUOUS
 62
     2
 10
50.35
 20
66.925
 30
0.0
 11
50.35
 21
66.625
 31
0.0
  0
LINE
  8
0
  6
CONTINUOUS
 62
     2
 10
50.8
 20
66.875
 30
0.0
 11
50.7
 21
66.575
 31
0.0
  0
LINE
  8
0
  6
CONTINUOUS
 62
     2
 10
49.381274415
 20
68.118793013
 30
0.0
 11
49.956160173
 21
68.068497026
 31
0.0
  0
LINE
  8
0
  6
CONTINUOUS
 62
     2
 10
50.261130778
 20
66.964841689
 30
0.0
 11
50.319775755
 21
67.63515685
 31
0.0
  0
ARC
  8
0
  6
CONTINUOUS
 62
     2
 10
49.921297876
 20
67.670019147
 30
0.0
 40
0.4
 50
355.0
 51
85.0
  0
LINE
  8
0
  6
CONTINUOUS
 62
     2
 10
51.066921779
 20
67.569790043
 30
0.0
 11
51.008276801
 21
66.899474882
 31
0.0
  0
LINE
  8
0
  6
CONTINUOUS
 62
     2
 10
51.500261955
 20
67.933405625
 30
0.0
 11
52.075147713
 21
67.883109638
 31
0.0
  0
ARC
  8
0
  6
CONTINUOUS
 62
     2
 10
51.465399658
 20
67.534927746
 30
0.0
 40
0.4
 50
85.0
 51
175.0
  0
LINE
  8
0
  6
CONTINUOUS
 62
     2
 10
49.424852287
 20
68.616890362
 30
0.0
 11
49.999738045
 21
68.566594375
 31
0.0
  0
ARC
  8
0
  6
CONTINUOUS
 62
     2
 10
50.034600342
 20
68.965072254
 30
0.0
 40
0.4
 50
265.0
 51
355.0
  0
LINE
  8
0
  6
CONTINUOUS
 62
     2
 10
51.543839827
 20
68.431502974
 30
0.0
 11
52.118725585
 21
68.381206987
 31
0.0
  0
ARC
  8
0
  6
CONTINUOUS
 62
     2
 10
51.578702124
 20
68.829980853
 30
0.0
 40
0.4
 50
175.0
 51
265.0
  0
LINE
  8
0
  6
CONTINUOUS
 62
     2
 10
50.491723199
 20
69.600525118
 30
0.0
 11
50.433078221
 21
68.930209957
 31
0.0
  0
LINE
  8
0
  6
CONTINUOUS
 62
     2
 10
51.180224245
 20
68.86484315
 30
0.0
 11
51.238869222
 21
69.535158311
 31
0.0
  0
LINE
  8
0
  6
CONTINUOUS
 62
     2
 10
54.0
 20
71.7
 30
0.0
 11
57.9
 21
71.7
 31
0.0
  0
LINE
  8
0
  6
CONTINUOUS
 62
     2
 10
57.9
 20
71.2
 30
0.0
 11
54.0
 21
71.2
 31
0.0
  0
LINE
  8
0
  6
CONTINUOUS
 62
     2
 10
54.0
 20
70.7
 30
0.0
 11
57.9
 21
70.7
 31
0.0
  0
LINE
  8
0
  6
CONTINUOUS
 62
     2
 10
57.9
 20
70.45
 30
0.0
 11
54.0
 21
70.45
 31
0.0
  0
CIRCLE
  8
0
  6
CONTINUOUS
 62
     2
 10
55.95
 20
68.25
 30
0.0
 40
1.375
  0
LINE
  8
0
  6
CONTINUOUS
 62
     2
 10
54.162471773
 20
66.750085724
 30
0.0
 11
57.449914276
 21
66.462471773
 31
0.0
  0
LINE
  8
0
  6
CONTINUOUS
 62
     2
 10
57.449914276
 20
66.462471773
 30
0.0
 11
57.737528227
 21
69.749914276
 31
0.0
  0
LINE
  8
0
  6
CONTINUOUS
 62
     2
 10
57.737528227
 20
69.749914276
 30
0.0
 11
54.450085724
 21
70.037528227
 31
0.0
  0
LINE
  8
0
  6
CONTINUOUS
 62
     2
 10
55.9
 20
69.9
 30
0.0
 11
55.85
 21
69.6
 31
0.0
  0
LINE
  8
0
  6
CONTINUOUS
 62
     2
 10
56.3
 20
69.85
 30
0.0
 11
56.3
 21
69.55
 31
0.0
  0
LINE
  8
0
  6
CONTINUOUS
 62
     2
 10
55.55
 20
66.925
 30
0.0
 11
55.55
 21
66.625
 31
0.0
  0
LINE
  8
0
  6
CONTINUOUS
 62
     2
 10
56.0
 20
66.875
 30
0.0
 11
55.9
 21
66.575
 31
0.0
  0
LINE
  8
0
  6
CONTINUOUS
 62
     2
 10
54.581274415
 20
68.118793013
 30
0.0
 11
55.156160173
 21
68.068497026
 31
0.0
  0
LINE
  8
0
  6
CONTINUOUS
 62
     2
 10
55.461130778
 20
66.964841689
 30
0.0
 11
55.519775755
 21
67.63515685
 31
0.0
  0
ARC
  8
0
  6
CONTINUOUS
 62
     2
 10
55.121297876
 20
67.670019147
 30
0.0
 40
0.4
 50
355.0
 51
85.0
  0
LINE
  8
0
  6
CONTINUOUS
 62
     2
 10
56.266921779
 20
67.569790043
 30
0.0
 11
56.208276801
 21
66.899474882
 31
0.0
  0
LINE
  8
0
  6
CONTINUOUS
 62
     2
 10
56.700261955
 20
67.933405625
 30
0.0
 11
57.275147713
 21
67.883109638
 31
0.0
  0
ARC
  8
0
  6
CONTINUOUS
 62
     2
 10
56.665399658
 20
67.534927746
 30
0.0
 40
0.4
 50
85.0
 51
175.0
  0
LINE
  8
0
  6
CONTINUOUS
 62
     2
 10
54.624852287
 20
68.616890362
 30
0.0
 11
55.199738045
 21
68.566594375
 31
0.0
  0
ARC
  8
0
  6
CONTINUOUS
 62
     2
 10
55.234600342
 20
68.965072254
 30
0.0
 40
0.4
 50
265.0
 51
355.0
  0
LINE
  8
0
  6
CONTINUOUS
 62
     2
 10
56.743839827
 20
68.431502974
 30
0.0
 11
57.318725585
 21
68.381206987
 31
0.0
  0
ARC
  8
0
  6
CONTINUOUS
 62
     2
 10
56.778702124
 20
68.829980853
 30
0.0
 40
0.4
 50
175.0
 51
265.0
  0
LINE
  8
0
  6
CONTINUOUS
 62
     2
 10
55.691723199
 20
69.600525118
 30
0.0
 11
55.633078221
 21
68.930209957
 31
0.0
  0
LINE
  8
0
  6
CONTINUOUS
 62
     2
 10
56.380224245
 20
68.86484315
 30
0.0
 11
56.438869222
 21
69.535158311
 31
0.0
  0
LINE
  8
0
  6
CONTINUOUS
 62
     2
 10
66.0
 20
71.7
 30
0.0
 11
62.1
 21
71.7
 31
0.0
  0
LINE
  8
0
  6
CONTINUOUS
 62
     2
 10
62.1
 20
71.2
 30
0.0
 11
66.0
 21
71.2
 31
0.0
  0
LINE
  8
0
  6
CONTINUOUS
 62
     2
 10
66.0
 20
70.7
 30
0.0
 11
62.1
 21
70.7
 31
0.0
  0
LINE
  8
0
  6
CONTINUOUS
 62
     2
 10
62.1
 20
70.45
 30
0.0
 11
66.0
 21
70.45
 31
0.0
  0
CIRCLE
  8
0
  6
CONTINUOUS
 62
     2
 10
64.05
 20
68.25
 30
0.0
 40
1.375
  0
LINE
  8
0
  6
CONTINUOUS
 62
     2
 10
65.837528227
 20
66.750085724
 30
0.0
 11
62.550085724
 21
66.462471773
 31
0.0
  0
LINE
  8
0
  6
CONTINUOUS
 62
     2
 10
62.550085724
 20
66.462471773
 30
0.0
 11
62.262471773
 21
69.749914276
 31
0.0
  0
LINE
  8
0
  6
CONTINUOUS
 62
     2
 10
62.262471773
 20
69.749914276
 30
0.0
 11
65.549914276
 21
70.037528227
 31
0.0
  0
LINE
  8
0
  6
CONTINUOUS
 62
     2
 10
64.1
 20
69.9
 30
0.0
 11
64.15
 21
69.6
 31
0.0
  0
LINE
  8
0
  6
CONTINUOUS
 62
     2
 10
63.7
 20
69.85
 30
0.0
 11
63.7
 21
69.55
 31
0.0
  0
LINE
  8
0
  6
CONTINUOUS
 62
     2
 10
64.45
 20
66.925
 30
0.0
 11
64.45
 21
66.625
 31
0.0
  0
LINE
  8
0
  6
CONTINUOUS
 62
     2
 10
64.0
 20
66.875
 30
0.0
 11
64.1
 21
66.575
 31
0.0
  0
LINE
  8
0
  6
CONTINUOUS
 62
     2
 10
65.418725585
 20
68.118793013
 30
0.0
 11
64.843839827
 21
68.068497026
 31
0.0
  0
LINE
  8
0
  6
CONTINUOUS
 62
     2
 10
64.538869222
 20
66.964841689
 30
0.0
 11
64.480224245
 21
67.63515685
 31
0.0
  0
ARC
  8
0
  6
CONTINUOUS
 62
     2
 10
64.878702124
 20
67.670019147
 30
0.0
 40
0.4
 50
95.0
 51
185.0
  0
LINE
  8
0
  6
CONTINUOUS
 62
     2
 10
63.733078221
 20
67.569790043
 30
0.0
 11
63.791723199
 21
66.899474882
 31
0.0
  0
LINE
  8
0
  6
CONTINUOUS
 62
     2
 10
63.299738045
 20
67.933405625
 30
0.0
 11
62.724852287
 21
67.883109638
 31
0.0
  0
ARC
  8
0
  6
CONTINUOUS
 62
     2
 10
63.334600342
 20
67.534927746
 30
0.0
 40
0.4
 50
5.0
 51
95.0
  0
LINE
  8
0
  6
CONTINUOUS
 62
     2
 10
65.375147713
 20
68.616890362
 30
0.0
 11
64.800261955
 21
68.566594375
 31
0.0
  0
ARC
  8
0
  6
CONTINUOUS
 62
     2
 10
64.765399658
 20
68.965072254
 30
0.0
 40
0.4
 50
185.0
 51
275.0
  0
LINE
  8
0
  6
CONTINUOUS
 62
     2
 10
63.256160173
 20
68.431502974
 30
0.0
 11
62.681274415
 21
68.381206987
 31
0.0
  0
ARC
  8
0
  6
CONTINUOUS
 62
     2
 10
63.221297876
 20
68.829980853
 30
0.0
 40
0.4
 50
275.0
 51
5.0
  0
LINE
  8
0
  6
CONTINUOUS
 62
     2
 10
64.308276801
 20
69.600525118
 30
0.0
 11
64.366921779
 21
68.930209957
 31
0.0
  0
LINE
  8
0
  6
CONTINUOUS
 62
     2
 10
63.619775755
 20
68.86484315
 30
0.0
 11
63.561130778
 21
69.535158311
 31
0.0
  0
LINE
  8
0
  6
CONTINUOUS
 62
     2
 10
71.2
 20
71.7
 30
0.0
 11
67.3
 21
71.7
 31
0.0
  0
LINE
  8
0
  6
CONTINUOUS
 62
     2
 10
67.3
 20
71.2
 30
0.0
 11
71.2
 21
71.2
 31
0.0
  0
LINE
  8
0
  6
CONTINUOUS
 62
     2
 10
71.2
 20
70.7
 30
0.0
 11
67.3
 21
70.7
 31
0.0
  0
LINE
  8
0
  6
CONTINUOUS
 62
     2
 10
67.3
 20
70.45
 30
0.0
 11
71.2
 21
70.45
 31
0.0
  0
CIRCLE
  8
0
  6
CONTINUOUS
 62
     2
 10
69.25
 20
68.25
 30
0.0
 40
1.375
  0
LINE
  8
0
  6
CONTINUOUS
 62
     2
 10
71.037528227
 20
66.750085724
 30
0.0
 11
67.750085724
 21
66.462471773
 31
0.0
  0
LINE
  8
0
  6
CONTINUOUS
 62
     2
 10
67.750085724
 20
66.462471773
 30
0.0
 11
67.462471773
 21
69.749914276
 31
0.0
  0
LINE
  8
0
  6
CONTINUOUS
 62
     2
 10
67.462471773
 20
69.749914276
 30
0.0
 11
70.749914276
 21
70.037528227
 31
0.0
  0
LINE
  8
0
  6
CONTINUOUS
 62
     2
 10
70.749914276
 20
70.037528227
 30
0.0
 11
71.037528227
 21
66.750085724
 31
0.0
  0
LINE
  8
0
  6
CONTINUOUS
 62
     2
 10
69.3
 20
69.9
 30
0.0
 11
69.35
 21
69.6
 31
0.0
  0
LINE
  8
0
  6
CONTINUOUS
 62
     2
 10
68.9
 20
69.85
 30
0.0
 11
68.9
 21
69.55
 31
0.0
  0
LINE
  8
0
  6
CONTINUOUS
 62
     2
 10
69.65
 20
66.925
 30
0.0
 11
69.65
 21
66.625
 31
0.0
  0
LINE
  8
0
  6
CONTINUOUS
 62
     2
 10
69.2
 20
66.875
 30
0.0
 11
69.3
 21
66.575
 31
0.0
  0
LINE
  8
0
  6
CONTINUOUS
 62
     2
 10
70.618725585
 20
68.118793013
 30
0.0
 11
70.043839827
 21
68.068497026
 31
0.0
  0
LINE
  8
0
  6
CONTINUOUS
 62
     2
 10
69.738869222
 20
66.964841689
 30
0.0
 11
69.680224245
 21
67.63515685
 31
0.0
  0
ARC
  8
0
  6
CONTINUOUS
 62
     2
 10
70.078702124
 20
67.670019147
 30
0.0
 40
0.4
 50
95.0
 51
185.0
  0
LINE
  8
0
  6
CONTINUOUS
 62
     2
 10
68.933078221
 20
67.569790043
 30
0.0
 11
68.991723199
 21
66.899474882
 31
0.0
  0
LINE
  8
0
  6
CONTINUOUS
 62
     2
 10
68.499738045
 20
67.933405625
 30
0.0
 11
67.924852287
 21
67.883109638
 31
0.0
  0
ARC
  8
0
  6
CONTINUOUS
 62
     2
 10
68.534600342
 20
67.534927746
 30
0.0
 40
0.4
 50
5.0
 51
95.0
  0
LINE
  8
0
  6
CONTINUOUS
 62
     2
 10
70.575147713
 20
68.616890362
 30
0.0
 11
70.000261955
 21
68.566594375
 31
0.0
  0
ARC
  8
0
  6
CONTINUOUS
 62
     2
 10
69.965399658
 20
68.965072254
 30
0.0
 40
0.4
 50
185.0
 51
275.0
  0
LINE
  8
0
  6
CONTINUOUS
 62
     2
 10
68.456160173
 20
68.431502974
 30
0.0
 11
67.881274415
 21
68.381206987
 31
0.0
  0
ARC
  8
0
  6
CONTINUOUS
 62
     2
 10
68.421297876
 20
68.829980853
 30
0.0
 40
0.4
 50
275.0
 51
5.0
  0
LINE
  8
0
  6
CONTINUOUS
 62
     2
 10
69.508276801
 20
69.600525118
 30
0.0
 11
69.566921779
 21
68.930209957
 31
0.0
  0
LINE
  8
0
  6
CONTINUOUS
 62
     2
 10
68.819775755
 20
68.86484315
 30
0.0
 11
68.761130778
 21
69.535158311
 31
0.0
  0
LINE
  8
0
  6
CONTINUOUS
 62
     2
 10
65.549914276
 20
70.037528227
 30
0.0
 11
65.837528227
 21
66.750085724
 31
0.0
  0
LINE
  8
0
  6
CONTINUOUS
 62
     2
 10
54.450085724
 20
70.037528227
 30
0.0
 11
54.162471773
 21
66.750085724
 31
0.0
  0
LINE
  8
0
  6
CONTINUOUS
 62
     2
 10
65.549914276
 20
39.962471773
 30
0.0
 11
65.837528227
 21
43.249914276
 31
0.0
  0
ARC
  8
0
  6
CONTINUOUS
 62
     2
 10
46.984375
 20
72.125
 30
0.0
 40
1.015625
 50
300.510237406
 51
59.489762594
  0
ARC
  8
0
  6
CONTINUOUS
 62
     2
 10
73.015625
 20
72.125
 30
0.0
 40
1.015625
 50
120.510237406
 51
239.489762594
  0
ARC
  8
0
  6
CONTINUOUS
 62
     2
 10
73.015625
 20
37.875
 30
0.0
 40
1.015625
 50
120.510237406
 51
239.489762594
  0
ARC
  8
0
  6
CONTINUOUS
 62
     2
 10
46.984375
 20
37.875
 30
0.0
 40
1.015625
 50
300.510237406
 51
59.489762594
  0
TEXT
  8
0
  6
CONTINUOUS
 62
     2
 10
50.1
 20
44.6
 30
0.15
 40
1.5
  1
７
 50
0.0
 41
0.9
 51
0.0
  7
KANJI4
  0
TEXT
  8
0
  6
CONTINUOUS
 62
     2
 10
55.3
 20
44.6
 30
0.15
 40
1.5
  1
８
 50
0.0
 41
0.9
 51
0.0
  7
KANJI4
  0
TEXT
  8
0
  6
CONTINUOUS
 62
     2
 10
63.4
 20
44.6
 30
0.15
 40
1.5
  1
１
 50
0.0
 41
0.9
 51
0.0
  7
KANJI4
  0
TEXT
  8
0
  6
CONTINUOUS
 62
     2
 10
68.6
 20
44.6
 30
0.15
 40
1.5
  1
２
 50
0.0
 41
0.9
 51
0.0
  7
KANJI4
  0
TEXT
  8
0
  6
CONTINUOUS
 62
     2
 10
50.1
 20
64.1
 30
0.15
 40
1.5
  1
６
 50
0.0
 41
0.9
 51
0.0
  7
KANJI4
  0
TEXT
  8
0
  6
CONTINUOUS
 62
     2
 10
55.3
 20
64.1
 30
0.15
 40
1.5
  1
５
 50
0.0
 41
0.9
 51
0.0
  7
KANJI4
  0
TEXT
  8
0
  6
CONTINUOUS
 62
     2
 10
63.4
 20
64.1
 30
0.15
 40
1.5
  1
４
 50
0.0
 41
0.9
 51
0.0
  7
KANJI4
  0
TEXT
  8
0
  6
CONTINUOUS
 62
     2
 10
68.6
 20
64.1
 30
0.15
 40
1.5
  1
３
 50
0.0
 41
0.9
 51
0.0
  7
KANJI4
  0
LINE
  8
0
  6
CONTINUOUS
 62
     2
 10
57.5
 20
33.0
 30
0.0
 11
36.5
 21
33.0
 31
0.0
  0
LINE
  8
0
  6
CONTINUOUS
 62
     2
 10
53.0
 20
35.0
 30
0.0
 11
36.5
 21
35.0
 31
0.0
  0
LINE
  8
0
  6
CONTINUOUS
 62
     2
 10
50.0
 20
60.0
 30
0.0
 11
50.0
 21
85.0
 31
0.0
  0
LINE
  8
0
  6
CONTINUOUS
 62
     2
 10
47.5
 20
74.5
 30
0.0
 11
47.5
 21
90.0
 31
0.0
  0
LINE
  8
0
  6
CONTINUOUS
 62
     2
 10
70.0
 20
60.0
 30
0.0
 11
70.0
 21
85.0
 31
0.0
  0
LINE
  8
0
  6
CONTINUOUS
 62
     2
 10
72.5
 20
74.5
 30
0.0
 11
72.5
 21
90.0
 31
0.0
  0
LINE
  8
0
  6
CONTINUOUS
 62
     2
 10
57.0
 20
75.0
 30
0.0
 11
36.5
 21
75.0
 31
0.0
  0
LINE
  8
0
  6
CONTINUOUS
 62
     2
 10
76.5
 20
28.0
 30
0.0
 11
96.5
 21
28.0
 31
0.0
  0
TEXT
  8
0
  6
CONTINUOUS
 62
     2
 10
76.5
 20
29.0
 30
0.0
 40
3.0
  1
端子ネジＭ３．５
 50
0.0
 41
0.9
 51
0.0
  7
KANJI5
  0
LINE
  8
0
  6
CONTINUOUS
 62
     2
 10
76.5
 20
61.5
 30
0.0
 11
89.1
 21
61.5
 31
0.0
  0
TEXT
  8
0
  6
CONTINUOUS
 62
     2
 10
76.5
 20
62.5
 30
0.0
 40
3.0
  1
２－φ４．５穴
 50
0.0
 41
0.6
 51
0.0
  7
KANJI6
  0
LINE
  8
0
  6
CONTINUOUS
 62
     2
 10
155.0
 20
125.5
 30
0.0
 11
155.647047613
 21
127.914814566
 31
0.0
  0
LINE
  8
0
  6
CONTINUOUS
 62
     2
 10
155.0
 20
125.5
 30
0.0
 11
154.352952387
 21
127.914814566
 31
0.0
  0
LINE
  8
0
  6
CONTINUOUS
 62
     2
 10
155.0
 20
125.5
 30
0.0
 11
155.0
 21
164.5
 31
0.0
  0
LINE
  8
0
  6
CONTINUOUS
 62
     2
 10
155.0
 20
164.5
 30
0.0
 11
154.352952387
 21
162.085185434
 31
0.0
  0
LINE
  8
0
  6
CONTINUOUS
 62
     2
 10
155.0
 20
164.5
 30
0.0
 11
155.647047613
 21
162.085185434
 31
0.0
  0
TEXT
  8
0
  6
CONTINUOUS
 62
     2
 10
154.0
 20
142.75
 30
0.5
 40
3.0
  1
７８
 50
90.0
 41
0.666666667
 51
0.0
  7
KANJI3
  0
LINE
  8
0
  6
CONTINUOUS
 62
     2
 10
167.0
 20
164.5
 30
0.0
 11
153.0
 21
164.5
 31
0.0
  0
LINE
  8
0
  6
CONTINUOUS
 62
     2
 10
167.0
 20
125.5
 30
0.0
 11
153.0
 21
125.5
 31
0.0
  0
LINE
  8
0
  6
CONTINUOUS
 62
     2
 10
140.0
 20
172.5
 30
0.0
 11
137.585185434
 21
173.147047613
 31
0.0
  0
LINE
  8
0
  6
CONTINUOUS
 62
     2
 10
140.0
 20
172.5
 30
0.0
 11
137.585185434
 21
171.852952387
 31
0.0
  0
LINE
  8
0
  6
CONTINUOUS
 62
     2
 10
90.0
 20
172.5
 30
0.0
 11
92.414814566
 21
171.852952387
 31
0.0
  0
TEXT
  8
0
  6
CONTINUOUS
 62
     2
 10
111.5
 20
173.5
 30
0.5
 40
3.0
  1
１００
 50
0.0
 41
0.666666667
 51
0.0
  7
KANJI3
  0
LINE
  8
0
  6
CONTINUOUS
 62
     2
 10
90.0
 20
172.5
 30
0.0
 11
92.414814566
 21
173.147047613
 31
0.0
  0
LINE
  8
0
  6
CONTINUOUS
 62
     2
 10
85.0
 20
172.5
 30
0.0
 11
82.585185434
 21
173.147047613
 31
0.0
  0
LINE
  8
0
  6
CONTINUOUS
 62
     2
 10
85.0
 20
172.5
 30
0.0
 11
82.585185434
 21
171.852952387
 31
0.0
  0
TEXT
  8
0
  6
CONTINUOUS
 62
     2
 10
85.25
 20
173.5
 30
0.5
 40
3.0
  1
１０
 50
0.0
 41
0.666666667
 51
0.0
  7
KANJI3
  0
LINE
  8
0
  6
CONTINUOUS
 62
     2
 10
140.0
 20
172.5
 30
0.0
 11
80.0
 21
172.5
 31
0.0
  0
LINE
  8
0
  6
CONTINUOUS
 62
     2
 10
85.0
 20
179.5
 30
0.0
 11
87.414814566
 21
178.852952387
 31
0.0
  0
LINE
  8
0
  6
CONTINUOUS
 62
     2
 10
85.0
 20
179.5
 30
0.0
 11
87.414814566
 21
180.147047613
 31
0.0
  0
LINE
  8
0
  6
CONTINUOUS
 62
     2
 10
85.0
 20
179.5
 30
0.0
 11
140.0
 21
179.5
 31
0.0
  0
LINE
  8
0
  6
CONTINUOUS
 62
     2
 10
140.0
 20
179.5
 30
0.0
 11
137.585185434
 21
180.147047613
 31
0.0
  0
LINE
  8
0
  6
CONTINUOUS
 62
     2
 10
140.0
 20
179.5
 30
0.0
 11
137.585185434
 21
178.852952387
 31
0.0
  0
TEXT
  8
0
  6
CONTINUOUS
 62
     2
 10
109.0
 20
180.5
 30
0.5
 40
3.0
  1
１１０
 50
0.0
 41
0.666666667
 51
0.0
  7
KANJI3
  0
LINE
  8
0
  6
CONTINUOUS
 62
     2
 10
140.0
 20
165.5
 30
0.0
 11
140.0
 21
181.5
 31
0.0
  0
LINE
  8
0
  6
CONTINUOUS
 62
     2
 10
85.0
 20
147.5
 30
0.0
 11
85.0
 21
181.5
 31
0.0
  0
LINE
  8
0
  6
CONTINUOUS
 62
     2
 10
148.0
 20
83.0
 30
0.0
 11
150.414814566
 21
82.352952387
 31
0.0
  0
LINE
  8
0
  6
CONTINUOUS
 62
     2
 10
148.0
 20
83.0
 30
0.0
 11
150.414814566
 21
83.647047613
 31
0.0
  0
LINE
  8
0
  6
CONTINUOUS
 62
     2
 10
148.0
 20
83.0
 30
0.0
 11
208.0
 21
83.0
 31
0.0
  0
LINE
  8
0
  6
CONTINUOUS
 62
     2
 10
208.0
 20
83.0
 30
0.0
 11
205.585185434
 21
83.647047613
 31
0.0
  0
LINE
  8
0
  6
CONTINUOUS
 62
     2
 10
208.0
 20
83.0
 30
0.0
 11
205.585185434
 21
82.352952387
 31
0.0
  0
TEXT
  8
0
  6
CONTINUOUS
 62
     2
 10
169.5
 20
84.0
 30
0.5
 40
3.0
  1
ｍａｘ．１２２
 50
0.0
 41
0.666666667
 51
0.0
  7
KANJI3
  0
LINE
  8
0
  6
CONTINUOUS
 62
     2
 10
105.0
 20
88.0
 30
0.0
 11
107.414814566
 21
87.352952387
 31
0.0
  0
LINE
  8
0
  6
CONTINUOUS
 62
     2
 10
105.0
 20
88.0
 30
0.0
 11
107.414814566
 21
88.647047613
 31
0.0
  0
LINE
  8
0
  6
CONTINUOUS
 62
     2
 10
105.0
 20
88.0
 30
0.0
 11
116.75
 21
88.0
 31
0.0
  0
LINE
  8
0
  6
CONTINUOUS
 62
     2
 10
116.75
 20
88.0
 30
0.0
 11
114.335185434
 21
88.647047613
 31
0.0
  0
LINE
  8
0
  6
CONTINUOUS
 62
     2
 10
116.75
 20
88.0
 30
0.0
 11
114.335185434
 21
87.352952387
 31
0.0
  0
TEXT
  8
0
  6
CONTINUOUS
 62
     2
 10
106.125
 20
89.0
 30
0.5
 40
3.0
  1
２３．５
 50
0.0
 41
0.666666667
 51
0.0
  7
KANJI3
  0
LINE
  8
0
  6
CONTINUOUS
 62
     2
 10
116.75
 20
83.0
 30
0.0
 11
119.164814566
 21
82.352952387
 31
0.0
  0
LINE
  8
0
  6
CONTINUOUS
 62
     2
 10
116.75
 20
83.0
 30
0.0
 11
119.164814566
 21
83.647047613
 31
0.0
  0
LINE
  8
0
  6
CONTINUOUS
 62
     2
 10
114.75
 20
83.0
 30
0.0
 11
112.335185434
 21
83.647047613
 31
0.0
  0
LINE
  8
0
  6
CONTINUOUS
 62
     2
 10
114.75
 20
83.0
 30
0.0
 11
112.335185434
 21
82.352952387
 31
0.0
  0
LINE
  8
0
  6
CONTINUOUS
 62
     2
 10
47.5
 20
88.0
 30
0.0
 11
49.914814566
 21
87.352952387
 31
0.0
  0
LINE
  8
0
  6
CONTINUOUS
 62
     2
 10
47.5
 20
88.0
 30
0.0
 11
49.914814566
 21
88.647047613
 31
0.0
  0
LINE
  8
0
  6
CONTINUOUS
 62
     2
 10
47.5
 20
88.0
 30
0.0
 11
72.5
 21
88.0
 31
0.0
  0
LINE
  8
0
  6
CONTINUOUS
 62
     2
 10
72.5
 20
88.0
 30
0.0
 11
70.085185434
 21
88.647047613
 31
0.0
  0
LINE
  8
0
  6
CONTINUOUS
 62
     2
 10
72.5
 20
88.0
 30
0.0
 11
70.085185434
 21
87.352952387
 31
0.0
  0
TEXT
  8
0
  6
CONTINUOUS
 62
     2
 10
57.75
 20
89.0
 30
0.5
 40
3.0
  1
５０
 50
0.0
 41
0.666666667
 51
0.0
  7
KANJI3
  0
LINE
  8
0
  6
CONTINUOUS
 62
     2
 10
50.0
 20
83.0
 30
0.0
 11
52.414814566
 21
82.352952387
 31
0.0
  0
LINE
  8
0
  6
CONTINUOUS
 62
     2
 10
50.0
 20
83.0
 30
0.0
 11
52.414814566
 21
83.647047613
 31
0.0
  0
LINE
  8
0
  6
CONTINUOUS
 62
     2
 10
50.0
 20
83.0
 30
0.0
 11
70.0
 21
83.0
 31
0.0
  0
LINE
  8
0
  6
CONTINUOUS
 62
     2
 10
70.0
 20
83.0
 30
0.0
 11
67.585185434
 21
83.647047613
 31
0.0
  0
LINE
  8
0
  6
CONTINUOUS
 62
     2
 10
70.0
 20
83.0
 30
0.0
 11
67.585185434
 21
82.352952387
 31
0.0
  0
TEXT
  8
0
  6
CONTINUOUS
 62
     2
 10
54.9
 20
84.0
 30
0.5
 40
3.0
  1
４０
 50
0.0
 41
0.666666667
 51
0.0
  7
KANJI3
  0
TEXT
  8
0
  6
CONTINUOUS
 62
     2
 10
59.4
 20
84.0
 30
0.3
 40
1.8
  1
±０．２
 50
0.0
 41
0.666666667
 51
0.0
  7
KANJI7
  0
LINE
  8
0
  6
CONTINUOUS
 62
     2
 10
38.5
 20
35.0
 30
0.0
 11
39.147047613
 21
37.414814566
 31
0.0
  0
LINE
  8
0
  6
CONTINUOUS
 62
     2
 10
38.5
 20
75.0
 30
0.0
 11
37.852952387
 21
72.585185434
 31
0.0
  0
LINE
  8
0
  6
CONTINUOUS
 62
     2
 10
38.5
 20
75.0
 30
0.0
 11
39.147047613
 21
72.585185434
 31
0.0
  0
TEXT
  8
0
  6
CONTINUOUS
 62
     2
 10
37.5
 20
52.75
 30
0.5
 40
3.0
  1
８０
 50
90.0
 41
0.666666667
 51
0.0
  7
KANJI3
  0
LINE
  8
0
  6
CONTINUOUS
 62
     2
 10
38.5
 20
35.0
 30
0.0
 11
37.852952387
 21
37.414814566
 31
0.0
  0
LINE
  8
0
  6
CONTINUOUS
 62
     2
 10
38.5
 20
33.0
 30
0.0
 11
37.852952387
 21
30.585185434
 31
0.0
  0
LINE
  8
0
  6
CONTINUOUS
 62
     2
 10
38.5
 20
33.0
 30
0.0
 11
39.147047613
 21
30.585185434
 31
0.0
  0
TEXT
  8
0
  6
CONTINUOUS
 62
     2
 10
37.5
 20
28.0
 30
0.5
 40
3.0
  1
４
 50
90.0
 41
0.666666667
 51
0.0
  7
KANJI3
  0
LINE
  8
0
  6
CONTINUOUS
 62
     2
 10
38.5
 20
28.0
 30
0.0
 11
38.5
 21
75.0
 31
0.0
  0
LINE
  8
0
  6
CONTINUOUS
 62
     2
 10
130.0
 20
63.75
 30
0.0
 11
129.352952387
 21
61.335185434
 31
0.0
  0
LINE
  8
0
  6
CONTINUOUS
 62
     2
 10
130.0
 20
63.75
 30
0.0
 11
130.647047613
 21
61.335185434
 31
0.0
  0
LINE
  8
0
  6
CONTINUOUS
 62
     2
 10
130.0
 20
63.75
 30
0.0
 11
130.0
 21
46.25
 31
0.0
  0
LINE
  8
0
  6
CONTINUOUS
 62
     2
 10
130.0
 20
46.25
 30
0.0
 11
130.647047613
 21
48.664814566
 31
0.0
  0
LINE
  8
0
  6
CONTINUOUS
 62
     2
 10
130.0
 20
46.25
 30
0.0
 11
129.352952387
 21
48.664814566
 31
0.0
  0
TEXT
  8
0
  6
CONTINUOUS
 62
     2
 10
129.0
 20
50.25
 30
0.5
 40
3.0
  1
３５．４
 50
90.0
 41
0.666666667
 51
0.0
  7
KANJI3
  0
TEXT
  8
0
  6
CONTINUOUS
 62
     1
 10
30.0
 20
100.0
 30
0.4
 40
4.0
  1
ソケット
 50
0.0
 41
0.9
 51
0.0
  7
KANJI8
  0
TEXT
  8
0
  6
CONTINUOUS
 62
     1
 10
150.0
 20
100.0
 30
0.4
 40
4.0
  1
ソケットに本体を取付けた状態
 50
0.0
 41
0.9
 51
0.0
  7
KANJI8
  0
LINE
  8
0
  6
CONTINUOUS
 62
     2
 10
109.5
 20
57.625
 30
0.0
 11
109.5
 21
85.0
 31
0.0
  0
LINE
  8
0
  6
CONTINUOUS
 62
     2
 10
105.0
 20
80.0
 30
0.0
 11
102.585185434
 21
80.647047613
 31
0.0
  0
LINE
  8
0
  6
CONTINUOUS
 62
     2
 10
105.0
 20
80.0
 30
0.0
 11
102.585185434
 21
79.352952387
 31
0.0
  0
LINE
  8
0
  6
CONTINUOUS
 62
     2
 10
109.5
 20
80.0
 30
0.0
 11
111.914814566
 21
79.352952387
 31
0.0
  0
LINE
  8
0
  6
CONTINUOUS
 62
     2
 10
109.5
 20
80.0
 30
0.0
 11
111.914814566
 21
80.647047613
 31
0.0
  0
LINE
  8
0
  6
CONTINUOUS
 62
     2
 10
101.0
 20
80.0
 30
0.0
 11
113.5
 21
80.0
 31
0.0
  0
TEXT
  8
0
  6
CONTINUOUS
 62
     2
 10
105.2
 20
81.0
 30
0.5
 40
3.0
  1
５
 50
0.0
 41
0.666666667
 51
0.0
  7
KANJI3
  0
TEXT
  8
0
  6
CONTINUOUS
 62
     2
 10
107.6
 20
81.0
 30
0.5
 40
3.0
  1
４
 50
0.0
 41
0.666666667
 51
0.0
  7
KANJI3
  0
TEXT
  8
0
  6
CONTINUOUS
 62
     2
 10
114.85
 20
84.0
 30
0.5
 40
3.0
  1
４
 50
0.0
 41
0.666666667
 51
0.0
  7
KANJI3
  0
LINE
  8
0
  6
CONTINUOUS
 62
     2
 10
120.75
 20
83.0
 30
0.0
 11
110.75
 21
83.0
 31
0.0
  0
TEXT
  8
0
  6
CONTINUOUS
 62
     1
 10
30.0
 20
180.0
 30
0.4
 40
4.0
  1
ＧＰシリーズ本体
 50
0.0
 41
0.9
 51
0.0
  7
KANJI8
  0
POINT
  8
0
  6
CONTINUOUS
 62
     1
 10
188.33
 20
145.0
 30
0.0
  0
LINE
  8
0
  6
CONTINUOUS
 62
     1
 10
188.33
 20
159.994
 30
0.0
 11
188.33
 21
140.002
 31
0.0
  0
LINE
  8
0
  6
CONTINUOUS
 62
     1
 10
188.33
 20
140.002
 30
0.0
 11
171.67
 21
140.002
 31
0.0
  0
LINE
  8
0
  6
CONTINUOUS
 62
     1
 10
171.67
 20
140.002
 30
0.0
 11
171.67
 21
159.994
 31
0.0
  0
LINE
  8
0
  6
CONTINUOUS
 62
     1
 10
171.67
 20
159.994
 30
0.0
 11
188.33
 21
159.994
 31
0.0
  0
TEXT
  8
0
  6
CONTINUOUS
 62
     1
 10
235.0
 20
41.0
 30
0.4
 40
4.0
  1
ＲＢＧＰ－□（Ｄ）
 50
0.0
 41
0.9
 51
0.0
  7
KANJI9
  0
TEXT
  8
0
  6
CONTINUOUS
 62
     1
 10
235.0
 20
32.0
 30
0.4
 40
4.0
  1
パレスアイソレータ　外形図
 50
0.0
 41
0.875
 51
0.0
  7
KANJI10
  0
ENDSEC
  0
EOF
