  0
SECTION
  2
HEADER
  9
$ACADVER
  1
AC1009
  9
$DWGCODEPAGE
  3
dos932
  9
$EXTMIN
 10
0.0
 20
0.0
 30
0.0
  9
$EXTMAX
 10
297.0
 20
210.0
 30
0.0
  9
$LIMMIN
 10
0.0
 20
0.0
  9
$LIMMAX
 10
297.0
 20
210.0
  9
$LTSCALE
 40
1.0
  9
$PDMODE
 70
     0
  0
ENDSEC
  0
SECTION
  2
TABLES
  0
TABLE
  2
VPORT
 70
     1
  0
VPORT
  2
*ACTIVE
 70
     0
 10
0.0
 20
0.0
 11
1.0
 21
1.0
 12
148.5
 22
105.0
 13
0.0
 23
0.0
 14
10.0
 24
10.0
 15
10.0
 25
10.0
 16
0.0
 26
0.0
 36
1.0
 17
0.0
 27
0.0
 37
0.0
 40
297.0
 41
1.414285714
 42
50.0
 43
0.0
 44
0.0
 50
0.0
 51
0.0
 71
     0
 72
  1000
 73
     1
 74
     3
 75
     0
 76
     0
 77
     0
 78
     0
  0
ENDTAB
  0
TABLE
  2
LTYPE
 70
     2
  0
LTYPE
  2
CONTINUOUS
 70
    64
  3
Solid line
 72
    65
 73
     0
 40
0.0
  0
LTYPE
  2
LTYPE1
 70
    64
  3
CENTER
 72
    65
 73
     4
 40
5.0
 49
3.5
 49
-0.5
 49
0.5
 49
-0.5
  0
ENDTAB
  0
TABLE
  2
LAYER
 70
   128
  0
LAYER
  2
0
 70
     0
 62
     7
  6
CONTINUOUS
  0
LAYER
  2
2
 70
     0
 62
     7
  6
CONTINUOUS
  0
LAYER
  2
3
 70
     0
 62
     7
  6
CONTINUOUS
  0
LAYER
  2
4
 70
     0
 62
     7
  6
CONTINUOUS
  0
LAYER
  2
5
 70
     0
 62
     7
  6
CONTINUOUS
  0
LAYER
  2
6
 70
     0
 62
     7
  6
CONTINUOUS
  0
LAYER
  2
7
 70
     0
 62
     7
  6
CONTINUOUS
  0
LAYER
  2
8
 70
     0
 62
     7
  6
CONTINUOUS
  0
LAYER
  2
9
 70
     0
 62
     7
  6
CONTINUOUS
  0
LAYER
  2
10
 70
     0
 62
     7
  6
CONTINUOUS
  0
LAYER
  2
11
 70
     0
 62
     7
  6
CONTINUOUS
  0
LAYER
  2
12
 70
     0
 62
     7
  6
CONTINUOUS
  0
LAYER
  2
13
 70
     0
 62
     7
  6
CONTINUOUS
  0
LAYER
  2
14
 70
     0
 62
     7
  6
CONTINUOUS
  0
LAYER
  2
15
 70
     0
 62
     7
  6
CONTINUOUS
  0
LAYER
  2
16
 70
     0
 62
     7
  6
CONTINUOUS
  0
LAYER
  2
17
 70
     0
 62
     7
  6
CONTINUOUS
  0
LAYER
  2
18
 70
     0
 62
     7
  6
CONTINUOUS
  0
LAYER
  2
19
 70
     0
 62
     7
  6
CONTINUOUS
  0
LAYER
  2
20
 70
     0
 62
     7
  6
CONTINUOUS
  0
LAYER
  2
21
 70
     0
 62
     7
  6
CONTINUOUS
  0
LAYER
  2
22
 70
     0
 62
     7
  6
CONTINUOUS
  0
LAYER
  2
23
 70
     0
 62
     7
  6
CONTINUOUS
  0
LAYER
  2
24
 70
     0
 62
     7
  6
CONTINUOUS
  0
LAYER
  2
25
 70
     0
 62
     7
  6
CONTINUOUS
  0
LAYER
  2
26
 70
     0
 62
     7
  6
CONTINUOUS
  0
LAYER
  2
27
 70
     0
 62
     7
  6
CONTINUOUS
  0
LAYER
  2
28
 70
     0
 62
     7
  6
CONTINUOUS
  0
LAYER
  2
29
 70
     0
 62
     7
  6
CONTINUOUS
  0
LAYER
  2
30
 70
     0
 62
     7
  6
CONTINUOUS
  0
LAYER
  2
31
 70
     0
 62
     7
  6
CONTINUOUS
  0
LAYER
  2
32
 70
     0
 62
     7
  6
CONTINUOUS
  0
LAYER
  2
33
 70
     0
 62
     7
  6
CONTINUOUS
  0
LAYER
  2
34
 70
     0
 62
     7
  6
CONTINUOUS
  0
LAYER
  2
35
 70
     0
 62
     7
  6
CONTINUOUS
  0
LAYER
  2
36
 70
     0
 62
     7
  6
CONTINUOUS
  0
LAYER
  2
37
 70
     0
 62
     7
  6
CONTINUOUS
  0
LAYER
  2
38
 70
     0
 62
     7
  6
CONTINUOUS
  0
LAYER
  2
39
 70
     0
 62
     7
  6
CONTINUOUS
  0
LAYER
  2
40
 70
     0
 62
     7
  6
CONTINUOUS
  0
LAYER
  2
41
 70
     0
 62
     7
  6
CONTINUOUS
  0
LAYER
  2
42
 70
     0
 62
     7
  6
CONTINUOUS
  0
LAYER
  2
43
 70
     0
 62
     7
  6
CONTINUOUS
  0
LAYER
  2
44
 70
     0
 62
     7
  6
CONTINUOUS
  0
LAYER
  2
45
 70
     0
 62
     7
  6
CONTINUOUS
  0
LAYER
  2
46
 70
     0
 62
     7
  6
CONTINUOUS
  0
LAYER
  2
47
 70
     0
 62
     7
  6
CONTINUOUS
  0
LAYER
  2
48
 70
     0
 62
     7
  6
CONTINUOUS
  0
LAYER
  2
49
 70
     0
 62
     7
  6
CONTINUOUS
  0
LAYER
  2
50
 70
     0
 62
     7
  6
CONTINUOUS
  0
LAYER
  2
51
 70
     0
 62
     7
  6
CONTINUOUS
  0
LAYER
  2
52
 70
     0
 62
     7
  6
CONTINUOUS
  0
LAYER
  2
53
 70
     0
 62
     7
  6
CONTINUOUS
  0
LAYER
  2
54
 70
     0
 62
     7
  6
CONTINUOUS
  0
LAYER
  2
55
 70
     0
 62
     7
  6
CONTINUOUS
  0
LAYER
  2
56
 70
     0
 62
     7
  6
CONTINUOUS
  0
LAYER
  2
57
 70
     0
 62
     7
  6
CONTINUOUS
  0
LAYER
  2
58
 70
     0
 62
     7
  6
CONTINUOUS
  0
LAYER
  2
59
 70
     0
 62
     7
  6
CONTINUOUS
  0
LAYER
  2
60
 70
     0
 62
     7
  6
CONTINUOUS
  0
LAYER
  2
61
 70
     0
 62
     7
  6
CONTINUOUS
  0
LAYER
  2
62
 70
     0
 62
     7
  6
CONTINUOUS
  0
LAYER
  2
63
 70
     0
 62
     7
  6
CONTINUOUS
  0
LAYER
  2
64
 70
     0
 62
     7
  6
CONTINUOUS
  0
LAYER
  2
65
 70
     0
 62
     7
  6
CONTINUOUS
  0
LAYER
  2
66
 70
     0
 62
     7
  6
CONTINUOUS
  0
LAYER
  2
67
 70
     0
 62
     7
  6
CONTINUOUS
  0
LAYER
  2
68
 70
     0
 62
     7
  6
CONTINUOUS
  0
LAYER
  2
69
 70
     0
 62
     7
  6
CONTINUOUS
  0
LAYER
  2
70
 70
     0
 62
     7
  6
CONTINUOUS
  0
LAYER
  2
71
 70
     0
 62
     7
  6
CONTINUOUS
  0
LAYER
  2
72
 70
     0
 62
     7
  6
CONTINUOUS
  0
LAYER
  2
73
 70
     0
 62
     7
  6
CONTINUOUS
  0
LAYER
  2
74
 70
     0
 62
     7
  6
CONTINUOUS
  0
LAYER
  2
75
 70
     0
 62
     7
  6
CONTINUOUS
  0
LAYER
  2
76
 70
     0
 62
     7
  6
CONTINUOUS
  0
LAYER
  2
77
 70
     0
 62
     7
  6
CONTINUOUS
  0
LAYER
  2
78
 70
     0
 62
     7
  6
CONTINUOUS
  0
LAYER
  2
79
 70
     0
 62
     7
  6
CONTINUOUS
  0
LAYER
  2
80
 70
     0
 62
     7
  6
CONTINUOUS
  0
LAYER
  2
81
 70
     0
 62
     7
  6
CONTINUOUS
  0
LAYER
  2
82
 70
     0
 62
     7
  6
CONTINUOUS
  0
LAYER
  2
83
 70
     0
 62
     7
  6
CONTINUOUS
  0
LAYER
  2
84
 70
     0
 62
     7
  6
CONTINUOUS
  0
LAYER
  2
85
 70
     0
 62
     7
  6
CONTINUOUS
  0
LAYER
  2
86
 70
     0
 62
     7
  6
CONTINUOUS
  0
LAYER
  2
87
 70
     0
 62
     7
  6
CONTINUOUS
  0
LAYER
  2
88
 70
     0
 62
     7
  6
CONTINUOUS
  0
LAYER
  2
89
 70
     0
 62
     7
  6
CONTINUOUS
  0
LAYER
  2
90
 70
     0
 62
     7
  6
CONTINUOUS
  0
LAYER
  2
91
 70
     0
 62
     7
  6
CONTINUOUS
  0
LAYER
  2
92
 70
     0
 62
     7
  6
CONTINUOUS
  0
LAYER
  2
93
 70
     0
 62
     7
  6
CONTINUOUS
  0
LAYER
  2
94
 70
     0
 62
     7
  6
CONTINUOUS
  0
LAYER
  2
95
 70
     0
 62
     7
  6
CONTINUOUS
  0
LAYER
  2
96
 70
     0
 62
     7
  6
CONTINUOUS
  0
LAYER
  2
97
 70
     0
 62
     7
  6
CONTINUOUS
  0
LAYER
  2
98
 70
     0
 62
     7
  6
CONTINUOUS
  0
LAYER
  2
99
 70
     0
 62
     7
  6
CONTINUOUS
  0
LAYER
  2
100
 70
     0
 62
     7
  6
CONTINUOUS
  0
LAYER
  2
101
 70
     0
 62
     7
  6
CONTINUOUS
  0
LAYER
  2
102
 70
     0
 62
     7
  6
CONTINUOUS
  0
LAYER
  2
103
 70
     0
 62
     7
  6
CONTINUOUS
  0
LAYER
  2
104
 70
     0
 62
     7
  6
CONTINUOUS
  0
LAYER
  2
105
 70
     0
 62
     7
  6
CONTINUOUS
  0
LAYER
  2
106
 70
     0
 62
     7
  6
CONTINUOUS
  0
LAYER
  2
107
 70
     0
 62
     7
  6
CONTINUOUS
  0
LAYER
  2
108
 70
     0
 62
     7
  6
CONTINUOUS
  0
LAYER
  2
109
 70
     0
 62
     7
  6
CONTINUOUS
  0
LAYER
  2
110
 70
     0
 62
     7
  6
CONTINUOUS
  0
LAYER
  2
111
 70
     0
 62
     7
  6
CONTINUOUS
  0
LAYER
  2
112
 70
     0
 62
     7
  6
CONTINUOUS
  0
LAYER
  2
113
 70
     0
 62
     7
  6
CONTINUOUS
  0
LAYER
  2
114
 70
     0
 62
     7
  6
CONTINUOUS
  0
LAYER
  2
115
 70
     0
 62
     7
  6
CONTINUOUS
  0
LAYER
  2
116
 70
     0
 62
     7
  6
CONTINUOUS
  0
LAYER
  2
117
 70
     0
 62
     7
  6
CONTINUOUS
  0
LAYER
  2
118
 70
     0
 62
     7
  6
CONTINUOUS
  0
LAYER
  2
119
 70
     0
 62
     7
  6
CONTINUOUS
  0
LAYER
  2
120
 70
     0
 62
     7
  6
CONTINUOUS
  0
LAYER
  2
121
 70
     0
 62
     7
  6
CONTINUOUS
  0
LAYER
  2
122
 70
     0
 62
     7
  6
CONTINUOUS
  0
LAYER
  2
123
 70
     0
 62
     7
  6
CONTINUOUS
  0
LAYER
  2
124
 70
     0
 62
     7
  6
CONTINUOUS
  0
LAYER
  2
125
 70
     0
 62
     7
  6
CONTINUOUS
  0
LAYER
  2
126
 70
     0
 62
     7
  6
CONTINUOUS
  0
LAYER
  2
127
 70
     0
 62
     7
  6
CONTINUOUS
  0
LAYER
  2
128
 70
     0
 62
     7
  6
CONTINUOUS
  0
ENDTAB
  0
TABLE
  2
STYLE
 70
    10
  0
STYLE
  2
STANDARD
 70
     0
 40
0.0
 41
1.0
 50
0.0
 71
     0
 42
0.2
  3
txt.shx
  4
extfont.shx
  0
STYLE
  2
KANJI0
 70
     0
 40
1.0
 41
0.8
 50
0.0
 71
     0
 42
1.0
  3
txt.shx
  4
extfont.shx
  0
STYLE
  2
KANJI1
 70
     0
 40
1.5
 41
0.9
 50
0.0
 71
     0
 42
1.5
  3
txt.shx
  4
extfont.shx
  0
STYLE
  2
KANJI2
 70
     0
 40
3.0
 41
0.666666667
 50
0.0
 71
     0
 42
3.0
  3
txt.shx
  4
extfont.shx
  0
STYLE
  2
KANJI3
 70
     0
 40
3.0
 41
0.6
 50
0.0
 71
     0
 42
3.0
  3
txt.shx
  4
extfont.shx
  0
STYLE
  2
KANJI4
 70
     0
 40
3.0
 41
0.9
 50
0.0
 71
     0
 42
3.0
  3
txt.shx
  4
extfont.shx
  0
STYLE
  2
KANJI5
 70
     0
 40
1.8
 41
0.666666667
 50
0.0
 71
     0
 42
1.8
  3
txt.shx
  4
extfont.shx
  0
STYLE
  2
KANJI6
 70
     0
 40
4.0
 41
0.9
 50
0.0
 71
     0
 42
4.0
  3
txt.shx
  4
extfont.shx
  0
STYLE
  2
KANJI7
 70
     0
 40
6.0
 41
0.9
 50
0.0
 71
     0
 42
6.0
  3
txt.shx
  4
extfont.shx
  0
STYLE
  2
KANJI8
 70
     0
 40
4.0
 41
0.9
 50
0.0
 71
     0
 42
4.0
  3
txt.shx
  4
extfont.shx
  0
ENDTAB
  0
TABLE
  2
VIEW
 70
     0
  0
ENDTAB
  0
ENDSEC
  0
SECTION
  2
BLOCKS
  0
ENDSEC
  0
SECTION
  2
ENTITIES
  0
LINE
  8
0
  6
CONTINUOUS
 62
     2
 10
0.0
 20
-40120293990291103000000000000000000000000000000000000.0
 30
0.0
 11
-2.414814566
 21
-40120293990291103000000000000000000000000000000000000.0
 31
0.0
  0
LINE
  8
0
  6
CONTINUOUS
 62
     2
 10
0.0
 20
-40120293990291103000000000000000000000000000000000000.0
 30
0.0
 11
-2.414814566
 21
-40120293990291103000000000000000000000000000000000000.0
 31
0.0
  0
POINT
  8
0
  6
CONTINUOUS
 62
     2
 10
-913584205445739770000000000000000000000000000000000000000000000000000000000000000.0
 20
-4656443568210321400000000000000000000000000000000000000000000000000000000000000000000000000000000000000000000000000000000000000000.0
 30
0.0
  0
POINT
  8
0
  6
CONTINUOUS
 62
     2
 10
-913584205445739770000000000000000000000000000000000000000000000000000000000000000.0
 20
-4656443568210321400000000000000000000000000000000000000000000000000000000000000000000000000000000000000000000000000000000000000000.0
 30
0.0
  0
POINT
  8
0
  6
CONTINUOUS
 62
     2
 10
-913584205445740290000000000000000000000000000000000000000000000000000000000000000.0
 20
42150867100155799000000000000000000000000000000000000000000000000000000000000000000000000000000000000000000000000000000000000000000000000000000000000000000000000000000000000.0
 30
0.0
  0
POINT
  8
0
  6
CONTINUOUS
 62
     2
 10
-913584205445740290000000000000000000000000000000000000000000000000000000000000000.0
 20
42150867100155799000000000000000000000000000000000000000000000000000000000000000000000000000000000000000000000000000000000000000000000000000000000000000000000000000000000000.0
 30
0.0
  0
POINT
  8
0
  6
CONTINUOUS
 62
     2
 10
-913584205445740290000000000000000000000000000000000000000000000000000000000000000.0
 20
42150867100155799000000000000000000000000000000000000000000000000000000000000000000000000000000000000000000000000000000000000000000000000000000000000000000000000000000000000.0
 30
0.0
  0
POINT
  8
0
  6
CONTINUOUS
 62
     2
 10
-913584205445740290000000000000000000000000000000000000000000000000000000000000000.0
 20
42150867100155799000000000000000000000000000000000000000000000000000000000000000000000000000000000000000000000000000000000000000000000000000000000000000000000000000000000000.0
 30
0.0
  0
LINE
  8
0
  6
CONTINUOUS
 62
     2
 10
156.9
 20
-4012029399029110300000000000000000000000000000000000.0
 30
0.0
 11
156.658518543
 21
-4012029399029110300000000000000000000000000000000000.0
 31
0.0
  0
LINE
  8
0
  6
CONTINUOUS
 62
     2
 10
156.9
 20
-4012029399029110300000000000000000000000000000000000.0
 30
0.0
 11
156.658518543
 21
-4012029399029110300000000000000000000000000000000000.0
 31
0.0
  0
POINT
  8
0
  6
CONTINUOUS
 62
     2
 10
-91358420544573977000000000000000000000000000000000000000000000000000000000000000.0
 20
-465644356821032180000000000000000000000000000000000000000000000000000000000000000000000000000000000000000000000000000000000000000.0
 30
0.0
  0
POINT
  8
0
  6
CONTINUOUS
 62
     2
 10
-91358420544573977000000000000000000000000000000000000000000000000000000000000000.0
 20
-465644356821032180000000000000000000000000000000000000000000000000000000000000000000000000000000000000000000000000000000000000000.0
 30
0.0
  0
POINT
  8
0
  6
CONTINUOUS
 62
     2
 10
-91358420544574029000000000000000000000000000000000000000000000000000000000000000.0
 20
4215086710015580100000000000000000000000000000000000000000000000000000000000000000000000000000000000000000000000000000000000000000000000000000000000000000000000000000000000.0
 30
0.0
  0
POINT
  8
0
  6
CONTINUOUS
 62
     2
 10
-91358420544574029000000000000000000000000000000000000000000000000000000000000000.0
 20
4215086710015580100000000000000000000000000000000000000000000000000000000000000000000000000000000000000000000000000000000000000000000000000000000000000000000000000000000000.0
 30
0.0
  0
POINT
  8
0
  6
CONTINUOUS
 62
     2
 10
-91358420544574029000000000000000000000000000000000000000000000000000000000000000.0
 20
4215086710015580100000000000000000000000000000000000000000000000000000000000000000000000000000000000000000000000000000000000000000000000000000000000000000000000000000000000.0
 30
0.0
  0
POINT
  8
0
  6
CONTINUOUS
 62
     2
 10
-91358420544574029000000000000000000000000000000000000000000000000000000000000000.0
 20
4215086710015580100000000000000000000000000000000000000000000000000000000000000000000000000000000000000000000000000000000000000000000000000000000000000000000000000000000000.0
 30
0.0
  0
LINE
  8
0
  6
CONTINUOUS
 62
     2
 10
154.8
 20
-4012029399029110300000000000000000000000000000000000.0
 30
0.0
 11
154.558518543
 21
-4012029399029110300000000000000000000000000000000000.0
 31
0.0
  0
LINE
  8
0
  6
CONTINUOUS
 62
     2
 10
154.8
 20
-4012029399029110300000000000000000000000000000000000.0
 30
0.0
 11
154.558518543
 21
-4012029399029110300000000000000000000000000000000000.0
 31
0.0
  0
POINT
  8
0
  6
CONTINUOUS
 62
     2
 10
-91358420544573977000000000000000000000000000000000000000000000000000000000000000.0
 20
-465644356821032180000000000000000000000000000000000000000000000000000000000000000000000000000000000000000000000000000000000000000.0
 30
0.0
  0
POINT
  8
0
  6
CONTINUOUS
 62
     2
 10
-91358420544573977000000000000000000000000000000000000000000000000000000000000000.0
 20
-465644356821032180000000000000000000000000000000000000000000000000000000000000000000000000000000000000000000000000000000000000000.0
 30
0.0
  0
POINT
  8
0
  6
CONTINUOUS
 62
     2
 10
-91358420544574029000000000000000000000000000000000000000000000000000000000000000.0
 20
4215086710015580100000000000000000000000000000000000000000000000000000000000000000000000000000000000000000000000000000000000000000000000000000000000000000000000000000000000.0
 30
0.0
  0
POINT
  8
0
  6
CONTINUOUS
 62
     2
 10
-91358420544574029000000000000000000000000000000000000000000000000000000000000000.0
 20
4215086710015580100000000000000000000000000000000000000000000000000000000000000000000000000000000000000000000000000000000000000000000000000000000000000000000000000000000000.0
 30
0.0
  0
POINT
  8
0
  6
CONTINUOUS
 62
     2
 10
-91358420544574029000000000000000000000000000000000000000000000000000000000000000.0
 20
4215086710015580100000000000000000000000000000000000000000000000000000000000000000000000000000000000000000000000000000000000000000000000000000000000000000000000000000000000.0
 30
0.0
  0
POINT
  8
0
  6
CONTINUOUS
 62
     2
 10
-91358420544574029000000000000000000000000000000000000000000000000000000000000000.0
 20
4215086710015580100000000000000000000000000000000000000000000000000000000000000000000000000000000000000000000000000000000000000000000000000000000000000000000000000000000000.0
 30
0.0
  0
LINE
  8
0
  6
CONTINUOUS
 62
     2
 10
156.1
 20
-4012029399029110300000000000000000000000000000000000.0
 30
0.0
 11
155.858518543
 21
-4012029399029110300000000000000000000000000000000000.0
 31
0.0
  0
LINE
  8
0
  6
CONTINUOUS
 62
     2
 10
156.1
 20
-4012029399029110300000000000000000000000000000000000.0
 30
0.0
 11
155.858518543
 21
-4012029399029110300000000000000000000000000000000000.0
 31
0.0
  0
POINT
  8
0
  6
CONTINUOUS
 62
     2
 10
-91358420544573977000000000000000000000000000000000000000000000000000000000000000.0
 20
-465644356821032180000000000000000000000000000000000000000000000000000000000000000000000000000000000000000000000000000000000000000.0
 30
0.0
  0
POINT
  8
0
  6
CONTINUOUS
 62
     2
 10
-91358420544573977000000000000000000000000000000000000000000000000000000000000000.0
 20
-465644356821032180000000000000000000000000000000000000000000000000000000000000000000000000000000000000000000000000000000000000000.0
 30
0.0
  0
POINT
  8
0
  6
CONTINUOUS
 62
     2
 10
-91358420544574029000000000000000000000000000000000000000000000000000000000000000.0
 20
4215086710015580100000000000000000000000000000000000000000000000000000000000000000000000000000000000000000000000000000000000000000000000000000000000000000000000000000000000.0
 30
0.0
  0
POINT
  8
0
  6
CONTINUOUS
 62
     2
 10
-91358420544574029000000000000000000000000000000000000000000000000000000000000000.0
 20
4215086710015580100000000000000000000000000000000000000000000000000000000000000000000000000000000000000000000000000000000000000000000000000000000000000000000000000000000000.0
 30
0.0
  0
POINT
  8
0
  6
CONTINUOUS
 62
     2
 10
-91358420544574029000000000000000000000000000000000000000000000000000000000000000.0
 20
4215086710015580100000000000000000000000000000000000000000000000000000000000000000000000000000000000000000000000000000000000000000000000000000000000000000000000000000000000.0
 30
0.0
  0
POINT
  8
0
  6
CONTINUOUS
 62
     2
 10
-91358420544574029000000000000000000000000000000000000000000000000000000000000000.0
 20
4215086710015580100000000000000000000000000000000000000000000000000000000000000000000000000000000000000000000000000000000000000000000000000000000000000000000000000000000000.0
 30
0.0
  0
LINE
  8
0
  6
CONTINUOUS
 62
     2
 10
171.79
 20
-401202939902911030000000000000000000000000000000000.0
 30
0.0
 11
171.765851854
 21
-401202939902911030000000000000000000000000000000000.0
 31
0.0
  0
LINE
  8
0
  6
CONTINUOUS
 62
     2
 10
171.79
 20
-401202939902911030000000000000000000000000000000000.0
 30
0.0
 11
171.765851854
 21
-401202939902911030000000000000000000000000000000000.0
 31
0.0
  0
POINT
  8
0
  6
CONTINUOUS
 62
     2
 10
-9135842054457398600000000000000000000000000000000000000000000000000000000000000.0
 20
-46564435682103218000000000000000000000000000000000000000000000000000000000000000000000000000000000000000000000000000000000000000.0
 30
0.0
  0
POINT
  8
0
  6
CONTINUOUS
 62
     2
 10
-9135842054457398600000000000000000000000000000000000000000000000000000000000000.0
 20
-46564435682103218000000000000000000000000000000000000000000000000000000000000000000000000000000000000000000000000000000000000000.0
 30
0.0
  0
POINT
  8
0
  6
CONTINUOUS
 62
     2
 10
-9135842054457403600000000000000000000000000000000000000000000000000000000000000.0
 20
421508671001558020000000000000000000000000000000000000000000000000000000000000000000000000000000000000000000000000000000000000000000000000000000000000000000000000000000000.0
 30
0.0
  0
POINT
  8
0
  6
CONTINUOUS
 62
     2
 10
-9135842054457403600000000000000000000000000000000000000000000000000000000000000.0
 20
421508671001558020000000000000000000000000000000000000000000000000000000000000000000000000000000000000000000000000000000000000000000000000000000000000000000000000000000000.0
 30
0.0
  0
POINT
  8
0
  6
CONTINUOUS
 62
     2
 10
-9135842054457403600000000000000000000000000000000000000000000000000000000000000.0
 20
421508671001558020000000000000000000000000000000000000000000000000000000000000000000000000000000000000000000000000000000000000000000000000000000000000000000000000000000000.0
 30
0.0
  0
POINT
  8
0
  6
CONTINUOUS
 62
     2
 10
-9135842054457403600000000000000000000000000000000000000000000000000000000000000.0
 20
421508671001558020000000000000000000000000000000000000000000000000000000000000000000000000000000000000000000000000000000000000000000000000000000000000000000000000000000000.0
 30
0.0
  0
LINE
  8
0
  6
CONTINUOUS
 62
     2
 10
171.58
 20
-401202939902911030000000000000000000000000000000000.0
 30
0.0
 11
171.555851854
 21
-401202939902911030000000000000000000000000000000000.0
 31
0.0
  0
LINE
  8
0
  6
CONTINUOUS
 62
     2
 10
171.58
 20
-401202939902911030000000000000000000000000000000000.0
 30
0.0
 11
171.555851854
 21
-401202939902911030000000000000000000000000000000000.0
 31
0.0
  0
POINT
  8
0
  6
CONTINUOUS
 62
     2
 10
-9135842054457398600000000000000000000000000000000000000000000000000000000000000.0
 20
-46564435682103218000000000000000000000000000000000000000000000000000000000000000000000000000000000000000000000000000000000000000.0
 30
0.0
  0
POINT
  8
0
  6
CONTINUOUS
 62
     2
 10
-9135842054457398600000000000000000000000000000000000000000000000000000000000000.0
 20
-46564435682103218000000000000000000000000000000000000000000000000000000000000000000000000000000000000000000000000000000000000000.0
 30
0.0
  0
POINT
  8
0
  6
CONTINUOUS
 62
     2
 10
-9135842054457403600000000000000000000000000000000000000000000000000000000000000.0
 20
421508671001558020000000000000000000000000000000000000000000000000000000000000000000000000000000000000000000000000000000000000000000000000000000000000000000000000000000000.0
 30
0.0
  0
POINT
  8
0
  6
CONTINUOUS
 62
     2
 10
-9135842054457403600000000000000000000000000000000000000000000000000000000000000.0
 20
421508671001558020000000000000000000000000000000000000000000000000000000000000000000000000000000000000000000000000000000000000000000000000000000000000000000000000000000000.0
 30
0.0
  0
POINT
  8
0
  6
CONTINUOUS
 62
     2
 10
-9135842054457403600000000000000000000000000000000000000000000000000000000000000.0
 20
421508671001558020000000000000000000000000000000000000000000000000000000000000000000000000000000000000000000000000000000000000000000000000000000000000000000000000000000000.0
 30
0.0
  0
POINT
  8
0
  6
CONTINUOUS
 62
     2
 10
-9135842054457403600000000000000000000000000000000000000000000000000000000000000.0
 20
421508671001558020000000000000000000000000000000000000000000000000000000000000000000000000000000000000000000000000000000000000000000000000000000000000000000000000000000000.0
 30
0.0
  0
LINE
  8
0
  6
CONTINUOUS
 62
     1
 10
60.0
 20
120.5
 30
0.0
 11
60.0
 21
159.5
 31
0.0
  0
LINE
  8
0
  6
CONTINUOUS
 62
     1
 10
35.0
 20
159.5
 30
0.0
 11
35.0
 21
120.5
 31
0.0
  0
LINE
  8
0
  6
CONTINUOUS
 62
     1
 10
45.5
 20
124.0
 30
0.0
 11
49.5
 21
124.0
 31
0.0
  0
LINE
  8
0
  6
CONTINUOUS
 62
     1
 10
49.5
 20
121.5
 30
0.0
 11
59.0
 21
121.5
 31
0.0
  0
LINE
  8
0
  6
CONTINUOUS
 62
     1
 10
36.0
 20
121.5
 30
0.0
 11
45.5
 21
121.5
 31
0.0
  0
LINE
  8
0
  6
CONTINUOUS
 62
     1
 10
46.5
 20
123.0
 30
0.0
 11
46.5
 21
120.5
 31
0.0
  0
LINE
  8
0
  6
CONTINUOUS
 62
     1
 10
48.5
 20
123.0
 30
0.0
 11
46.5
 21
123.0
 31
0.0
  0
LINE
  8
0
  6
CONTINUOUS
 62
     1
 10
48.5
 20
123.0
 30
0.0
 11
48.5
 21
120.5
 31
0.0
  0
LINE
  8
0
  6
CONTINUOUS
 62
     1
 10
48.5
 20
157.0
 30
0.0
 11
46.5
 21
157.0
 31
0.0
  0
LINE
  8
0
  6
CONTINUOUS
 62
     1
 10
48.5
 20
157.0
 30
0.0
 11
48.5
 21
159.5
 31
0.0
  0
LINE
  8
0
  6
CONTINUOUS
 62
     1
 10
46.5
 20
157.0
 30
0.0
 11
46.5
 21
159.5
 31
0.0
  0
LINE
  8
0
  6
CONTINUOUS
 62
     1
 10
36.0
 20
158.5
 30
0.0
 11
45.5
 21
158.5
 31
0.0
  0
LINE
  8
0
  6
CONTINUOUS
 62
     1
 10
45.5
 20
156.0
 30
0.0
 11
49.5
 21
156.0
 31
0.0
  0
LINE
  8
0
  6
CONTINUOUS
 62
     1
 10
49.5
 20
158.5
 30
0.0
 11
59.0
 21
158.5
 31
0.0
  0
LINE
  8
0
  6
CONTINUOUS
 62
     1
 10
36.0
 20
123.5
 30
0.0
 11
40.0
 21
123.5
 31
0.0
  0
LINE
  8
0
  6
CONTINUOUS
 62
     1
 10
40.0
 20
123.5
 30
0.0
 11
40.0
 21
121.5
 31
0.0
  0
LINE
  8
0
  6
CONTINUOUS
 62
     1
 10
37.75
 20
123.5
 30
0.0
 11
37.75
 21
123.0
 31
0.0
  0
LINE
  8
0
  6
CONTINUOUS
 62
     1
 10
37.75
 20
123.0
 30
0.0
 11
38.25
 21
123.0
 31
0.0
  0
LINE
  8
0
  6
CONTINUOUS
 62
     1
 10
38.25
 20
123.0
 30
0.0
 11
38.25
 21
123.5
 31
0.0
  0
LINE
  8
0
  6
CONTINUOUS
 62
     1
 10
39.25
 20
123.5
 30
0.0
 11
39.25
 21
122.0
 31
0.0
  0
LINE
  8
0
  6
CONTINUOUS
 62
     1
 10
39.25
 20
122.0
 30
0.0
 11
36.75
 21
122.0
 31
0.0
  0
LINE
  8
0
  6
CONTINUOUS
 62
     1
 10
36.75
 20
122.0
 30
0.0
 11
36.75
 21
123.5
 31
0.0
  0
LINE
  8
0
  6
CONTINUOUS
 62
     1
 10
59.0
 20
123.5
 30
0.0
 11
55.0
 21
123.5
 31
0.0
  0
LINE
  8
0
  6
CONTINUOUS
 62
     1
 10
55.0
 20
123.5
 30
0.0
 11
55.0
 21
121.5
 31
0.0
  0
LINE
  8
0
  6
CONTINUOUS
 62
     1
 10
57.25
 20
123.5
 30
0.0
 11
57.25
 21
123.0
 31
0.0
  0
LINE
  8
0
  6
CONTINUOUS
 62
     1
 10
57.25
 20
123.0
 30
0.0
 11
56.75
 21
123.0
 31
0.0
  0
LINE
  8
0
  6
CONTINUOUS
 62
     1
 10
56.75
 20
123.0
 30
0.0
 11
56.75
 21
123.5
 31
0.0
  0
LINE
  8
0
  6
CONTINUOUS
 62
     1
 10
55.75
 20
123.5
 30
0.0
 11
55.75
 21
122.0
 31
0.0
  0
LINE
  8
0
  6
CONTINUOUS
 62
     1
 10
55.75
 20
122.0
 30
0.0
 11
58.25
 21
122.0
 31
0.0
  0
LINE
  8
0
  6
CONTINUOUS
 62
     1
 10
58.25
 20
122.0
 30
0.0
 11
58.25
 21
123.5
 31
0.0
  0
LINE
  8
0
  6
CONTINUOUS
 62
     1
 10
59.0
 20
156.5
 30
0.0
 11
55.0
 21
156.5
 31
0.0
  0
LINE
  8
0
  6
CONTINUOUS
 62
     1
 10
55.0
 20
156.5
 30
0.0
 11
55.0
 21
158.5
 31
0.0
  0
LINE
  8
0
  6
CONTINUOUS
 62
     1
 10
57.25
 20
156.5
 30
0.0
 11
57.25
 21
157.0
 31
0.0
  0
LINE
  8
0
  6
CONTINUOUS
 62
     1
 10
57.25
 20
157.0
 30
0.0
 11
56.75
 21
157.0
 31
0.0
  0
LINE
  8
0
  6
CONTINUOUS
 62
     1
 10
56.75
 20
157.0
 30
0.0
 11
56.75
 21
156.5
 31
0.0
  0
LINE
  8
0
  6
CONTINUOUS
 62
     1
 10
55.75
 20
156.5
 30
0.0
 11
55.75
 21
158.0
 31
0.0
  0
LINE
  8
0
  6
CONTINUOUS
 62
     1
 10
55.75
 20
158.0
 30
0.0
 11
58.25
 21
158.0
 31
0.0
  0
LINE
  8
0
  6
CONTINUOUS
 62
     1
 10
58.25
 20
158.0
 30
0.0
 11
58.25
 21
156.5
 31
0.0
  0
LINE
  8
0
  6
CONTINUOUS
 62
     1
 10
36.0
 20
156.5
 30
0.0
 11
40.0
 21
156.5
 31
0.0
  0
LINE
  8
0
  6
CONTINUOUS
 62
     1
 10
40.0
 20
156.5
 30
0.0
 11
40.0
 21
158.5
 31
0.0
  0
LINE
  8
0
  6
CONTINUOUS
 62
     1
 10
37.75
 20
156.5
 30
0.0
 11
37.75
 21
157.0
 31
0.0
  0
LINE
  8
0
  6
CONTINUOUS
 62
     1
 10
37.75
 20
157.0
 30
0.0
 11
38.25
 21
157.0
 31
0.0
  0
LINE
  8
0
  6
CONTINUOUS
 62
     1
 10
38.25
 20
157.0
 30
0.0
 11
38.25
 21
156.5
 31
0.0
  0
LINE
  8
0
  6
CONTINUOUS
 62
     1
 10
39.25
 20
156.5
 30
0.0
 11
39.25
 21
158.0
 31
0.0
  0
LINE
  8
0
  6
CONTINUOUS
 62
     1
 10
39.25
 20
158.0
 30
0.0
 11
36.75
 21
158.0
 31
0.0
  0
LINE
  8
0
  6
CONTINUOUS
 62
     1
 10
36.75
 20
158.0
 30
0.0
 11
36.75
 21
156.5
 31
0.0
  0
CIRCLE
  8
0
  6
CONTINUOUS
 62
     1
 10
47.5
 20
140.0
 30
0.0
 40
7.0
  0
LINE
  8
0
  6
CONTINUOUS
 62
     1
 10
45.5
 20
154.0
 30
0.0
 11
45.5
 21
158.5
 31
0.0
  0
LINE
  8
0
  6
CONTINUOUS
 62
     1
 10
49.5
 20
154.0
 30
0.0
 11
49.5
 21
158.5
 31
0.0
  0
LINE
  8
0
  6
CONTINUOUS
 62
     1
 10
45.5
 20
154.0
 30
0.0
 11
49.5
 21
154.0
 31
0.0
  0
LINE
  8
0
  6
CONTINUOUS
 62
     1
 10
45.5
 20
126.0
 30
0.0
 11
49.5
 21
126.0
 31
0.0
  0
LINE
  8
0
  6
CONTINUOUS
 62
     1
 10
49.5
 20
126.0
 30
0.0
 11
49.5
 21
121.5
 31
0.0
  0
LINE
  8
0
  6
CONTINUOUS
 62
     1
 10
45.5
 20
126.0
 30
0.0
 11
45.5
 21
121.5
 31
0.0
  0
LINE
  8
0
  6
CONTINUOUS
 62
     1
 10
60.0
 20
159.5
 30
0.0
 11
35.0
 21
159.5
 31
0.0
  0
LINE
  8
0
  6
CONTINUOUS
 62
     1
 10
35.0
 20
120.5
 30
0.0
 11
60.0
 21
120.5
 31
0.0
  0
LINE
  8
0
  6
CONTINUOUS
 62
     1
 10
58.0
 20
149.5
 30
0.0
 11
37.0
 21
149.5
 31
0.0
  0
LINE
  8
0
  6
CONTINUOUS
 62
     1
 10
58.0
 20
148.5
 30
0.0
 11
37.0
 21
148.5
 31
0.0
  0
LINE
  8
0
  6
CONTINUOUS
 62
     1
 10
37.0
 20
130.5
 30
0.0
 11
58.0
 21
130.5
 31
0.0
  0
LINE
  8
0
  6
CONTINUOUS
 62
     1
 10
37.0
 20
131.5
 30
0.0
 11
58.0
 21
131.5
 31
0.0
  0
LINE
  8
0
  6
CONTINUOUS
 62
     1
 10
36.0
 20
147.5
 30
0.0
 11
36.25
 21
147.5
 31
0.0
  0
LINE
  8
0
  6
CONTINUOUS
 62
     1
 10
36.25
 20
147.5
 30
0.0
 11
36.25
 21
150.0
 31
0.0
  0
LINE
  8
0
  6
CONTINUOUS
 62
     1
 10
36.25
 20
150.0
 30
0.0
 11
36.0
 21
150.0
 31
0.0
  0
LINE
  8
0
  6
CONTINUOUS
 62
     1
 10
59.0
 20
147.5
 30
0.0
 11
58.75
 21
147.5
 31
0.0
  0
LINE
  8
0
  6
CONTINUOUS
 62
     1
 10
58.75
 20
147.5
 30
0.0
 11
58.75
 21
150.0
 31
0.0
  0
LINE
  8
0
  6
CONTINUOUS
 62
     1
 10
58.75
 20
150.0
 30
0.0
 11
59.0
 21
150.0
 31
0.0
  0
LINE
  8
0
  6
CONTINUOUS
 62
     1
 10
36.0
 20
132.5
 30
0.0
 11
36.25
 21
132.5
 31
0.0
  0
LINE
  8
0
  6
CONTINUOUS
 62
     1
 10
36.25
 20
132.5
 30
0.0
 11
36.25
 21
130.0
 31
0.0
  0
LINE
  8
0
  6
CONTINUOUS
 62
     1
 10
36.25
 20
130.0
 30
0.0
 11
36.0
 21
130.0
 31
0.0
  0
LINE
  8
0
  6
CONTINUOUS
 62
     1
 10
59.0
 20
132.5
 30
0.0
 11
58.75
 21
132.5
 31
0.0
  0
LINE
  8
0
  6
CONTINUOUS
 62
     1
 10
58.75
 20
132.5
 30
0.0
 11
58.75
 21
130.0
 31
0.0
  0
LINE
  8
0
  6
CONTINUOUS
 62
     1
 10
58.75
 20
130.0
 30
0.0
 11
59.0
 21
130.0
 31
0.0
  0
LINE
  8
0
  6
CONTINUOUS
 62
     1
 10
37.0
 20
148.5
 30
0.0
 11
37.0
 21
131.5
 31
0.0
  0
LINE
  8
0
  6
CONTINUOUS
 62
     1
 10
58.0
 20
148.5
 30
0.0
 11
58.0
 21
131.5
 31
0.0
  0
LINE
  8
0
  6
CONTINUOUS
 62
     1
 10
37.0
 20
154.0
 30
0.0
 11
36.0
 21
154.0
 31
0.0
  0
LINE
  8
0
  6
CONTINUOUS
 62
     1
 10
59.0
 20
154.0
 30
0.0
 11
58.0
 21
154.0
 31
0.0
  0
LINE
  8
0
  6
CONTINUOUS
 62
     1
 10
37.0
 20
126.0
 30
0.0
 11
36.0
 21
126.0
 31
0.0
  0
LINE
  8
0
  6
CONTINUOUS
 62
     1
 10
59.0
 20
126.0
 30
0.0
 11
58.0
 21
126.0
 31
0.0
  0
LINE
  8
0
  6
CONTINUOUS
 62
     1
 10
37.0
 20
154.0
 30
0.0
 11
37.0
 21
149.5
 31
0.0
  0
LINE
  8
0
  6
CONTINUOUS
 62
     1
 10
58.0
 20
154.0
 30
0.0
 11
58.0
 21
149.5
 31
0.0
  0
LINE
  8
0
  6
CONTINUOUS
 62
     1
 10
37.0
 20
126.0
 30
0.0
 11
37.0
 21
130.5
 31
0.0
  0
LINE
  8
0
  6
CONTINUOUS
 62
     1
 10
58.0
 20
130.5
 30
0.0
 11
58.0
 21
126.0
 31
0.0
  0
LINE
  8
0
  6
CONTINUOUS
 62
     1
 10
36.0
 20
153.0
 30
0.0
 11
35.0
 21
153.0
 31
0.0
  0
LINE
  8
0
  6
CONTINUOUS
 62
     1
 10
36.0
 20
127.0
 30
0.0
 11
35.0
 21
127.0
 31
0.0
  0
LINE
  8
0
  6
CONTINUOUS
 62
     1
 10
59.0
 20
153.0
 30
0.0
 11
60.0
 21
153.0
 31
0.0
  0
LINE
  8
0
  6
CONTINUOUS
 62
     1
 10
59.0
 20
127.0
 30
0.0
 11
60.0
 21
127.0
 31
0.0
  0
LINE
  8
0
  6
CONTINUOUS
 62
     1
 10
59.0
 20
154.0
 30
0.0
 11
59.0
 21
158.5
 31
0.0
  0
LINE
  8
0
  6
CONTINUOUS
 62
     1
 10
59.0
 20
127.0
 30
0.0
 11
59.0
 21
153.0
 31
0.0
  0
LINE
  8
0
  6
CONTINUOUS
 62
     1
 10
36.0
 20
158.5
 30
0.0
 11
36.0
 21
154.0
 31
0.0
  0
LINE
  8
0
  6
CONTINUOUS
 62
     1
 10
36.0
 20
126.0
 30
0.0
 11
36.0
 21
121.5
 31
0.0
  0
LINE
  8
0
  6
CONTINUOUS
 62
     1
 10
36.0
 20
153.0
 30
0.0
 11
36.0
 21
127.0
 31
0.0
  0
LINE
  8
0
  6
CONTINUOUS
 62
     1
 10
46.5
 20
158.5
 30
0.0
 11
48.5
 21
158.5
 31
0.0
  0
LINE
  8
0
  6
CONTINUOUS
 62
     1
 10
46.5
 20
121.5
 30
0.0
 11
48.5
 21
121.5
 31
0.0
  0
LINE
  8
0
  6
CONTINUOUS
 62
     1
 10
59.0
 20
121.5
 30
0.0
 11
59.0
 21
126.0
 31
0.0
  0
CIRCLE
  8
0
  6
CONTINUOUS
 62
     1
 10
47.5
 20
144.75
 30
0.0
 40
0.5
  0
CIRCLE
  8
0
  6
CONTINUOUS
 62
     1
 10
44.931956307
 20
143.995954403
 30
0.0
 40
0.5
  0
CIRCLE
  8
0
  6
CONTINUOUS
 62
     1
 10
50.068038811
 20
143.995957541
 30
0.0
 40
0.5
  0
CIRCLE
  8
0
  6
CONTINUOUS
 62
     1
 10
51.820750413
 20
141.97322474
 30
0.0
 40
0.5
  0
CIRCLE
  8
0
  6
CONTINUOUS
 62
     1
 10
43.17924821
 20
141.973221723
 30
0.0
 40
0.5
  0
CIRCLE
  8
0
  6
CONTINUOUS
 62
     1
 10
42.798348055
 20
139.32400519
 30
0.0
 40
0.5
  0
CIRCLE
  8
0
  6
CONTINUOUS
 62
     1
 10
52.201652063
 20
139.32400601
 30
0.0
 40
0.5
  0
CIRCLE
  8
0
  6
CONTINUOUS
 62
     1
 10
51.089815414
 20
136.88941721
 30
0.0
 40
0.5
  0
CIRCLE
  8
0
  6
CONTINUOUS
 62
     1
 10
43.910184586
 20
136.88941721
 30
0.0
 40
0.5
  0
CIRCLE
  8
0
  6
CONTINUOUS
 62
     1
 10
46.161765293
 20
135.442409862
 30
0.0
 40
0.5
  0
CIRCLE
  8
0
  6
CONTINUOUS
 62
     1
 10
48.83825857
 20
135.442416869
 30
0.0
 40
0.5
  0
CIRCLE
  8
0
  6
CONTINUOUS
 62
     1
 10
47.5
 20
140.0
 30
0.0
 40
2.0
  0
LINE
  8
0
  6
CONTINUOUS
 62
     1
 10
48.362487395
 20
138.195529027
 30
0.0
 11
50.665987183
 21
134.611213016
 31
0.0
  0
LINE
  8
0
  6
CONTINUOUS
 62
     1
 10
51.086613962
 20
134.881533405
 30
0.0
 11
48.783114174
 21
138.465849415
 31
0.0
  0
LINE
  8
0
  6
CONTINUOUS
 62
     1
 10
49.20114118
 20
138.948278228
 30
0.0
 11
53.076795968
 21
137.178325546
 31
0.0
  0
LINE
  8
0
  6
CONTINUOUS
 62
     1
 10
53.284503518
 20
137.633141523
 30
0.0
 11
49.40884873
 21
139.403094206
 31
0.0
  0
LINE
  8
0
  6
CONTINUOUS
 62
     1
 10
49.499694748
 20
140.034941606
 30
0.0
 11
53.717011724
 21
140.641299632
 31
0.0
  0
LINE
  8
0
  6
CONTINUOUS
 62
     1
 10
53.645854376
 20
141.136210363
 30
0.0
 11
49.428537399
 21
140.529852338
 31
0.0
  0
LINE
  8
0
  6
CONTINUOUS
 62
     1
 10
49.163359465
 20
141.110511274
 30
0.0
 11
52.383370505
 21
143.900665649
 31
0.0
  0
LINE
  8
0
  6
CONTINUOUS
 62
     1
 10
52.05594021
 20
144.278540499
 30
0.0
 11
48.83592917
 21
141.488386123
 31
0.0
  0
LINE
  8
0
  6
CONTINUOUS
 62
     1
 10
48.298921951
 20
141.8335004
 30
0.0
 11
49.499302174
 21
145.921595293
 31
0.0
  0
LINE
  8
0
  6
CONTINUOUS
 62
     1
 10
49.019555918
 20
146.062462356
 30
0.0
 11
47.819175694
 21
141.974367462
 31
0.0
  0
LINE
  8
0
  6
CONTINUOUS
 62
     1
 10
47.180829819
 20
141.974368354
 30
0.0
 11
45.980461012
 21
146.062466599
 31
0.0
  0
LINE
  8
0
  6
CONTINUOUS
 62
     1
 10
45.500714362
 20
145.921600876
 30
0.0
 11
46.701083169
 21
141.833502631
 31
0.0
  0
LINE
  8
0
  6
CONTINUOUS
 62
     1
 10
46.216886897
 20
138.465848519
 30
0.0
 11
43.913389611
 21
134.881530901
 31
0.0
  0
LINE
  8
0
  6
CONTINUOUS
 62
     1
 10
44.334016579
 20
134.611210806
 30
0.0
 11
46.637513865
 21
138.195528424
 31
0.0
  0
LINE
  8
0
  6
CONTINUOUS
 62
     1
 10
45.591151375
 20
139.403093872
 30
0.0
 11
41.715496895
 21
137.633140514
 31
0.0
  0
LINE
  8
0
  6
CONTINUOUS
 62
     1
 10
41.923204524
 20
137.178324572
 30
0.0
 11
45.798859004
 21
138.948277931
 31
0.0
  0
LINE
  8
0
  6
CONTINUOUS
 62
     1
 10
45.571461861
 20
140.529849645
 30
0.0
 11
41.354144038
 21
141.136201782
 31
0.0
  0
LINE
  8
0
  6
CONTINUOUS
 62
     1
 10
41.28298738
 20
140.641290951
 30
0.0
 11
45.500305203
 21
140.034938814
 31
0.0
  0
LINE
  8
0
  6
CONTINUOUS
 62
     1
 10
46.164061738
 20
141.488377963
 30
0.0
 11
42.944033654
 21
144.278512668
 31
0.0
  0
LINE
  8
0
  6
CONTINUOUS
 62
     1
 10
42.616605667
 20
143.900635818
 30
0.0
 11
45.836633751
 21
141.110501113
 31
0.0
  0
ARC
  8
0
  6
CONTINUOUS
 62
     1
 10
47.5
 20
140.0
 30
0.0
 40
6.25
 50
239.565212776
 51
267.707557224
  0
ARC
  8
0
  6
CONTINUOUS
 62
     1
 10
47.5
 20
140.0
 30
0.0
 40
6.25
 50
206.837912776
 51
234.980327224
  0
ARC
  8
0
  6
CONTINUOUS
 62
     1
 10
47.5
 20
140.0
 30
0.0
 40
6.25
 50
174.110712776
 51
202.253027224
  0
ARC
  8
0
  6
CONTINUOUS
 62
     1
 10
47.5
 20
140.0
 30
0.0
 40
6.25
 50
141.383712776
 51
169.525827224
  0
ARC
  8
0
  6
CONTINUOUS
 62
     1
 10
47.5
 20
140.0
 30
0.0
 40
6.25
 50
108.656012776
 51
136.798827224
  0
ARC
  8
0
  6
CONTINUOUS
 62
     1
 10
47.5
 20
140.0
 30
0.0
 40
6.25
 50
75.928712776
 51
104.071127224
  0
ARC
  8
0
  6
CONTINUOUS
 62
     1
 10
47.5
 20
140.0
 30
0.0
 40
6.25
 50
43.201522776
 51
71.343827224
  0
ARC
  8
0
  6
CONTINUOUS
 62
     1
 10
47.5
 20
140.0
 30
0.0
 40
6.25
 50
10.474252776
 51
38.616637224
  0
ARC
  8
0
  6
CONTINUOUS
 62
     1
 10
47.5
 20
140.0
 30
0.0
 40
6.25
 50
337.746982776
 51
5.889367224
  0
ARC
  8
0
  6
CONTINUOUS
 62
     1
 10
47.5
 20
140.0
 30
0.0
 40
6.25
 50
305.019712776
 51
333.162097224
  0
ARC
  8
0
  6
CONTINUOUS
 62
     1
 10
47.5
 20
140.0
 30
0.0
 40
6.25
 50
272.292442776
 51
300.434827224
  0
TEXT
  8
0
  6
CONTINUOUS
 62
     1
 10
46.1
 20
136.3
 30
0.0
 40
1.0
  1
１
 50
0.0
 41
0.8
 51
0.0
  7
KANJI0
  0
TEXT
  8
0
  6
CONTINUOUS
 62
     1
 10
47.7
 20
136.3
 30
0.0
 40
1.0
  1
１１
 50
0.0
 41
0.8
 51
0.0
  7
KANJI0
  0
TEXT
  8
0
  6
CONTINUOUS
 62
     1
 10
49.3
 20
137.4
 30
0.0
 40
1.0
  1
１０
 50
0.0
 41
0.8
 51
0.0
  7
KANJI0
  0
TEXT
  8
0
  6
CONTINUOUS
 62
     1
 10
50.4
 20
139.1
 30
0.0
 40
1.0
  1
９
 50
0.0
 41
0.8
 51
0.0
  7
KANJI0
  0
TEXT
  8
0
  6
CONTINUOUS
 62
     1
 10
50.2
 20
141.0
 30
0.0
 40
1.0
  1
８
 50
0.0
 41
0.8
 51
0.0
  7
KANJI0
  0
TEXT
  8
0
  6
CONTINUOUS
 62
     1
 10
48.9
 20
142.4
 30
0.0
 40
1.0
  1
７
 50
0.0
 41
0.8
 51
0.0
  7
KANJI0
  0
TEXT
  8
0
  6
CONTINUOUS
 62
     1
 10
47.2
 20
142.9
 30
0.0
 40
1.0
  1
６
 50
0.0
 41
0.8
 51
0.0
  7
KANJI0
  0
TEXT
  8
0
  6
CONTINUOUS
 62
     1
 10
45.3
 20
142.4
 30
0.0
 40
1.0
  1
５
 50
0.0
 41
0.8
 51
0.0
  7
KANJI0
  0
TEXT
  8
0
  6
CONTINUOUS
 62
     1
 10
44.0
 20
140.9
 30
0.0
 40
1.0
  1
４
 50
0.0
 41
0.8
 51
0.0
  7
KANJI0
  0
TEXT
  8
0
  6
CONTINUOUS
 62
     1
 10
43.8
 20
139.1
 30
0.0
 40
1.0
  1
３
 50
0.0
 41
0.8
 51
0.0
  7
KANJI0
  0
TEXT
  8
0
  6
CONTINUOUS
 62
     1
 10
44.6
 20
137.4
 30
0.0
 40
1.0
  1
２
 50
0.0
 41
0.8
 51
0.0
  7
KANJI0
  0
ARC
  8
0
  6
CONTINUOUS
 62
     1
 10
47.5
 20
138.0
 30
0.0
 40
0.5
 50
172.819244219
 51
7.180755781
  0
LINE
  8
0
  6
CONTINUOUS
 62
     1
 10
47.25
 20
137.566987298
 30
0.0
 11
47.25
 21
133.755002002
 31
0.0
  0
LINE
  8
0
  6
CONTINUOUS
 62
     1
 10
47.75
 20
133.755002002
 30
0.0
 11
47.75
 21
137.566987298
 31
0.0
  0
LINE
  8
0
  6
CONTINUOUS
 62
     1
 10
83.0
 20
159.5
 30
0.0
 11
83.0
 21
120.5
 31
0.0
  0
LINE
  8
0
  6
CONTINUOUS
 62
     1
 10
83.0
 20
159.5
 30
0.0
 11
133.0
 21
159.5
 31
0.0
  0
LINE
  8
0
  6
CONTINUOUS
 62
     1
 10
83.0
 20
120.5
 30
0.0
 11
133.0
 21
120.5
 31
0.0
  0
LINE
  8
0
  6
CONTINUOUS
 62
     1
 10
133.0
 20
120.5
 30
0.0
 11
133.0
 21
159.5
 31
0.0
  0
LINE
  8
0
  6
CONTINUOUS
 62
     1
 10
83.0
 20
153.0
 30
0.0
 11
86.5
 21
153.0
 31
0.0
  0
ARC
  8
0
  6
CONTINUOUS
 62
     1
 10
86.5
 20
153.5
 30
0.0
 40
0.5
 50
270.0
 51
0.0
  0
LINE
  8
0
  6
CONTINUOUS
 62
     1
 10
87.0
 20
153.5
 30
0.0
 11
87.0
 21
159.5
 31
0.0
  0
LINE
  8
0
  6
CONTINUOUS
 62
     1
 10
83.0
 20
127.0
 30
0.0
 11
86.5
 21
127.0
 31
0.0
  0
ARC
  8
0
  6
CONTINUOUS
 62
     1
 10
86.5
 20
126.5
 30
0.0
 40
0.5
 50
0.0
 51
90.0
  0
LINE
  8
0
  6
CONTINUOUS
 62
     1
 10
87.0
 20
126.5
 30
0.0
 11
87.0
 21
120.5
 31
0.0
  0
LINE
  8
0
  6
CONTINUOUS
 62
     1
 10
84.5
 20
147.25
 30
0.0
 11
85.7
 21
147.25
 31
0.0
  0
LINE
  8
0
  6
CONTINUOUS
 62
     1
 10
85.7
 20
147.25
 30
0.0
 11
85.7
 21
150.25
 31
0.0
  0
LINE
  8
0
  6
CONTINUOUS
 62
     1
 10
85.7
 20
150.25
 30
0.0
 11
84.5
 21
150.25
 31
0.0
  0
LINE
  8
0
  6
CONTINUOUS
 62
     1
 10
84.5
 20
150.25
 30
0.0
 11
84.5
 21
147.25
 31
0.0
  0
LINE
  8
0
  6
CONTINUOUS
 62
     1
 10
84.5
 20
132.75
 30
0.0
 11
85.7
 21
132.75
 31
0.0
  0
LINE
  8
0
  6
CONTINUOUS
 62
     1
 10
85.7
 20
132.75
 30
0.0
 11
85.7
 21
129.75
 31
0.0
  0
LINE
  8
0
  6
CONTINUOUS
 62
     1
 10
85.7
 20
129.75
 30
0.0
 11
84.5
 21
129.75
 31
0.0
  0
LINE
  8
0
  6
CONTINUOUS
 62
     1
 10
84.5
 20
129.75
 30
0.0
 11
84.5
 21
132.75
 31
0.0
  0
LINE
  8
0
  6
CONTINUOUS
 62
     1
 10
78.2
 20
142.0
 30
0.0
 11
79.5
 21
142.0
 31
0.0
  0
ARC
  8
0
  6
CONTINUOUS
 62
     1
 10
78.2
 20
141.8
 30
0.0
 40
0.2
 50
90.0
 51
180.0
  0
LINE
  8
0
  6
CONTINUOUS
 62
     1
 10
78.0
 20
138.2
 30
0.0
 11
78.0
 21
141.8
 31
0.0
  0
ARC
  8
0
  6
CONTINUOUS
 62
     1
 10
78.2
 20
138.2
 30
0.0
 40
0.2
 50
180.0
 51
270.0
  0
LINE
  8
0
  6
CONTINUOUS
 62
     1
 10
83.0
 20
138.82400601
 30
0.0
 11
80.0
 21
138.82400601
 31
0.0
  0
LINE
  8
0
  6
CONTINUOUS
 62
     1
 10
80.0
 20
139.82400601
 30
0.0
 11
83.0
 21
139.82400601
 31
0.0
  0
ARC
  8
0
  6
CONTINUOUS
 62
     1
 10
80.0
 20
139.32400601
 30
0.0
 40
0.5
 50
89.999732312
 51
270.000267688
  0
LINE
  8
0
  6
CONTINUOUS
 62
     1
 10
83.0
 20
141.47322474
 30
0.0
 11
80.0
 21
141.47322474
 31
0.0
  0
LINE
  8
0
  6
CONTINUOUS
 62
     1
 10
80.0
 20
142.47322474
 30
0.0
 11
83.0
 21
142.47322474
 31
0.0
  0
ARC
  8
0
  6
CONTINUOUS
 62
     1
 10
80.0
 20
141.97322474
 30
0.0
 40
0.5
 50
89.999732312
 51
270.000267688
  0
LINE
  8
0
  6
CONTINUOUS
 62
     1
 10
83.0
 20
143.495957541
 30
0.0
 11
80.0
 21
143.495957541
 31
0.0
  0
LINE
  8
0
  6
CONTINUOUS
 62
     1
 10
80.0
 20
144.495957541
 30
0.0
 11
83.0
 21
144.495957541
 31
0.0
  0
ARC
  8
0
  6
CONTINUOUS
 62
     1
 10
80.0
 20
143.995957541
 30
0.0
 40
0.5
 50
89.999732312
 51
270.000267688
  0
LINE
  8
0
  6
CONTINUOUS
 62
     1
 10
80.0
 20
145.25
 30
0.0
 11
83.0
 21
145.25
 31
0.0
  0
ARC
  8
0
  6
CONTINUOUS
 62
     1
 10
80.0
 20
144.75
 30
0.0
 40
0.5
 50
89.999732312
 51
228.94177218
  0
LINE
  8
0
  6
CONTINUOUS
 62
     1
 10
83.0
 20
136.38941721
 30
0.0
 11
80.0
 21
136.38941721
 31
0.0
  0
LINE
  8
0
  6
CONTINUOUS
 62
     1
 10
80.0
 20
137.38941721
 30
0.0
 11
83.0
 21
137.38941721
 31
0.0
  0
ARC
  8
0
  6
CONTINUOUS
 62
     1
 10
80.0
 20
136.88941721
 30
0.0
 40
0.5
 50
89.999732312
 51
270.000267688
  0
LINE
  8
0
  6
CONTINUOUS
 62
     1
 10
83.0
 20
134.942416869
 30
0.0
 11
80.0
 21
134.942416869
 31
0.0
  0
LINE
  8
0
  6
CONTINUOUS
 62
     1
 10
80.0
 20
135.942416869
 30
0.0
 11
83.0
 21
135.942416869
 31
0.0
  0
ARC
  8
0
  6
CONTINUOUS
 62
     1
 10
80.0
 20
135.442416869
 30
0.0
 40
0.5
 50
89.999732312
 51
270.000267688
  0
LINE
  8
0
  6
CONTINUOUS
 62
     1
 10
78.2
 20
138.0
 30
0.0
 11
83.0
 21
138.0
 31
0.0
  0
LINE
  8
0
  6
CONTINUOUS
 62
     1
 10
83.3
 20
127.0
 30
0.0
 11
83.3
 21
153.0
 31
0.0
  0
LINE
  8
0
  6
CONTINUOUS
 62
     1
 10
161.0
 20
120.5
 30
0.0
 11
186.0
 21
120.5
 31
0.0
  0
LINE
  8
0
  6
CONTINUOUS
 62
     1
 10
186.0
 20
120.5
 30
0.0
 11
186.0
 21
159.5
 31
0.0
  0
LINE
  8
0
  6
CONTINUOUS
 62
     1
 10
186.0
 20
159.5
 30
0.0
 11
161.0
 21
159.5
 31
0.0
  0
LINE
  8
0
  6
CONTINUOUS
 62
     1
 10
161.0
 20
159.5
 30
0.0
 11
161.0
 21
120.5
 31
0.0
  0
LINE
  8
0
  6
CONTINUOUS
 62
     1
 10
161.5
 20
159.0
 30
0.0
 11
185.5
 21
159.0
 31
0.0
  0
LINE
  8
0
  6
CONTINUOUS
 62
     1
 10
185.5
 20
159.0
 30
0.0
 11
185.5
 21
121.0
 31
0.0
  0
LINE
  8
0
  6
CONTINUOUS
 62
     1
 10
185.5
 20
121.0
 30
0.0
 11
161.5
 21
121.0
 31
0.0
  0
LINE
  8
0
  6
CONTINUOUS
 62
     1
 10
161.5
 20
121.0
 30
0.0
 11
161.5
 21
159.0
 31
0.0
  0
LINE
  8
0
  6
CONTINUOUS
 62
     1
 10
163.0
 20
157.5
 30
0.0
 11
184.0
 21
157.5
 31
0.0
  0
LINE
  8
0
  6
CONTINUOUS
 62
     1
 10
163.0
 20
122.5
 30
0.0
 11
184.0
 21
122.5
 31
0.0
  0
LINE
  8
0
  6
CONTINUOUS
 62
     1
 10
163.0
 20
157.5
 30
0.0
 11
163.0
 21
122.5
 31
0.0
  0
LINE
  8
0
  6
CONTINUOUS
 62
     1
 10
184.0
 20
122.5
 30
0.0
 11
184.0
 21
157.5
 31
0.0
  0
LINE
  8
0
  6
CONTINUOUS
 62
     1
 10
164.0
 20
156.5
 30
0.0
 11
183.0
 21
156.5
 31
0.0
  0
LINE
  8
0
  6
CONTINUOUS
 62
     1
 10
183.0
 20
156.5
 30
0.0
 11
183.0
 21
123.5
 31
0.0
  0
LINE
  8
0
  6
CONTINUOUS
 62
     1
 10
183.0
 20
123.5
 30
0.0
 11
164.0
 21
123.5
 31
0.0
  0
LINE
  8
0
  6
CONTINUOUS
 62
     1
 10
164.0
 20
123.5
 30
0.0
 11
164.0
 21
156.5
 31
0.0
  0
CIRCLE
  8
0
  6
CONTINUOUS
 62
     1
 10
180.25
 20
132.5
 30
0.0
 40
1.625
  0
CIRCLE
  8
0
  6
CONTINUOUS
 62
     1
 10
180.25
 20
127.5
 30
0.0
 40
1.625
  0
LINE
  8
0
  6
CONTINUOUS
 62
     1
 10
46.3
 20
65.0
 30
0.0
 11
50.2
 21
65.0
 31
0.0
  0
LINE
  8
0
  6
CONTINUOUS
 62
     1
 10
50.2
 20
65.0
 30
0.0
 11
50.2
 21
73.0
 31
0.0
  0
LINE
  8
0
  6
CONTINUOUS
 62
     1
 10
51.5
 20
73.0
 30
0.0
 11
51.5
 21
65.0
 31
0.0
  0
LINE
  8
0
  6
CONTINUOUS
 62
     1
 10
51.5
 20
65.0
 30
0.0
 11
55.4
 21
65.0
 31
0.0
  0
LINE
  8
0
  6
CONTINUOUS
 62
     1
 10
55.4
 20
65.0
 30
0.0
 11
55.4
 21
74.0
 31
0.0
  0
LINE
  8
0
  6
CONTINUOUS
 62
     1
 10
55.4
 20
74.0
 30
0.0
 11
56.625
 21
74.0
 31
0.0
  0
LINE
  8
0
  6
CONTINUOUS
 62
     1
 10
56.625
 20
74.0
 30
0.0
 11
56.625
 21
62.2
 31
0.0
  0
LINE
  8
0
  6
CONTINUOUS
 62
     1
 10
56.625
 20
62.2
 30
0.0
 11
57.5
 21
62.2
 31
0.0
  0
LINE
  8
0
  6
CONTINUOUS
 62
     1
 10
55.4
 20
70.7
 30
0.0
 11
55.4
 21
70.2
 31
0.0
  0
LINE
  8
0
  6
CONTINUOUS
 62
     1
 10
45.0
 20
73.0
 30
0.0
 11
45.0
 21
54.0
 31
0.0
  0
LINE
  8
0
  6
CONTINUOUS
 62
     1
 10
68.7
 20
65.0
 30
0.0
 11
64.8
 21
65.0
 31
0.0
  0
LINE
  8
0
  6
CONTINUOUS
 62
     1
 10
63.5
 20
73.0
 30
0.0
 11
63.5
 21
65.0
 31
0.0
  0
LINE
  8
0
  6
CONTINUOUS
 62
     1
 10
63.5
 20
65.0
 30
0.0
 11
59.6
 21
65.0
 31
0.0
  0
LINE
  8
0
  6
CONTINUOUS
 62
     1
 10
59.6
 20
65.0
 30
0.0
 11
59.6
 21
74.0
 31
0.0
  0
LINE
  8
0
  6
CONTINUOUS
 62
     1
 10
59.6
 20
74.0
 30
0.0
 11
58.375
 21
74.0
 31
0.0
  0
LINE
  8
0
  6
CONTINUOUS
 62
     1
 10
58.375
 20
74.0
 30
0.0
 11
58.375
 21
62.2
 31
0.0
  0
LINE
  8
0
  6
CONTINUOUS
 62
     1
 10
58.375
 20
62.2
 30
0.0
 11
57.5
 21
62.2
 31
0.0
  0
LINE
  8
0
  6
CONTINUOUS
 62
     1
 10
59.6
 20
70.7
 30
0.0
 11
59.6
 21
70.2
 31
0.0
  0
LINE
  8
0
  6
CONTINUOUS
 62
     1
 10
70.0
 20
73.0
 30
0.0
 11
70.0
 21
54.0
 31
0.0
  0
LINE
  8
0
  6
CONTINUOUS
 62
     1
 10
56.625
 20
74.0
 30
0.0
 11
58.375
 21
74.0
 31
0.0
  0
LINE
  8
0
  6
CONTINUOUS
 62
     1
 10
56.625
 20
67.7
 30
0.0
 11
58.375
 21
67.7
 31
0.0
  0
LINE
  8
0
  6
CONTINUOUS
 62
     1
 10
56.625
 20
72.9
 30
0.0
 11
58.375
 21
72.9
 31
0.0
  0
LINE
  8
0
  6
CONTINUOUS
 62
     1
 10
51.5
 20
35.0
 30
0.0
 11
51.5
 21
43.0
 31
0.0
  0
LINE
  8
0
  6
CONTINUOUS
 62
     1
 10
51.5
 20
43.0
 30
0.0
 11
55.4
 21
43.0
 31
0.0
  0
LINE
  8
0
  6
CONTINUOUS
 62
     1
 10
55.4
 20
43.0
 30
0.0
 11
55.4
 21
34.0
 31
0.0
  0
LINE
  8
0
  6
CONTINUOUS
 62
     1
 10
55.4
 20
34.0
 30
0.0
 11
56.625
 21
34.0
 31
0.0
  0
LINE
  8
0
  6
CONTINUOUS
 62
     1
 10
56.625
 20
34.0
 30
0.0
 11
56.625
 21
45.8
 31
0.0
  0
LINE
  8
0
  6
CONTINUOUS
 62
     1
 10
56.625
 20
45.8
 30
0.0
 11
57.5
 21
45.8
 31
0.0
  0
LINE
  8
0
  6
CONTINUOUS
 62
     1
 10
55.4
 20
37.3
 30
0.0
 11
55.4
 21
37.8
 31
0.0
  0
LINE
  8
0
  6
CONTINUOUS
 62
     1
 10
45.0
 20
35.0
 30
0.0
 11
45.0
 21
54.0
 31
0.0
  0
LINE
  8
0
  6
CONTINUOUS
 62
     1
 10
63.5
 20
35.0
 30
0.0
 11
63.5
 21
43.0
 31
0.0
  0
LINE
  8
0
  6
CONTINUOUS
 62
     1
 10
63.5
 20
43.0
 30
0.0
 11
59.6
 21
43.0
 31
0.0
  0
LINE
  8
0
  6
CONTINUOUS
 62
     1
 10
59.6
 20
43.0
 30
0.0
 11
59.6
 21
34.0
 31
0.0
  0
LINE
  8
0
  6
CONTINUOUS
 62
     1
 10
59.6
 20
34.0
 30
0.0
 11
58.375
 21
34.0
 31
0.0
  0
LINE
  8
0
  6
CONTINUOUS
 62
     1
 10
58.375
 20
34.0
 30
0.0
 11
58.375
 21
45.8
 31
0.0
  0
LINE
  8
0
  6
CONTINUOUS
 62
     1
 10
58.375
 20
45.8
 30
0.0
 11
57.5
 21
45.8
 31
0.0
  0
LINE
  8
0
  6
CONTINUOUS
 62
     1
 10
59.6
 20
37.3
 30
0.0
 11
59.6
 21
37.8
 31
0.0
  0
LINE
  8
0
  6
CONTINUOUS
 62
     1
 10
70.0
 20
35.0
 30
0.0
 11
70.0
 21
54.0
 31
0.0
  0
LINE
  8
0
  6
CONTINUOUS
 62
     1
 10
56.625
 20
34.0
 30
0.0
 11
58.375
 21
34.0
 31
0.0
  0
LINE
  8
0
  6
CONTINUOUS
 62
     1
 10
56.625
 20
40.3
 30
0.0
 11
58.375
 21
40.3
 31
0.0
  0
LINE
  8
0
  6
CONTINUOUS
 62
     1
 10
56.625
 20
35.1
 30
0.0
 11
58.375
 21
35.1
 31
0.0
  0
CIRCLE
  8
0
  6
CONTINUOUS
 62
     1
 10
57.5
 20
54.0
 30
0.0
 40
7.2
  0
CIRCLE
  8
0
  6
CONTINUOUS
 62
     1
 10
47.5
 20
54.0
 30
0.0
 40
1.125
  0
CIRCLE
  8
0
  6
CONTINUOUS
 62
     1
 10
67.5
 20
54.0
 30
0.0
 40
1.125
  0
LINE
  8
0
  6
CONTINUOUS
 62
     1
 10
50.5
 20
35.0
 30
0.0
 11
50.5
 21
34.75
 31
0.0
  0
LINE
  8
0
  6
CONTINUOUS
 62
     1
 10
50.5
 20
34.75
 30
0.0
 11
51.25
 21
34.0
 31
0.0
  0
LINE
  8
0
  6
CONTINUOUS
 62
     1
 10
51.25
 20
34.0
 30
0.0
 11
54.75
 21
34.0
 31
0.0
  0
LINE
  8
0
  6
CONTINUOUS
 62
     1
 10
54.75
 20
34.0
 30
0.0
 11
54.75
 21
33.0
 31
0.0
  0
LINE
  8
0
  6
CONTINUOUS
 62
     1
 10
54.75
 20
33.0
 30
0.0
 11
56.25
 21
32.0
 31
0.0
  0
LINE
  8
0
  6
CONTINUOUS
 62
     1
 10
56.25
 20
32.0
 30
0.0
 11
58.75
 21
32.0
 31
0.0
  0
LINE
  8
0
  6
CONTINUOUS
 62
     1
 10
58.75
 20
32.0
 30
0.0
 11
60.25
 21
33.0
 31
0.0
  0
LINE
  8
0
  6
CONTINUOUS
 62
     1
 10
60.25
 20
33.0
 30
0.0
 11
60.25
 21
34.0
 31
0.0
  0
LINE
  8
0
  6
CONTINUOUS
 62
     1
 10
60.25
 20
34.0
 30
0.0
 11
63.75
 21
34.0
 31
0.0
  0
LINE
  8
0
  6
CONTINUOUS
 62
     1
 10
63.75
 20
34.0
 30
0.0
 11
64.5
 21
34.75
 31
0.0
  0
LINE
  8
0
  6
CONTINUOUS
 62
     1
 10
55.75
 20
34.0
 30
0.0
 11
55.75
 21
33.5
 31
0.0
  0
LINE
  8
0
  6
CONTINUOUS
 62
     1
 10
55.75
 20
33.5
 30
0.0
 11
56.5
 21
33.5
 31
0.0
  0
LINE
  8
0
  6
CONTINUOUS
 62
     1
 10
58.5
 20
33.5
 30
0.0
 11
59.25
 21
33.5
 31
0.0
  0
LINE
  8
0
  6
CONTINUOUS
 62
     1
 10
59.25
 20
33.5
 30
0.0
 11
59.25
 21
34.0
 31
0.0
  0
ARC
  8
0
  6
CONTINUOUS
 62
     1
 10
57.5
 20
33.5
 30
0.0
 40
1.0
 50
180.0
 51
0.0
  0
LINE
  8
0
  6
CONTINUOUS
 62
     1
 10
46.3
 20
35.75
 30
0.0
 11
45.0
 21
35.75
 31
0.0
  0
LINE
  8
0
  6
CONTINUOUS
 62
     1
 10
50.25
 20
35.75
 30
0.0
 11
51.5
 21
35.75
 31
0.0
  0
LINE
  8
0
  6
CONTINUOUS
 62
     1
 10
63.5
 20
35.75
 30
0.0
 11
64.8
 21
35.75
 31
0.0
  0
LINE
  8
0
  6
CONTINUOUS
 62
     1
 10
68.7
 20
35.75
 30
0.0
 11
70.0
 21
35.75
 31
0.0
  0
LINE
  8
0
  6
CONTINUOUS
 62
     1
 10
55.4
 20
34.75
 30
0.0
 11
56.625
 21
34.75
 31
0.0
  0
LINE
  8
0
  6
CONTINUOUS
 62
     1
 10
58.375
 20
34.75
 30
0.0
 11
59.625
 21
34.75
 31
0.0
  0
LINE
  8
0
  6
CONTINUOUS
 62
     1
 10
46.3
 20
72.25
 30
0.0
 11
45.0
 21
72.25
 31
0.0
  0
LINE
  8
0
  6
CONTINUOUS
 62
     1
 10
50.25
 20
72.25
 30
0.0
 11
51.5
 21
72.25
 31
0.0
  0
LINE
  8
0
  6
CONTINUOUS
 62
     1
 10
55.4
 20
73.25
 30
0.0
 11
56.625
 21
73.25
 31
0.0
  0
LINE
  8
0
  6
CONTINUOUS
 62
     1
 10
58.375
 20
73.25
 30
0.0
 11
59.625
 21
73.25
 31
0.0
  0
LINE
  8
0
  6
CONTINUOUS
 62
     1
 10
63.5
 20
72.25
 30
0.0
 11
64.8
 21
72.25
 31
0.0
  0
LINE
  8
0
  6
CONTINUOUS
 62
     1
 10
68.7
 20
72.25
 30
0.0
 11
70.0
 21
72.25
 31
0.0
  0
TEXT
  8
0
  6
CONTINUOUS
 62
     1
 10
60.9
 20
43.6
 30
0.15
 40
1.5
  1
１
 50
0.0
 41
0.9
 51
0.0
  7
KANJI1
  0
LINE
  8
0
  6
CONTINUOUS
 62
     1
 10
92.5
 20
61.2
 30
0.0
 11
90.0
 21
61.2
 31
0.0
  0
LINE
  8
0
  6
CONTINUOUS
 62
     1
 10
90.0
 20
61.2
 30
0.0
 11
90.0
 21
46.8
 31
0.0
  0
LINE
  8
0
  6
CONTINUOUS
 62
     1
 10
90.0
 20
46.8
 30
0.0
 11
92.5
 21
46.8
 31
0.0
  0
CIRCLE
  8
0
  6
CONTINUOUS
 62
     1
 10
57.5
 20
58.75
 30
0.0
 40
0.6
  0
CIRCLE
  8
0
  6
CONTINUOUS
 62
     1
 10
60.068038811
 20
57.995957541
 30
0.0
 40
0.6
  0
CIRCLE
  8
0
  6
CONTINUOUS
 62
     1
 10
61.820750413
 20
55.97322474
 30
0.0
 40
0.6
  0
CIRCLE
  8
0
  6
CONTINUOUS
 62
     1
 10
62.201652063
 20
53.32400601
 30
0.0
 40
0.6
  0
CIRCLE
  8
0
  6
CONTINUOUS
 62
     1
 10
61.089815414
 20
50.88941721
 30
0.0
 40
0.6
  0
CIRCLE
  8
0
  6
CONTINUOUS
 62
     1
 10
58.83825857
 20
49.442416869
 30
0.0
 40
0.6
  0
CIRCLE
  8
0
  6
CONTINUOUS
 62
     1
 10
56.161765293
 20
49.442409862
 30
0.0
 40
0.6
  0
CIRCLE
  8
0
  6
CONTINUOUS
 62
     1
 10
53.910184586
 20
50.88941721
 30
0.0
 40
0.6
  0
CIRCLE
  8
0
  6
CONTINUOUS
 62
     1
 10
52.798348055
 20
53.32400519
 30
0.0
 40
0.6
  0
CIRCLE
  8
0
  6
CONTINUOUS
 62
     1
 10
53.17924821
 20
55.973221723
 30
0.0
 40
0.6
  0
CIRCLE
  8
0
  6
CONTINUOUS
 62
     1
 10
54.931956307
 20
57.995954403
 30
0.0
 40
0.6
  0
LINE
  8
0
  6
CONTINUOUS
 62
     1
 10
50.2
 20
69.5
 30
0.0
 11
46.3
 21
69.5
 31
0.0
  0
LINE
  8
0
  6
CONTINUOUS
 62
     1
 10
46.3
 20
70.5
 30
0.0
 11
50.2
 21
70.5
 31
0.0
  0
LINE
  8
0
  6
CONTINUOUS
 62
     1
 10
55.4
 20
69.5
 30
0.0
 11
51.5
 21
69.5
 31
0.0
  0
LINE
  8
0
  6
CONTINUOUS
 62
     1
 10
51.5
 20
70.5
 30
0.0
 11
55.4
 21
70.5
 31
0.0
  0
LINE
  8
0
  6
CONTINUOUS
 62
     1
 10
63.5
 20
69.5
 30
0.0
 11
59.6
 21
69.5
 31
0.0
  0
LINE
  8
0
  6
CONTINUOUS
 62
     1
 10
59.6
 20
70.5
 30
0.0
 11
63.5
 21
70.5
 31
0.0
  0
LINE
  8
0
  6
CONTINUOUS
 62
     1
 10
68.7
 20
69.5
 30
0.0
 11
64.8
 21
69.5
 31
0.0
  0
LINE
  8
0
  6
CONTINUOUS
 62
     1
 10
64.8
 20
70.5
 30
0.0
 11
68.7
 21
70.5
 31
0.0
  0
CIRCLE
  8
0
  6
CONTINUOUS
 62
     1
 10
57.5
 20
54.0
 30
0.0
 40
2.8
  0
ARC
  8
0
  6
CONTINUOUS
 62
     1
 10
57.5
 20
52.0
 30
0.0
 40
0.7
 50
187.180755781
 51
352.819244219
  0
ARC
  8
0
  6
CONTINUOUS
 62
     1
 10
57.5
 20
54.0
 30
0.0
 40
2.2
 50
288.402246196
 51
251.597753804
  0
LINE
  8
0
  6
CONTINUOUS
 62
     1
 10
55.4
 20
38.5
 30
0.0
 11
51.5
 21
38.5
 31
0.0
  0
LINE
  8
0
  6
CONTINUOUS
 62
     1
 10
51.5
 20
37.5
 30
0.0
 11
55.4
 21
37.5
 31
0.0
  0
LINE
  8
0
  6
CONTINUOUS
 62
     1
 10
63.5
 20
38.5
 30
0.0
 11
59.6
 21
38.5
 31
0.0
  0
LINE
  8
0
  6
CONTINUOUS
 62
     1
 10
59.6
 20
37.5
 30
0.0
 11
63.5
 21
37.5
 31
0.0
  0
LINE
  8
0
  6
CONTINUOUS
 62
     1
 10
68.7
 20
57.0
 30
0.0
 11
64.8
 21
57.0
 31
0.0
  0
LINE
  8
0
  6
CONTINUOUS
 62
     1
 10
64.8
 20
57.0
 30
0.0
 11
64.8
 21
73.0
 31
0.0
  0
LINE
  8
0
  6
CONTINUOUS
 62
     1
 10
64.8
 20
62.7
 30
0.0
 11
64.8
 21
62.2
 31
0.0
  0
LINE
  8
0
  6
CONTINUOUS
 62
     1
 10
65.5
 20
56.0
 30
0.0
 11
70.0
 21
56.0
 31
0.0
  0
LINE
  8
0
  6
CONTINUOUS
 62
     1
 10
70.0
 20
52.0
 30
0.0
 11
65.5
 21
52.0
 31
0.0
  0
LINE
  8
0
  6
CONTINUOUS
 62
     1
 10
65.5
 20
56.0
 30
0.0
 11
65.5
 21
52.0
 31
0.0
  0
LINE
  8
0
  6
CONTINUOUS
 62
     1
 10
49.5
 20
56.0
 30
0.0
 11
45.0
 21
56.0
 31
0.0
  0
LINE
  8
0
  6
CONTINUOUS
 62
     1
 10
49.5
 20
56.0
 30
0.0
 11
49.5
 21
52.0
 31
0.0
  0
LINE
  8
0
  6
CONTINUOUS
 62
     1
 10
45.0
 20
52.0
 30
0.0
 11
49.5
 21
52.0
 31
0.0
  0
LINE
  8
0
  6
CONTINUOUS
 62
     1
 10
59.6
 20
73.0
 30
0.0
 11
70.0
 21
73.0
 31
0.0
  0
LINE
  8
0
  6
CONTINUOUS
 62
     1
 10
55.4
 20
73.0
 30
0.0
 11
45.0
 21
73.0
 31
0.0
  0
LINE
  8
0
  6
CONTINUOUS
 62
     1
 10
59.6
 20
35.0
 30
0.0
 11
70.0
 21
35.0
 31
0.0
  0
LINE
  8
0
  6
CONTINUOUS
 62
     1
 10
55.4
 20
35.0
 30
0.0
 11
45.0
 21
35.0
 31
0.0
  0
LINE
  8
0
  6
CONTINUOUS
 62
     1
 10
64.5
 20
34.75
 30
0.0
 11
64.5
 21
35.0
 31
0.0
  0
LINE
  8
0
  6
CONTINUOUS
 62
     1
 10
68.7
 20
43.0
 30
0.0
 11
64.8
 21
43.0
 31
0.0
  0
LINE
  8
0
  6
CONTINUOUS
 62
     1
 10
68.7
 20
38.5
 30
0.0
 11
64.8
 21
38.5
 31
0.0
  0
LINE
  8
0
  6
CONTINUOUS
 62
     1
 10
64.8
 20
37.5
 30
0.0
 11
68.7
 21
37.5
 31
0.0
  0
LINE
  8
0
  6
CONTINUOUS
 62
     1
 10
68.7
 20
51.0
 30
0.0
 11
64.8
 21
51.0
 31
0.0
  0
LINE
  8
0
  6
CONTINUOUS
 62
     1
 10
64.8
 20
51.0
 30
0.0
 11
64.8
 21
35.0
 31
0.0
  0
LINE
  8
0
  6
CONTINUOUS
 62
     1
 10
64.8
 20
45.3
 30
0.0
 11
64.8
 21
45.8
 31
0.0
  0
LINE
  8
0
  6
CONTINUOUS
 62
     1
 10
50.2
 20
43.0
 30
0.0
 11
46.3
 21
43.0
 31
0.0
  0
LINE
  8
0
  6
CONTINUOUS
 62
     1
 10
50.2
 20
38.5
 30
0.0
 11
46.3
 21
38.5
 31
0.0
  0
LINE
  8
0
  6
CONTINUOUS
 62
     1
 10
46.3
 20
37.5
 30
0.0
 11
50.2
 21
37.5
 31
0.0
  0
LINE
  8
0
  6
CONTINUOUS
 62
     1
 10
50.2
 20
51.0
 30
0.0
 11
46.3
 21
51.0
 31
0.0
  0
LINE
  8
0
  6
CONTINUOUS
 62
     1
 10
50.2
 20
35.0
 30
0.0
 11
50.2
 21
51.0
 31
0.0
  0
LINE
  8
0
  6
CONTINUOUS
 62
     1
 10
56.625
 20
68.8
 30
0.0
 11
58.375
 21
68.8
 31
0.0
  0
LINE
  8
0
  6
CONTINUOUS
 62
     1
 10
56.625
 20
39.2
 30
0.0
 11
58.375
 21
39.2
 31
0.0
  0
CIRCLE
  8
0
  6
CONTINUOUS
 62
     1
 10
48.25
 20
67.25
 30
0.0
 40
1.35
  0
LINE
  8
0
  6
CONTINUOUS
 62
     1
 10
47.65
 20
67.85
 30
0.0
 11
48.85
 21
66.65
 31
0.0
  0
LINE
  8
0
  6
CONTINUOUS
 62
     1
 10
48.85
 20
67.85
 30
0.0
 11
47.65
 21
66.65
 31
0.0
  0
LINE
  8
0
  6
CONTINUOUS
 62
     1
 10
46.65
 20
68.85
 30
0.0
 11
49.85
 21
68.85
 31
0.0
  0
LINE
  8
0
  6
CONTINUOUS
 62
     1
 10
49.85
 20
68.85
 30
0.0
 11
49.85
 21
65.65
 31
0.0
  0
LINE
  8
0
  6
CONTINUOUS
 62
     1
 10
49.85
 20
65.65
 30
0.0
 11
46.65
 21
65.65
 31
0.0
  0
LINE
  8
0
  6
CONTINUOUS
 62
     1
 10
46.65
 20
65.65
 30
0.0
 11
46.65
 21
68.85
 31
0.0
  0
LINE
  8
0
  6
CONTINUOUS
 62
     1
 10
48.05
 20
65.914897008
 30
0.0
 11
48.05
 21
65.65
 31
0.0
  0
LINE
  8
0
  6
CONTINUOUS
 62
     1
 10
48.05
 20
68.85
 30
0.0
 11
48.05
 21
68.585102992
 31
0.0
  0
LINE
  8
0
  6
CONTINUOUS
 62
     1
 10
48.45
 20
68.585102992
 30
0.0
 11
48.45
 21
68.85
 31
0.0
  0
LINE
  8
0
  6
CONTINUOUS
 62
     1
 10
48.45
 20
65.65
 30
0.0
 11
48.45
 21
65.914897008
 31
0.0
  0
CIRCLE
  8
0
  6
CONTINUOUS
 62
     1
 10
53.45
 20
67.25
 30
0.0
 40
1.35
  0
LINE
  8
0
  6
CONTINUOUS
 62
     1
 10
52.85
 20
67.85
 30
0.0
 11
54.05
 21
66.65
 31
0.0
  0
LINE
  8
0
  6
CONTINUOUS
 62
     1
 10
54.05
 20
67.85
 30
0.0
 11
52.85
 21
66.65
 31
0.0
  0
LINE
  8
0
  6
CONTINUOUS
 62
     1
 10
51.85
 20
68.85
 30
0.0
 11
55.05
 21
68.85
 31
0.0
  0
LINE
  8
0
  6
CONTINUOUS
 62
     1
 10
55.05
 20
68.85
 30
0.0
 11
55.05
 21
65.65
 31
0.0
  0
LINE
  8
0
  6
CONTINUOUS
 62
     1
 10
55.05
 20
65.65
 30
0.0
 11
51.85
 21
65.65
 31
0.0
  0
LINE
  8
0
  6
CONTINUOUS
 62
     1
 10
51.85
 20
65.65
 30
0.0
 11
51.85
 21
68.85
 31
0.0
  0
LINE
  8
0
  6
CONTINUOUS
 62
     1
 10
53.25
 20
65.914897008
 30
0.0
 11
53.25
 21
65.65
 31
0.0
  0
LINE
  8
0
  6
CONTINUOUS
 62
     1
 10
53.25
 20
68.85
 30
0.0
 11
53.25
 21
68.585102992
 31
0.0
  0
LINE
  8
0
  6
CONTINUOUS
 62
     1
 10
53.65
 20
68.585102992
 30
0.0
 11
53.65
 21
68.85
 31
0.0
  0
LINE
  8
0
  6
CONTINUOUS
 62
     1
 10
53.65
 20
65.65
 30
0.0
 11
53.65
 21
65.914897008
 31
0.0
  0
CIRCLE
  8
0
  6
CONTINUOUS
 62
     1
 10
61.55
 20
67.25
 30
0.0
 40
1.35
  0
LINE
  8
0
  6
CONTINUOUS
 62
     1
 10
60.95
 20
67.85
 30
0.0
 11
62.15
 21
66.65
 31
0.0
  0
LINE
  8
0
  6
CONTINUOUS
 62
     1
 10
62.15
 20
67.85
 30
0.0
 11
60.95
 21
66.65
 31
0.0
  0
LINE
  8
0
  6
CONTINUOUS
 62
     1
 10
59.95
 20
68.85
 30
0.0
 11
63.15
 21
68.85
 31
0.0
  0
LINE
  8
0
  6
CONTINUOUS
 62
     1
 10
63.15
 20
68.85
 30
0.0
 11
63.15
 21
65.65
 31
0.0
  0
LINE
  8
0
  6
CONTINUOUS
 62
     1
 10
63.15
 20
65.65
 30
0.0
 11
59.95
 21
65.65
 31
0.0
  0
LINE
  8
0
  6
CONTINUOUS
 62
     1
 10
59.95
 20
65.65
 30
0.0
 11
59.95
 21
68.85
 31
0.0
  0
LINE
  8
0
  6
CONTINUOUS
 62
     1
 10
61.35
 20
65.914897008
 30
0.0
 11
61.35
 21
65.65
 31
0.0
  0
LINE
  8
0
  6
CONTINUOUS
 62
     1
 10
61.35
 20
68.85
 30
0.0
 11
61.35
 21
68.585102992
 31
0.0
  0
LINE
  8
0
  6
CONTINUOUS
 62
     1
 10
61.75
 20
68.585102992
 30
0.0
 11
61.75
 21
68.85
 31
0.0
  0
LINE
  8
0
  6
CONTINUOUS
 62
     1
 10
61.75
 20
65.65
 30
0.0
 11
61.75
 21
65.914897008
 31
0.0
  0
CIRCLE
  8
0
  6
CONTINUOUS
 62
     1
 10
66.75
 20
67.25
 30
0.0
 40
1.35
  0
LINE
  8
0
  6
CONTINUOUS
 62
     1
 10
66.15
 20
67.85
 30
0.0
 11
67.35
 21
66.65
 31
0.0
  0
LINE
  8
0
  6
CONTINUOUS
 62
     1
 10
67.35
 20
67.85
 30
0.0
 11
66.15
 21
66.65
 31
0.0
  0
LINE
  8
0
  6
CONTINUOUS
 62
     1
 10
65.15
 20
68.85
 30
0.0
 11
68.35
 21
68.85
 31
0.0
  0
LINE
  8
0
  6
CONTINUOUS
 62
     1
 10
68.35
 20
68.85
 30
0.0
 11
68.35
 21
65.65
 31
0.0
  0
LINE
  8
0
  6
CONTINUOUS
 62
     1
 10
68.35
 20
65.65
 30
0.0
 11
65.15
 21
65.65
 31
0.0
  0
LINE
  8
0
  6
CONTINUOUS
 62
     1
 10
65.15
 20
65.65
 30
0.0
 11
65.15
 21
68.85
 31
0.0
  0
LINE
  8
0
  6
CONTINUOUS
 62
     1
 10
66.55
 20
65.914897008
 30
0.0
 11
66.55
 21
65.65
 31
0.0
  0
LINE
  8
0
  6
CONTINUOUS
 62
     1
 10
66.55
 20
68.85
 30
0.0
 11
66.55
 21
68.585102992
 31
0.0
  0
LINE
  8
0
  6
CONTINUOUS
 62
     1
 10
66.95
 20
68.585102992
 30
0.0
 11
66.95
 21
68.85
 31
0.0
  0
LINE
  8
0
  6
CONTINUOUS
 62
     1
 10
66.95
 20
65.65
 30
0.0
 11
66.95
 21
65.914897008
 31
0.0
  0
CIRCLE
  8
0
  6
CONTINUOUS
 62
     1
 10
66.75
 20
59.25
 30
0.0
 40
1.35
  0
LINE
  8
0
  6
CONTINUOUS
 62
     1
 10
66.15
 20
59.85
 30
0.0
 11
67.35
 21
58.65
 31
0.0
  0
LINE
  8
0
  6
CONTINUOUS
 62
     1
 10
67.35
 20
59.85
 30
0.0
 11
66.15
 21
58.65
 31
0.0
  0
LINE
  8
0
  6
CONTINUOUS
 62
     1
 10
65.15
 20
60.85
 30
0.0
 11
68.35
 21
60.85
 31
0.0
  0
LINE
  8
0
  6
CONTINUOUS
 62
     1
 10
68.35
 20
60.85
 30
0.0
 11
68.35
 21
57.65
 31
0.0
  0
LINE
  8
0
  6
CONTINUOUS
 62
     1
 10
68.35
 20
57.65
 30
0.0
 11
65.15
 21
57.65
 31
0.0
  0
LINE
  8
0
  6
CONTINUOUS
 62
     1
 10
65.15
 20
57.65
 30
0.0
 11
65.15
 21
60.85
 31
0.0
  0
LINE
  8
0
  6
CONTINUOUS
 62
     1
 10
66.55
 20
57.914897008
 30
0.0
 11
66.55
 21
57.65
 31
0.0
  0
LINE
  8
0
  6
CONTINUOUS
 62
     1
 10
66.55
 20
60.85
 30
0.0
 11
66.55
 21
60.585102992
 31
0.0
  0
LINE
  8
0
  6
CONTINUOUS
 62
     1
 10
66.95
 20
60.585102992
 30
0.0
 11
66.95
 21
60.85
 31
0.0
  0
LINE
  8
0
  6
CONTINUOUS
 62
     1
 10
66.95
 20
57.65
 30
0.0
 11
66.95
 21
57.914897008
 31
0.0
  0
CIRCLE
  8
0
  6
CONTINUOUS
 62
     1
 10
66.75
 20
48.75
 30
0.0
 40
1.35
  0
LINE
  8
0
  6
CONTINUOUS
 62
     1
 10
66.15
 20
49.35
 30
0.0
 11
67.35
 21
48.15
 31
0.0
  0
LINE
  8
0
  6
CONTINUOUS
 62
     1
 10
67.35
 20
49.35
 30
0.0
 11
66.15
 21
48.15
 31
0.0
  0
LINE
  8
0
  6
CONTINUOUS
 62
     1
 10
65.15
 20
50.35
 30
0.0
 11
68.35
 21
50.35
 31
0.0
  0
LINE
  8
0
  6
CONTINUOUS
 62
     1
 10
68.35
 20
50.35
 30
0.0
 11
68.35
 21
47.15
 31
0.0
  0
LINE
  8
0
  6
CONTINUOUS
 62
     1
 10
68.35
 20
47.15
 30
0.0
 11
65.15
 21
47.15
 31
0.0
  0
LINE
  8
0
  6
CONTINUOUS
 62
     1
 10
65.15
 20
47.15
 30
0.0
 11
65.15
 21
50.35
 31
0.0
  0
LINE
  8
0
  6
CONTINUOUS
 62
     1
 10
66.55
 20
47.414897008
 30
0.0
 11
66.55
 21
47.15
 31
0.0
  0
LINE
  8
0
  6
CONTINUOUS
 62
     1
 10
66.55
 20
50.35
 30
0.0
 11
66.55
 21
50.085102992
 31
0.0
  0
LINE
  8
0
  6
CONTINUOUS
 62
     1
 10
66.95
 20
50.085102992
 30
0.0
 11
66.95
 21
50.35
 31
0.0
  0
LINE
  8
0
  6
CONTINUOUS
 62
     1
 10
66.95
 20
47.15
 30
0.0
 11
66.95
 21
47.414897008
 31
0.0
  0
CIRCLE
  8
0
  6
CONTINUOUS
 62
     1
 10
66.75
 20
40.75
 30
0.0
 40
1.35
  0
LINE
  8
0
  6
CONTINUOUS
 62
     1
 10
66.15
 20
41.35
 30
0.0
 11
67.35
 21
40.15
 31
0.0
  0
LINE
  8
0
  6
CONTINUOUS
 62
     1
 10
67.35
 20
41.35
 30
0.0
 11
66.15
 21
40.15
 31
0.0
  0
LINE
  8
0
  6
CONTINUOUS
 62
     1
 10
65.15
 20
42.35
 30
0.0
 11
68.35
 21
42.35
 31
0.0
  0
LINE
  8
0
  6
CONTINUOUS
 62
     1
 10
68.35
 20
42.35
 30
0.0
 11
68.35
 21
39.15
 31
0.0
  0
LINE
  8
0
  6
CONTINUOUS
 62
     1
 10
68.35
 20
39.15
 30
0.0
 11
65.15
 21
39.15
 31
0.0
  0
LINE
  8
0
  6
CONTINUOUS
 62
     1
 10
65.15
 20
39.15
 30
0.0
 11
65.15
 21
42.35
 31
0.0
  0
LINE
  8
0
  6
CONTINUOUS
 62
     1
 10
66.55
 20
39.414897008
 30
0.0
 11
66.55
 21
39.15
 31
0.0
  0
LINE
  8
0
  6
CONTINUOUS
 62
     1
 10
66.55
 20
42.35
 30
0.0
 11
66.55
 21
42.085102992
 31
0.0
  0
LINE
  8
0
  6
CONTINUOUS
 62
     1
 10
66.95
 20
42.085102992
 30
0.0
 11
66.95
 21
42.35
 31
0.0
  0
LINE
  8
0
  6
CONTINUOUS
 62
     1
 10
66.95
 20
39.15
 30
0.0
 11
66.95
 21
39.414897008
 31
0.0
  0
CIRCLE
  8
0
  6
CONTINUOUS
 62
     1
 10
61.55
 20
40.75
 30
0.0
 40
1.35
  0
LINE
  8
0
  6
CONTINUOUS
 62
     1
 10
60.95
 20
41.35
 30
0.0
 11
62.15
 21
40.15
 31
0.0
  0
LINE
  8
0
  6
CONTINUOUS
 62
     1
 10
62.15
 20
41.35
 30
0.0
 11
60.95
 21
40.15
 31
0.0
  0
LINE
  8
0
  6
CONTINUOUS
 62
     1
 10
59.95
 20
42.35
 30
0.0
 11
63.15
 21
42.35
 31
0.0
  0
LINE
  8
0
  6
CONTINUOUS
 62
     1
 10
63.15
 20
42.35
 30
0.0
 11
63.15
 21
39.15
 31
0.0
  0
LINE
  8
0
  6
CONTINUOUS
 62
     1
 10
63.15
 20
39.15
 30
0.0
 11
59.95
 21
39.15
 31
0.0
  0
LINE
  8
0
  6
CONTINUOUS
 62
     1
 10
59.95
 20
39.15
 30
0.0
 11
59.95
 21
42.35
 31
0.0
  0
LINE
  8
0
  6
CONTINUOUS
 62
     1
 10
61.35
 20
39.414897008
 30
0.0
 11
61.35
 21
39.15
 31
0.0
  0
LINE
  8
0
  6
CONTINUOUS
 62
     1
 10
61.35
 20
42.35
 30
0.0
 11
61.35
 21
42.085102992
 31
0.0
  0
LINE
  8
0
  6
CONTINUOUS
 62
     1
 10
61.75
 20
42.085102992
 30
0.0
 11
61.75
 21
42.35
 31
0.0
  0
LINE
  8
0
  6
CONTINUOUS
 62
     1
 10
61.75
 20
39.15
 30
0.0
 11
61.75
 21
39.414897008
 31
0.0
  0
CIRCLE
  8
0
  6
CONTINUOUS
 62
     1
 10
53.45
 20
40.75
 30
0.0
 40
1.35
  0
LINE
  8
0
  6
CONTINUOUS
 62
     1
 10
52.85
 20
41.35
 30
0.0
 11
54.05
 21
40.15
 31
0.0
  0
LINE
  8
0
  6
CONTINUOUS
 62
     1
 10
54.05
 20
41.35
 30
0.0
 11
52.85
 21
40.15
 31
0.0
  0
LINE
  8
0
  6
CONTINUOUS
 62
     1
 10
51.85
 20
42.35
 30
0.0
 11
55.05
 21
42.35
 31
0.0
  0
LINE
  8
0
  6
CONTINUOUS
 62
     1
 10
55.05
 20
42.35
 30
0.0
 11
55.05
 21
39.15
 31
0.0
  0
LINE
  8
0
  6
CONTINUOUS
 62
     1
 10
55.05
 20
39.15
 30
0.0
 11
51.85
 21
39.15
 31
0.0
  0
LINE
  8
0
  6
CONTINUOUS
 62
     1
 10
51.85
 20
39.15
 30
0.0
 11
51.85
 21
42.35
 31
0.0
  0
LINE
  8
0
  6
CONTINUOUS
 62
     1
 10
53.25
 20
39.414897008
 30
0.0
 11
53.25
 21
39.15
 31
0.0
  0
LINE
  8
0
  6
CONTINUOUS
 62
     1
 10
53.25
 20
42.35
 30
0.0
 11
53.25
 21
42.085102992
 31
0.0
  0
LINE
  8
0
  6
CONTINUOUS
 62
     1
 10
53.65
 20
42.085102992
 30
0.0
 11
53.65
 21
42.35
 31
0.0
  0
LINE
  8
0
  6
CONTINUOUS
 62
     1
 10
53.65
 20
39.15
 30
0.0
 11
53.65
 21
39.414897008
 31
0.0
  0
CIRCLE
  8
0
  6
CONTINUOUS
 62
     1
 10
48.25
 20
40.75
 30
0.0
 40
1.35
  0
LINE
  8
0
  6
CONTINUOUS
 62
     1
 10
47.65
 20
41.35
 30
0.0
 11
48.85
 21
40.15
 31
0.0
  0
LINE
  8
0
  6
CONTINUOUS
 62
     1
 10
48.85
 20
41.35
 30
0.0
 11
47.65
 21
40.15
 31
0.0
  0
LINE
  8
0
  6
CONTINUOUS
 62
     1
 10
46.65
 20
42.35
 30
0.0
 11
49.85
 21
42.35
 31
0.0
  0
LINE
  8
0
  6
CONTINUOUS
 62
     1
 10
49.85
 20
42.35
 30
0.0
 11
49.85
 21
39.15
 31
0.0
  0
LINE
  8
0
  6
CONTINUOUS
 62
     1
 10
49.85
 20
39.15
 30
0.0
 11
46.65
 21
39.15
 31
0.0
  0
LINE
  8
0
  6
CONTINUOUS
 62
     1
 10
46.65
 20
39.15
 30
0.0
 11
46.65
 21
42.35
 31
0.0
  0
LINE
  8
0
  6
CONTINUOUS
 62
     1
 10
48.05
 20
39.414897008
 30
0.0
 11
48.05
 21
39.15
 31
0.0
  0
LINE
  8
0
  6
CONTINUOUS
 62
     1
 10
48.05
 20
42.35
 30
0.0
 11
48.05
 21
42.085102992
 31
0.0
  0
LINE
  8
0
  6
CONTINUOUS
 62
     1
 10
48.45
 20
42.085102992
 30
0.0
 11
48.45
 21
42.35
 31
0.0
  0
LINE
  8
0
  6
CONTINUOUS
 62
     1
 10
48.45
 20
39.15
 30
0.0
 11
48.45
 21
39.414897008
 31
0.0
  0
CIRCLE
  8
0
  6
CONTINUOUS
 62
     1
 10
48.25
 20
48.75
 30
0.0
 40
1.35
  0
LINE
  8
0
  6
CONTINUOUS
 62
     1
 10
47.65
 20
49.35
 30
0.0
 11
48.85
 21
48.15
 31
0.0
  0
LINE
  8
0
  6
CONTINUOUS
 62
     1
 10
48.85
 20
49.35
 30
0.0
 11
47.65
 21
48.15
 31
0.0
  0
LINE
  8
0
  6
CONTINUOUS
 62
     1
 10
46.65
 20
50.35
 30
0.0
 11
49.85
 21
50.35
 31
0.0
  0
LINE
  8
0
  6
CONTINUOUS
 62
     1
 10
49.85
 20
50.35
 30
0.0
 11
49.85
 21
47.15
 31
0.0
  0
LINE
  8
0
  6
CONTINUOUS
 62
     1
 10
49.85
 20
47.15
 30
0.0
 11
46.65
 21
47.15
 31
0.0
  0
LINE
  8
0
  6
CONTINUOUS
 62
     1
 10
46.65
 20
47.15
 30
0.0
 11
46.65
 21
50.35
 31
0.0
  0
LINE
  8
0
  6
CONTINUOUS
 62
     1
 10
48.05
 20
47.414897008
 30
0.0
 11
48.05
 21
47.15
 31
0.0
  0
LINE
  8
0
  6
CONTINUOUS
 62
     1
 10
48.05
 20
50.35
 30
0.0
 11
48.05
 21
50.085102992
 31
0.0
  0
LINE
  8
0
  6
CONTINUOUS
 62
     1
 10
48.45
 20
50.085102992
 30
0.0
 11
48.45
 21
50.35
 31
0.0
  0
LINE
  8
0
  6
CONTINUOUS
 62
     1
 10
48.45
 20
47.15
 30
0.0
 11
48.45
 21
47.414897008
 31
0.0
  0
LINE
  8
0
  6
CONTINUOUS
 62
     1
 10
46.3
 20
65.75
 30
0.0
 11
45.0
 21
65.75
 31
0.0
  0
LINE
  8
0
  6
CONTINUOUS
 62
     1
 10
45.0
 20
66.5
 30
0.0
 11
46.3
 21
66.5
 31
0.0
  0
LINE
  8
0
  6
CONTINUOUS
 62
     1
 10
51.5
 20
65.75
 30
0.0
 11
50.2
 21
65.75
 31
0.0
  0
LINE
  8
0
  6
CONTINUOUS
 62
     1
 10
50.2
 20
66.5
 30
0.0
 11
51.5
 21
66.5
 31
0.0
  0
LINE
  8
0
  6
CONTINUOUS
 62
     1
 10
64.8
 20
65.75
 30
0.0
 11
63.5
 21
65.75
 31
0.0
  0
LINE
  8
0
  6
CONTINUOUS
 62
     1
 10
63.5
 20
66.5
 30
0.0
 11
64.8
 21
66.5
 31
0.0
  0
LINE
  8
0
  6
CONTINUOUS
 62
     1
 10
70.0
 20
65.75
 30
0.0
 11
68.7
 21
65.75
 31
0.0
  0
LINE
  8
0
  6
CONTINUOUS
 62
     1
 10
68.7
 20
66.5
 30
0.0
 11
70.0
 21
66.5
 31
0.0
  0
LINE
  8
0
  6
CONTINUOUS
 62
     1
 10
46.3
 20
42.25
 30
0.0
 11
45.0
 21
42.25
 31
0.0
  0
LINE
  8
0
  6
CONTINUOUS
 62
     1
 10
45.0
 20
41.5
 30
0.0
 11
46.3
 21
41.5
 31
0.0
  0
LINE
  8
0
  6
CONTINUOUS
 62
     1
 10
51.5
 20
42.25
 30
0.0
 11
50.2
 21
42.25
 31
0.0
  0
LINE
  8
0
  6
CONTINUOUS
 62
     1
 10
50.2
 20
41.5
 30
0.0
 11
51.5
 21
41.5
 31
0.0
  0
LINE
  8
0
  6
CONTINUOUS
 62
     1
 10
64.8
 20
42.25
 30
0.0
 11
63.5
 21
42.25
 31
0.0
  0
LINE
  8
0
  6
CONTINUOUS
 62
     1
 10
63.5
 20
41.5
 30
0.0
 11
64.8
 21
41.5
 31
0.0
  0
LINE
  8
0
  6
CONTINUOUS
 62
     1
 10
70.0
 20
42.25
 30
0.0
 11
68.7
 21
42.25
 31
0.0
  0
LINE
  8
0
  6
CONTINUOUS
 62
     1
 10
68.7
 20
41.5
 30
0.0
 11
70.0
 21
41.5
 31
0.0
  0
LINE
  8
0
  6
CONTINUOUS
 62
     1
 10
45.0
 20
61.5
 30
0.0
 11
46.3
 21
61.5
 31
0.0
  0
LINE
  8
0
  6
CONTINUOUS
 62
     1
 10
46.3
 20
73.0
 30
0.0
 11
46.3
 21
64.0
 31
0.0
  0
LINE
  8
0
  6
CONTINUOUS
 62
     1
 10
45.5
 20
64.0
 30
0.0
 11
46.7
 21
64.0
 31
0.0
  0
LINE
  8
0
  6
CONTINUOUS
 62
     1
 10
46.7
 20
62.5
 30
0.0
 11
45.5
 21
62.5
 31
0.0
  0
LINE
  8
0
  6
CONTINUOUS
 62
     1
 10
45.5
 20
62.5
 30
0.0
 11
45.5
 21
64.0
 31
0.0
  0
LINE
  8
0
  6
CONTINUOUS
 62
     1
 10
46.7
 20
64.0
 30
0.0
 11
46.7
 21
62.5
 31
0.0
  0
LINE
  8
0
  6
CONTINUOUS
 62
     1
 10
46.3
 20
62.5
 30
0.0
 11
46.3
 21
61.5
 31
0.0
  0
LINE
  8
0
  6
CONTINUOUS
 62
     1
 10
69.5
 20
64.0
 30
0.0
 11
68.3
 21
64.0
 31
0.0
  0
LINE
  8
0
  6
CONTINUOUS
 62
     1
 10
69.5
 20
62.5
 30
0.0
 11
69.5
 21
64.0
 31
0.0
  0
LINE
  8
0
  6
CONTINUOUS
 62
     1
 10
68.3
 20
64.0
 30
0.0
 11
68.3
 21
62.5
 31
0.0
  0
LINE
  8
0
  6
CONTINUOUS
 62
     1
 10
68.7
 20
62.5
 30
0.0
 11
68.7
 21
57.0
 31
0.0
  0
LINE
  8
0
  6
CONTINUOUS
 62
     1
 10
68.7
 20
73.0
 30
0.0
 11
68.7
 21
64.0
 31
0.0
  0
LINE
  8
0
  6
CONTINUOUS
 62
     1
 10
64.8
 20
62.5
 30
0.0
 11
69.5
 21
62.5
 31
0.0
  0
LINE
  8
0
  6
CONTINUOUS
 62
     1
 10
69.5
 20
44.0
 30
0.0
 11
68.3
 21
44.0
 31
0.0
  0
LINE
  8
0
  6
CONTINUOUS
 62
     1
 10
69.5
 20
45.5
 30
0.0
 11
69.5
 21
44.0
 31
0.0
  0
LINE
  8
0
  6
CONTINUOUS
 62
     1
 10
68.3
 20
44.0
 30
0.0
 11
68.3
 21
45.5
 31
0.0
  0
LINE
  8
0
  6
CONTINUOUS
 62
     1
 10
68.7
 20
45.5
 30
0.0
 11
68.7
 21
51.0
 31
0.0
  0
LINE
  8
0
  6
CONTINUOUS
 62
     1
 10
68.7
 20
35.0
 30
0.0
 11
68.7
 21
44.0
 31
0.0
  0
LINE
  8
0
  6
CONTINUOUS
 62
     1
 10
64.8
 20
45.5
 30
0.0
 11
69.5
 21
45.5
 31
0.0
  0
LINE
  8
0
  6
CONTINUOUS
 62
     1
 10
45.5
 20
44.0
 30
0.0
 11
46.7
 21
44.0
 31
0.0
  0
LINE
  8
0
  6
CONTINUOUS
 62
     1
 10
45.5
 20
45.5
 30
0.0
 11
45.5
 21
44.0
 31
0.0
  0
LINE
  8
0
  6
CONTINUOUS
 62
     1
 10
46.7
 20
44.0
 30
0.0
 11
46.7
 21
45.5
 31
0.0
  0
LINE
  8
0
  6
CONTINUOUS
 62
     1
 10
46.3
 20
45.5
 30
0.0
 11
46.3
 21
51.0
 31
0.0
  0
LINE
  8
0
  6
CONTINUOUS
 62
     1
 10
46.3
 20
35.0
 30
0.0
 11
46.3
 21
44.0
 31
0.0
  0
LINE
  8
0
  6
CONTINUOUS
 62
     1
 10
50.2
 20
45.5
 30
0.0
 11
45.5
 21
45.5
 31
0.0
  0
LINE
  8
0
  6
CONTINUOUS
 62
     1
 10
70.0
 20
61.5
 30
0.0
 11
64.8
 21
61.5
 31
0.0
  0
LINE
  8
0
  6
CONTINUOUS
 62
     1
 10
70.0
 20
46.5
 30
0.0
 11
64.8
 21
46.5
 31
0.0
  0
LINE
  8
0
  6
CONTINUOUS
 62
     1
 10
50.2
 20
46.5
 30
0.0
 11
45.0
 21
46.5
 31
0.0
  0
TEXT
  8
0
  6
CONTINUOUS
 62
     1
 10
60.9
 20
63.1
 30
0.15
 40
1.5
  1
６
 50
0.0
 41
0.9
 51
0.0
  7
KANJI1
  0
TEXT
  8
0
  6
CONTINUOUS
 62
     1
 10
52.8
 20
63.1
 30
0.15
 40
1.5
  1
７
 50
0.0
 41
0.9
 51
0.0
  7
KANJI1
  0
TEXT
  8
0
  6
CONTINUOUS
 62
     1
 10
52.1
 20
43.6
 30
0.15
 40
1.5
  1
１１
 50
0.0
 41
0.9
 51
0.0
  7
KANJI1
  0
TEXT
  8
0
  6
CONTINUOUS
 62
     1
 10
68.7
 20
48.0
 30
0.15
 40
1.5
  1
３
 50
0.0
 41
0.9
 51
0.0
  7
KANJI1
  0
TEXT
  8
0
  6
CONTINUOUS
 62
     1
 10
68.7
 20
58.5
 30
0.15
 40
1.5
  1
４
 50
0.0
 41
0.9
 51
0.0
  7
KANJI1
  0
TEXT
  8
0
  6
CONTINUOUS
 62
     1
 10
45.0
 20
48.0
 30
0.15
 40
1.5
  1
９
 50
0.0
 41
0.9
 51
0.0
  7
KANJI1
  0
LINE
  8
0
  6
CONTINUOUS
 62
     1
 10
104.5
 20
51.5
 30
0.0
 11
106.5
 21
51.5
 31
0.0
  0
LINE
  8
0
  6
CONTINUOUS
 62
     1
 10
106.5
 20
51.5
 30
0.0
 11
106.5
 21
49.5
 31
0.0
  0
LINE
  8
0
  6
CONTINUOUS
 62
     1
 10
106.5
 20
49.5
 30
0.0
 11
104.5
 21
49.5
 31
0.0
  0
LINE
  8
0
  6
CONTINUOUS
 62
     1
 10
104.5
 20
56.5
 30
0.0
 11
106.5
 21
56.5
 31
0.0
  0
LINE
  8
0
  6
CONTINUOUS
 62
     1
 10
106.5
 20
56.5
 30
0.0
 11
106.5
 21
58.5
 31
0.0
  0
LINE
  8
0
  6
CONTINUOUS
 62
     1
 10
106.5
 20
58.5
 30
0.0
 11
104.5
 21
58.5
 31
0.0
  0
LINE
  8
0
  6
CONTINUOUS
 62
     1
 10
104.5
 20
32.0
 30
0.0
 11
106.5
 21
32.0
 31
0.0
  0
LINE
  8
0
  6
CONTINUOUS
 62
     1
 10
104.5
 20
33.0
 30
0.0
 11
106.5
 21
33.0
 31
0.0
  0
LINE
  8
0
  6
CONTINUOUS
 62
     1
 10
92.5
 20
65.75
 30
0.0
 11
93.25
 21
66.5
 31
0.0
  0
LINE
  8
0
  6
CONTINUOUS
 62
     1
 10
91.75
 20
61.5
 30
0.0
 11
91.75
 21
65.75
 31
0.0
  0
LINE
  8
0
  6
CONTINUOUS
 62
     1
 10
92.5
 20
65.75
 30
0.0
 11
91.75
 21
65.75
 31
0.0
  0
LINE
  8
0
  6
CONTINUOUS
 62
     1
 10
92.5
 20
61.5
 30
0.0
 11
91.75
 21
61.5
 31
0.0
  0
LINE
  8
0
  6
CONTINUOUS
 62
     1
 10
91.75
 20
46.5
 30
0.0
 11
91.75
 21
42.25
 31
0.0
  0
LINE
  8
0
  6
CONTINUOUS
 62
     1
 10
92.5
 20
42.25
 30
0.0
 11
91.75
 21
42.25
 31
0.0
  0
LINE
  8
0
  6
CONTINUOUS
 62
     1
 10
92.5
 20
46.5
 30
0.0
 11
91.75
 21
46.5
 31
0.0
  0
LINE
  8
0
  6
CONTINUOUS
 62
     1
 10
92.5
 20
61.5
 30
0.0
 11
92.5
 21
46.5
 31
0.0
  0
LINE
  8
0
  6
CONTINUOUS
 62
     1
 10
93.25
 20
66.5
 30
0.0
 11
97.5
 21
66.5
 31
0.0
  0
LINE
  8
0
  6
CONTINUOUS
 62
     1
 10
98.25
 20
73.0
 30
0.0
 11
97.5
 21
72.25
 31
0.0
  0
LINE
  8
0
  6
CONTINUOUS
 62
     1
 10
97.5
 20
72.25
 30
0.0
 11
97.5
 21
66.5
 31
0.0
  0
LINE
  8
0
  6
CONTINUOUS
 62
     1
 10
98.25
 20
73.0
 30
0.0
 11
106.5
 21
73.0
 31
0.0
  0
LINE
  8
0
  6
CONTINUOUS
 62
     1
 10
93.25
 20
74.0
 30
0.0
 11
92.5
 21
73.25
 31
0.0
  0
LINE
  8
0
  6
CONTINUOUS
 62
     1
 10
93.25
 20
74.0
 30
0.0
 11
106.5
 21
74.0
 31
0.0
  0
LINE
  8
0
  6
CONTINUOUS
 62
     1
 10
92.5
 20
73.25
 30
0.0
 11
92.5
 21
65.75
 31
0.0
  0
LINE
  8
0
  6
CONTINUOUS
 62
     1
 10
92.5
 20
34.75
 30
0.0
 11
93.25
 21
34.0
 31
0.0
  0
LINE
  8
0
  6
CONTINUOUS
 62
     1
 10
93.25
 20
34.0
 30
0.0
 11
106.5
 21
34.0
 31
0.0
  0
LINE
  8
0
  6
CONTINUOUS
 62
     1
 10
104.5
 20
32.0
 30
0.0
 11
104.5
 21
74.0
 31
0.0
  0
LINE
  8
0
  6
CONTINUOUS
 62
     1
 10
92.5
 20
42.25
 30
0.0
 11
92.5
 21
34.75
 31
0.0
  0
LINE
  8
0
  6
CONTINUOUS
 62
     1
 10
92.5
 20
42.25
 30
0.0
 11
93.25
 21
41.5
 31
0.0
  0
LINE
  8
0
  6
CONTINUOUS
 62
     1
 10
93.25
 20
41.5
 30
0.0
 11
97.5
 21
41.5
 31
0.0
  0
LINE
  8
0
  6
CONTINUOUS
 62
     1
 10
98.25
 20
35.0
 30
0.0
 11
97.5
 21
35.75
 31
0.0
  0
LINE
  8
0
  6
CONTINUOUS
 62
     1
 10
97.5
 20
35.75
 30
0.0
 11
97.5
 21
41.5
 31
0.0
  0
LINE
  8
0
  6
CONTINUOUS
 62
     1
 10
98.25
 20
35.0
 30
0.0
 11
106.5
 21
35.0
 31
0.0
  0
LINE
  8
0
  6
CONTINUOUS
 62
     1
 10
106.5
 20
62.85
 30
0.0
 11
104.5
 21
62.85
 31
0.0
  0
LINE
  8
0
  6
CONTINUOUS
 62
     1
 10
106.5
 20
62.85
 30
0.0
 11
106.5
 21
62.45
 31
0.0
  0
LINE
  8
0
  6
CONTINUOUS
 62
     1
 10
106.5
 20
62.45
 30
0.0
 11
105.8
 21
60.65
 31
0.0
  0
LINE
  8
0
  6
CONTINUOUS
 62
     1
 10
105.8
 20
60.65
 30
0.0
 11
105.4
 21
60.65
 31
0.0
  0
LINE
  8
0
  6
CONTINUOUS
 62
     1
 10
105.4
 20
60.65
 30
0.0
 11
105.4
 21
62.85
 31
0.0
  0
LINE
  8
0
  6
CONTINUOUS
 62
     1
 10
106.5
 20
45.15
 30
0.0
 11
104.5
 21
45.15
 31
0.0
  0
LINE
  8
0
  6
CONTINUOUS
 62
     1
 10
105.4
 20
45.15
 30
0.0
 11
105.4
 21
46.15
 31
0.0
  0
LINE
  8
0
  6
CONTINUOUS
 62
     1
 10
105.4
 20
46.15
 30
0.0
 11
105.9
 21
46.15
 31
0.0
  0
LINE
  8
0
  6
CONTINUOUS
 62
     1
 10
105.9
 20
46.15
 30
0.0
 11
106.5
 21
45.15
 31
0.0
  0
LINE
  8
0
  6
CONTINUOUS
 62
     1
 10
106.5
 20
74.0
 30
0.0
 11
106.5
 21
62.85
 31
0.0
  0
LINE
  8
0
  6
CONTINUOUS
 62
     1
 10
106.5
 20
32.0
 30
0.0
 11
106.5
 21
45.15
 31
0.0
  0
LINE
  8
0
  6
CONTINUOUS
 62
     1
 10
94.5
 20
52.0
 30
0.0
 11
94.5
 21
56.0
 31
0.0
  0
LINE
  8
0
  6
CONTINUOUS
 62
     1
 10
92.5
 20
52.0
 30
0.0
 11
94.5
 21
52.0
 31
0.0
  0
LINE
  8
0
  6
CONTINUOUS
 62
     1
 10
92.5
 20
56.0
 30
0.0
 11
94.5
 21
56.0
 31
0.0
  0
LINE
  8
0
  6
CONTINUOUS
 62
     1
 10
56.625
 20
44.5
 30
0.0
 11
58.375
 21
44.5
 31
0.0
  0
LINE
  8
0
  6
CONTINUOUS
 62
     1
 10
56.625
 20
63.5
 30
0.0
 11
58.375
 21
63.5
 31
0.0
  0
ARC
  8
0
  6
CONTINUOUS
 62
     1
 10
90.941154273
 20
44.0
 30
0.0
 40
0.5
 50
30.00015455
 51
209.999890717
  0
LINE
  8
0
  6
CONTINUOUS
 62
     1
 10
91.75
 20
43.599038106
 30
0.0
 11
91.374166975
 21
44.25
 31
0.0
  0
LINE
  8
0
  6
CONTINUOUS
 62
     1
 10
90.508141571
 20
43.75
 30
0.0
 11
92.5
 21
40.3
 31
0.0
  0
ARC
  8
0
  6
CONTINUOUS
 62
     1
 10
90.941154273
 20
64.0
 30
0.0
 40
0.5
 50
150.000109283
 51
329.99984545
  0
LINE
  8
0
  6
CONTINUOUS
 62
     1
 10
91.75
 20
64.400961894
 30
0.0
 11
91.374166975
 21
63.75
 31
0.0
  0
LINE
  8
0
  6
CONTINUOUS
 62
     1
 10
90.508141571
 20
64.25
 30
0.0
 11
92.5
 21
67.7
 31
0.0
  0
LINE
  8
0
  6
CONTINUOUS
 62
     1
 10
137.25
 20
52.0
 30
0.0
 11
132.25
 21
56.0
 31
0.0
  0
LINE
  8
0
  6
CONTINUOUS
 62
     1
 10
137.25
 20
54.0
 30
0.0
 11
132.25
 21
58.0
 31
0.0
  0
LINE
  8
0
  6
CONTINUOUS
 62
     1
 10
137.25
 20
56.0
 30
0.0
 11
132.25
 21
60.0
 31
0.0
  0
LINE
  8
0
  6
CONTINUOUS
 62
     1
 10
137.25
 20
58.0
 30
0.0
 11
132.25
 21
62.0
 31
0.0
  0
LINE
  8
0
  6
CONTINUOUS
 62
     1
 10
137.25
 20
60.0
 30
0.0
 11
132.25
 21
64.0
 31
0.0
  0
LINE
  8
0
  6
CONTINUOUS
 62
     1
 10
137.25
 20
62.0
 30
0.0
 11
132.25
 21
66.0
 31
0.0
  0
LINE
  8
0
  6
CONTINUOUS
 62
     1
 10
137.25
 20
64.0
 30
0.0
 11
132.25
 21
68.0
 31
0.0
  0
LINE
  8
0
  6
CONTINUOUS
 62
     1
 10
137.25
 20
66.0
 30
0.0
 11
132.25
 21
70.0
 31
0.0
  0
LINE
  8
0
  6
CONTINUOUS
 62
     1
 10
137.25
 20
68.0
 30
0.0
 11
132.25
 21
72.0
 31
0.0
  0
LINE
  8
0
  6
CONTINUOUS
 62
     1
 10
137.25
 20
70.0
 30
0.0
 11
132.25
 21
74.0
 31
0.0
  0
LINE
  8
0
  6
CONTINUOUS
 62
     1
 10
137.25
 20
72.0
 30
0.0
 11
132.25
 21
76.0
 31
0.0
  0
LINE
  8
0
  6
CONTINUOUS
 62
     1
 10
137.25
 20
74.0
 30
0.0
 11
132.25
 21
78.0
 31
0.0
  0
LINE
  8
0
  6
CONTINUOUS
 62
     1
 10
137.25
 20
76.0
 30
0.0
 11
132.25
 21
80.0
 31
0.0
  0
LINE
  8
0
  6
CONTINUOUS
 62
     1
 10
137.25
 20
78.0
 30
0.0
 11
132.25
 21
82.0
 31
0.0
  0
LINE
  8
0
  6
CONTINUOUS
 62
     1
 10
137.25
 20
80.0
 30
0.0
 11
132.25
 21
84.0
 31
0.0
  0
LINE
  8
0
  6
CONTINUOUS
 62
     1
 10
137.25
 20
82.0
 30
0.0
 11
132.25
 21
86.0
 31
0.0
  0
LINE
  8
0
  6
CONTINUOUS
 62
     1
 10
137.25
 20
50.0
 30
0.0
 11
132.25
 21
54.0
 31
0.0
  0
LINE
  8
0
  6
CONTINUOUS
 62
     1
 10
137.25
 20
48.0
 30
0.0
 11
132.25
 21
52.0
 31
0.0
  0
LINE
  8
0
  6
CONTINUOUS
 62
     1
 10
137.25
 20
46.0
 30
0.0
 11
132.25
 21
50.0
 31
0.0
  0
LINE
  8
0
  6
CONTINUOUS
 62
     1
 10
137.25
 20
44.0
 30
0.0
 11
132.25
 21
48.0
 31
0.0
  0
LINE
  8
0
  6
CONTINUOUS
 62
     1
 10
137.25
 20
42.0
 30
0.0
 11
132.25
 21
46.0
 31
0.0
  0
LINE
  8
0
  6
CONTINUOUS
 62
     1
 10
137.25
 20
40.0
 30
0.0
 11
132.25
 21
44.0
 31
0.0
  0
LINE
  8
0
  6
CONTINUOUS
 62
     1
 10
137.25
 20
38.0
 30
0.0
 11
132.25
 21
42.0
 31
0.0
  0
LINE
  8
0
  6
CONTINUOUS
 62
     1
 10
137.25
 20
36.0
 30
0.0
 11
132.25
 21
40.0
 31
0.0
  0
LINE
  8
0
  6
CONTINUOUS
 62
     1
 10
137.25
 20
34.0
 30
0.0
 11
132.25
 21
38.0
 31
0.0
  0
LINE
  8
0
  6
CONTINUOUS
 62
     1
 10
137.25
 20
32.0
 30
0.0
 11
132.25
 21
36.0
 31
0.0
  0
LINE
  8
0
  6
CONTINUOUS
 62
     1
 10
137.25
 20
30.0
 30
0.0
 11
132.25
 21
34.0
 31
0.0
  0
LINE
  8
0
  6
CONTINUOUS
 62
     1
 10
137.25
 20
28.0
 30
0.0
 11
132.25
 21
32.0
 31
0.0
  0
LINE
  8
0
  6
CONTINUOUS
 62
     1
 10
137.25
 20
84.0
 30
0.0
 11
132.25
 21
88.0
 31
0.0
  0
LINE
  8
0
  6
CONTINUOUS
 62
     1
 10
137.25
 20
86.0
 30
0.0
 11
134.75
 21
88.0
 31
0.0
  0
LINE
  8
0
  6
CONTINUOUS
 62
     1
 10
137.25
 20
88.0
 30
0.0
 11
137.25
 21
27.0
 31
0.0
  0
LINE
  8
0
  6
CONTINUOUS
 62
     1
 10
136.0
 20
27.0
 30
0.0
 11
132.25
 21
30.0
 31
0.0
  0
LINE
  8
0
  6
CONTINUOUS
 62
     1
 10
133.5
 20
27.0
 30
0.0
 11
132.25
 21
28.0
 31
0.0
  0
LINE
  8
0
  6
CONTINUOUS
 62
     1
 10
139.25
 20
51.5
 30
0.0
 11
137.25
 21
51.5
 31
0.0
  0
LINE
  8
0
  6
CONTINUOUS
 62
     1
 10
137.25
 20
49.5
 30
0.0
 11
139.25
 21
49.5
 31
0.0
  0
LINE
  8
0
  6
CONTINUOUS
 62
     1
 10
139.25
 20
56.5
 30
0.0
 11
137.25
 21
56.5
 31
0.0
  0
LINE
  8
0
  6
CONTINUOUS
 62
     1
 10
137.25
 20
58.5
 30
0.0
 11
139.25
 21
58.5
 31
0.0
  0
LINE
  8
0
  6
CONTINUOUS
 62
     1
 10
139.25
 20
32.0
 30
0.0
 11
137.25
 21
32.0
 31
0.0
  0
LINE
  8
0
  6
CONTINUOUS
 62
     1
 10
139.25
 20
33.0
 30
0.0
 11
137.25
 21
33.0
 31
0.0
  0
LINE
  8
0
  6
CONTINUOUS
 62
     1
 10
151.25
 20
65.75
 30
0.0
 11
150.5
 21
66.5
 31
0.0
  0
LINE
  8
0
  6
CONTINUOUS
 62
     1
 10
151.25
 20
65.75
 30
0.0
 11
152.0
 21
65.75
 31
0.0
  0
LINE
  8
0
  6
CONTINUOUS
 62
     1
 10
151.25
 20
61.5
 30
0.0
 11
152.0
 21
61.5
 31
0.0
  0
LINE
  8
0
  6
CONTINUOUS
 62
     1
 10
151.25
 20
42.25
 30
0.0
 11
152.0
 21
42.25
 31
0.0
  0
LINE
  8
0
  6
CONTINUOUS
 62
     1
 10
151.25
 20
46.5
 30
0.0
 11
152.0
 21
46.5
 31
0.0
  0
LINE
  8
0
  6
CONTINUOUS
 62
     1
 10
151.25
 20
61.5
 30
0.0
 11
151.25
 21
46.5
 31
0.0
  0
LINE
  8
0
  6
CONTINUOUS
 62
     1
 10
150.5
 20
66.5
 30
0.0
 11
146.25
 21
66.5
 31
0.0
  0
LINE
  8
0
  6
CONTINUOUS
 62
     1
 10
145.5
 20
73.0
 30
0.0
 11
146.25
 21
72.25
 31
0.0
  0
LINE
  8
0
  6
CONTINUOUS
 62
     1
 10
146.25
 20
72.25
 30
0.0
 11
146.25
 21
66.5
 31
0.0
  0
LINE
  8
0
  6
CONTINUOUS
 62
     1
 10
145.5
 20
73.0
 30
0.0
 11
137.25
 21
73.0
 31
0.0
  0
LINE
  8
0
  6
CONTINUOUS
 62
     1
 10
150.5
 20
74.0
 30
0.0
 11
151.25
 21
73.25
 31
0.0
  0
LINE
  8
0
  6
CONTINUOUS
 62
     1
 10
150.5
 20
74.0
 30
0.0
 11
137.25
 21
74.0
 31
0.0
  0
LINE
  8
0
  6
CONTINUOUS
 62
     1
 10
151.25
 20
73.25
 30
0.0
 11
151.25
 21
65.75
 31
0.0
  0
LINE
  8
0
  6
CONTINUOUS
 62
     1
 10
151.25
 20
34.75
 30
0.0
 11
150.5
 21
34.0
 31
0.0
  0
LINE
  8
0
  6
CONTINUOUS
 62
     1
 10
150.5
 20
34.0
 30
0.0
 11
137.25
 21
34.0
 31
0.0
  0
LINE
  8
0
  6
CONTINUOUS
 62
     1
 10
139.25
 20
32.0
 30
0.0
 11
139.25
 21
74.0
 31
0.0
  0
LINE
  8
0
  6
CONTINUOUS
 62
     1
 10
151.25
 20
42.25
 30
0.0
 11
151.25
 21
34.75
 31
0.0
  0
LINE
  8
0
  6
CONTINUOUS
 62
     1
 10
151.25
 20
42.25
 30
0.0
 11
150.5
 21
41.5
 31
0.0
  0
LINE
  8
0
  6
CONTINUOUS
 62
     1
 10
150.5
 20
41.5
 30
0.0
 11
146.25
 21
41.5
 31
0.0
  0
LINE
  8
0
  6
CONTINUOUS
 62
     1
 10
145.5
 20
35.0
 30
0.0
 11
146.25
 21
35.75
 31
0.0
  0
LINE
  8
0
  6
CONTINUOUS
 62
     1
 10
146.25
 20
35.75
 30
0.0
 11
146.25
 21
41.5
 31
0.0
  0
LINE
  8
0
  6
CONTINUOUS
 62
     1
 10
145.5
 20
35.0
 30
0.0
 11
137.25
 21
35.0
 31
0.0
  0
LINE
  8
0
  6
CONTINUOUS
 62
     1
 10
137.25
 20
62.85
 30
0.0
 11
139.25
 21
62.85
 31
0.0
  0
LINE
  8
0
  6
CONTINUOUS
 62
     1
 10
137.25
 20
62.85
 30
0.0
 11
137.25
 21
62.45
 31
0.0
  0
LINE
  8
0
  6
CONTINUOUS
 62
     1
 10
137.25
 20
62.45
 30
0.0
 11
137.95
 21
60.65
 31
0.0
  0
LINE
  8
0
  6
CONTINUOUS
 62
     1
 10
137.95
 20
60.65
 30
0.0
 11
138.35
 21
60.65
 31
0.0
  0
LINE
  8
0
  6
CONTINUOUS
 62
     1
 10
138.35
 20
60.65
 30
0.0
 11
138.35
 21
62.85
 31
0.0
  0
LINE
  8
0
  6
CONTINUOUS
 62
     1
 10
137.25
 20
45.15
 30
0.0
 11
139.25
 21
45.15
 31
0.0
  0
LINE
  8
0
  6
CONTINUOUS
 62
     1
 10
138.35
 20
45.15
 30
0.0
 11
138.35
 21
46.15
 31
0.0
  0
LINE
  8
0
  6
CONTINUOUS
 62
     1
 10
138.35
 20
46.15
 30
0.0
 11
137.85
 21
46.15
 31
0.0
  0
LINE
  8
0
  6
CONTINUOUS
 62
     1
 10
137.85
 20
46.15
 30
0.0
 11
137.25
 21
45.15
 31
0.0
  0
LINE
  8
0
  6
CONTINUOUS
 62
     1
 10
149.25
 20
52.0
 30
0.0
 11
149.25
 21
56.0
 31
0.0
  0
LINE
  8
0
  6
CONTINUOUS
 62
     1
 10
151.25
 20
52.0
 30
0.0
 11
149.25
 21
52.0
 31
0.0
  0
LINE
  8
0
  6
CONTINUOUS
 62
     1
 10
151.25
 20
56.0
 30
0.0
 11
149.25
 21
56.0
 31
0.0
  0
LINE
  8
0
  6
CONTINUOUS
 62
     1
 10
152.0
 20
73.5
 30
0.0
 11
152.0
 21
34.5
 31
0.0
  0
LINE
  8
0
  6
CONTINUOUS
 62
     1
 10
152.0
 20
73.5
 30
0.0
 11
202.0
 21
73.5
 31
0.0
  0
LINE
  8
0
  6
CONTINUOUS
 62
     1
 10
152.0
 20
34.5
 30
0.0
 11
202.0
 21
34.5
 31
0.0
  0
LINE
  8
0
  6
CONTINUOUS
 62
     1
 10
202.0
 20
34.5
 30
0.0
 11
202.0
 21
73.5
 31
0.0
  0
LINE
  8
0
  6
CONTINUOUS
 62
     1
 10
152.0
 20
67.0
 30
0.0
 11
155.5
 21
67.0
 31
0.0
  0
ARC
  8
0
  6
CONTINUOUS
 62
     1
 10
155.5
 20
67.5
 30
0.0
 40
0.5
 50
270.0
 51
0.0
  0
LINE
  8
0
  6
CONTINUOUS
 62
     1
 10
156.0
 20
67.5
 30
0.0
 11
156.0
 21
73.5
 31
0.0
  0
LINE
  8
0
  6
CONTINUOUS
 62
     1
 10
152.0
 20
41.0
 30
0.0
 11
155.5
 21
41.0
 31
0.0
  0
ARC
  8
0
  6
CONTINUOUS
 62
     1
 10
155.5
 20
40.5
 30
0.0
 40
0.5
 50
0.0
 51
90.0
  0
LINE
  8
0
  6
CONTINUOUS
 62
     1
 10
156.0
 20
40.5
 30
0.0
 11
156.0
 21
34.5
 31
0.0
  0
LINE
  8
0
  6
CONTINUOUS
 62
     1
 10
153.5
 20
61.25
 30
0.0
 11
154.7
 21
61.25
 31
0.0
  0
LINE
  8
0
  6
CONTINUOUS
 62
     1
 10
154.7
 20
61.25
 30
0.0
 11
154.7
 21
64.25
 31
0.0
  0
LINE
  8
0
  6
CONTINUOUS
 62
     1
 10
154.7
 20
64.25
 30
0.0
 11
153.5
 21
64.25
 31
0.0
  0
LINE
  8
0
  6
CONTINUOUS
 62
     1
 10
153.5
 20
64.25
 30
0.0
 11
153.5
 21
61.25
 31
0.0
  0
LINE
  8
0
  6
CONTINUOUS
 62
     1
 10
153.5
 20
46.75
 30
0.0
 11
154.7
 21
46.75
 31
0.0
  0
LINE
  8
0
  6
CONTINUOUS
 62
     1
 10
154.7
 20
46.75
 30
0.0
 11
154.7
 21
43.75
 31
0.0
  0
LINE
  8
0
  6
CONTINUOUS
 62
     1
 10
154.7
 20
43.75
 30
0.0
 11
153.5
 21
43.75
 31
0.0
  0
LINE
  8
0
  6
CONTINUOUS
 62
     1
 10
153.5
 20
43.75
 30
0.0
 11
153.5
 21
46.75
 31
0.0
  0
LINE
  8
0
  6
CONTINUOUS
 62
     1
 10
152.3
 20
41.0
 30
0.0
 11
152.3
 21
67.0
 31
0.0
  0
LINE
  8
0
  6
CONTINUOUS
 62
     1
 10
151.25
 20
61.2
 30
0.0
 11
152.0
 21
61.2
 31
0.0
  0
LINE
  8
0
  6
CONTINUOUS
 62
     1
 10
152.0
 20
46.8
 30
0.0
 11
151.25
 21
46.8
 31
0.0
  0
ARC
  8
0
  6
CONTINUOUS
 62
     1
 10
156.750001168
 20
74.0
 30
0.0
 40
0.5
 50
269.999866156
 51
90.000133844
  0
LINE
  8
0
  6
CONTINUOUS
 62
     1
 10
151.25
 20
74.5
 30
0.0
 11
156.750001168
 21
74.5
 31
0.0
  0
LINE
  8
0
  6
CONTINUOUS
 62
     1
 10
151.25
 20
74.5
 30
0.0
 11
150.625
 21
73.875
 31
0.0
  0
LINE
  8
0
  6
CONTINUOUS
 62
     1
 10
151.25
 20
71.5
 30
0.0
 11
152.0
 21
71.5
 31
0.0
  0
LINE
  8
0
  6
CONTINUOUS
 62
     1
 10
151.25
 20
36.5
 30
0.0
 11
152.0
 21
36.5
 31
0.0
  0
ARC
  8
0
  6
CONTINUOUS
 62
     1
 10
156.750001168
 20
34.0
 30
0.0
 40
0.5
 50
269.999866156
 51
90.000133844
  0
LINE
  8
0
  6
CONTINUOUS
 62
     1
 10
151.25
 20
33.5
 30
0.0
 11
156.750001168
 21
33.5
 31
0.0
  0
LINE
  8
0
  6
CONTINUOUS
 62
     1
 10
151.25
 20
33.5
 30
0.0
 11
150.625
 21
34.125
 31
0.0
  0
LINE
  8
0
  6
CONTINUOUS
 62
     2
 10
20.0
 20
105.0
 30
0.0
 11
215.0
 21
105.0
 31
0.0
  0
LINE
  8
0
  6
LTYPE1
 62
     2
 10
47.5
 20
164.5
 30
0.0
 11
47.5
 21
115.5
 31
0.0
  0
LINE
  8
0
  6
LTYPE1
 62
     2
 10
30.0
 20
140.0
 30
0.0
 11
65.0
 21
140.0
 31
0.0
  0
LINE
  8
0
  6
LTYPE1
 62
     2
 10
73.0
 20
140.0
 30
0.0
 11
138.0
 21
140.0
 31
0.0
  0
LINE
  8
0
  6
CONTINUOUS
 62
     2
 10
78.0
 20
174.5
 30
0.0
 11
80.414814566
 21
173.852952387
 31
0.0
  0
LINE
  8
0
  6
CONTINUOUS
 62
     2
 10
78.0
 20
174.5
 30
0.0
 11
80.414814566
 21
175.147047613
 31
0.0
  0
LINE
  8
0
  6
CONTINUOUS
 62
     2
 10
78.0
 20
174.5
 30
0.0
 11
133.0
 21
174.5
 31
0.0
  0
LINE
  8
0
  6
CONTINUOUS
 62
     2
 10
133.0
 20
174.5
 30
0.0
 11
130.585185434
 21
175.147047613
 31
0.0
  0
LINE
  8
0
  6
CONTINUOUS
 62
     2
 10
133.0
 20
174.5
 30
0.0
 11
130.585185434
 21
173.852952387
 31
0.0
  0
TEXT
  8
0
  6
CONTINUOUS
 62
     2
 10
102.0
 20
175.5
 30
0.5
 40
3.0
  1
１１０
 50
0.0
 41
0.666666667
 51
0.0
  7
KANJI2
  0
LINE
  8
0
  6
CONTINUOUS
 62
     2
 10
133.0
 20
169.5
 30
0.0
 11
130.585185434
 21
170.147047613
 31
0.0
  0
LINE
  8
0
  6
CONTINUOUS
 62
     2
 10
133.0
 20
169.5
 30
0.0
 11
130.585185434
 21
168.852952387
 31
0.0
  0
LINE
  8
0
  6
CONTINUOUS
 62
     2
 10
83.0
 20
169.5
 30
0.0
 11
85.414814566
 21
168.852952387
 31
0.0
  0
LINE
  8
0
  6
CONTINUOUS
 62
     2
 10
83.0
 20
160.0
 30
0.0
 11
83.0
 21
171.5
 31
0.0
  0
TEXT
  8
0
  6
CONTINUOUS
 62
     2
 10
104.5
 20
170.5
 30
0.5
 40
3.0
  1
１００
 50
0.0
 41
0.666666667
 51
0.0
  7
KANJI2
  0
LINE
  8
0
  6
CONTINUOUS
 62
     2
 10
83.0
 20
169.5
 30
0.0
 11
85.414814566
 21
170.147047613
 31
0.0
  0
LINE
  8
0
  6
CONTINUOUS
 62
     2
 10
78.0
 20
169.5
 30
0.0
 11
75.585185434
 21
170.147047613
 31
0.0
  0
LINE
  8
0
  6
CONTINUOUS
 62
     2
 10
78.0
 20
169.5
 30
0.0
 11
75.585185434
 21
168.852952387
 31
0.0
  0
TEXT
  8
0
  6
CONTINUOUS
 62
     2
 10
78.25
 20
170.5
 30
0.5
 40
3.0
  1
１０
 50
0.0
 41
0.666666667
 51
0.0
  7
KANJI2
  0
LINE
  8
0
  6
CONTINUOUS
 62
     2
 10
133.0
 20
169.5
 30
0.0
 11
73.0
 21
169.5
 31
0.0
  0
LINE
  8
0
  6
CONTINUOUS
 62
     2
 10
133.0
 20
160.0
 30
0.0
 11
133.0
 21
176.5
 31
0.0
  0
LINE
  8
0
  6
CONTINUOUS
 62
     2
 10
78.0
 20
142.5
 30
0.0
 11
78.0
 21
176.5
 31
0.0
  0
LINE
  8
0
  6
CONTINUOUS
 62
     2
 10
161.0
 20
160.0
 30
0.0
 11
161.0
 21
176.5
 31
0.0
  0
LINE
  8
0
  6
CONTINUOUS
 62
     2
 10
161.0
 20
174.5
 30
0.0
 11
163.414814566
 21
173.852952387
 31
0.0
  0
LINE
  8
0
  6
CONTINUOUS
 62
     2
 10
161.0
 20
174.5
 30
0.0
 11
163.414814566
 21
175.147047613
 31
0.0
  0
LINE
  8
0
  6
CONTINUOUS
 62
     2
 10
161.0
 20
174.5
 30
0.0
 11
186.0
 21
174.5
 31
0.0
  0
LINE
  8
0
  6
CONTINUOUS
 62
     2
 10
186.0
 20
174.5
 30
0.0
 11
183.585185434
 21
175.147047613
 31
0.0
  0
LINE
  8
0
  6
CONTINUOUS
 62
     2
 10
186.0
 20
174.5
 30
0.0
 11
183.585185434
 21
173.852952387
 31
0.0
  0
LINE
  8
0
  6
CONTINUOUS
 62
     2
 10
186.0
 20
160.0
 30
0.0
 11
186.0
 21
176.5
 31
0.0
  0
TEXT
  8
0
  6
CONTINUOUS
 62
     2
 10
171.25
 20
175.5
 30
0.5
 40
3.0
  1
５０
 50
0.0
 41
0.666666667
 51
0.0
  7
KANJI2
  0
LINE
  8
0
  6
LTYPE1
 62
     2
 10
173.5
 20
164.5
 30
0.0
 11
173.5
 21
115.5
 31
0.0
  0
LINE
  8
0
  6
LTYPE1
 62
     2
 10
191.0
 20
140.0
 30
0.0
 11
156.0
 21
140.0
 31
0.0
  0
LINE
  8
0
  6
LTYPE1
 62
     2
 10
180.25
 20
136.0
 30
0.0
 11
180.25
 21
124.0
 31
0.0
  0
LINE
  8
0
  6
LTYPE1
 62
     2
 10
176.75
 20
132.5
 30
0.0
 11
183.75
 21
132.5
 31
0.0
  0
LINE
  8
0
  6
LTYPE1
 62
     2
 10
176.75
 20
127.5
 30
0.0
 11
183.75
 21
127.5
 31
0.0
  0
LINE
  8
0
  6
CONTINUOUS
 62
     2
 10
151.0
 20
120.5
 30
0.0
 11
151.647047613
 21
122.914814566
 31
0.0
  0
LINE
  8
0
  6
CONTINUOUS
 62
     2
 10
151.0
 20
120.5
 30
0.0
 11
150.352952387
 21
122.914814566
 31
0.0
  0
LINE
  8
0
  6
CONTINUOUS
 62
     2
 10
151.0
 20
120.5
 30
0.0
 11
151.0
 21
159.5
 31
0.0
  0
LINE
  8
0
  6
CONTINUOUS
 62
     2
 10
151.0
 20
159.5
 30
0.0
 11
150.352952387
 21
157.085185434
 31
0.0
  0
LINE
  8
0
  6
CONTINUOUS
 62
     2
 10
151.0
 20
159.5
 30
0.0
 11
151.647047613
 21
157.085185434
 31
0.0
  0
TEXT
  8
0
  6
CONTINUOUS
 62
     2
 10
150.0
 20
137.75
 30
0.5
 40
3.0
  1
７８
 50
90.0
 41
0.666666667
 51
0.0
  7
KANJI2
  0
LINE
  8
0
  6
CONTINUOUS
 62
     2
 10
160.5
 20
159.5
 30
0.0
 11
149.0
 21
159.5
 31
0.0
  0
LINE
  8
0
  6
CONTINUOUS
 62
     2
 10
160.5
 20
120.5
 30
0.0
 11
149.0
 21
120.5
 31
0.0
  0
LINE
  8
0
  6
CONTINUOUS
 62
     2
 10
181.25
 20
131.5
 30
0.0
 11
182.469385207
 21
129.317547316
 31
0.0
  0
LINE
  8
0
  6
CONTINUOUS
 62
     2
 10
181.25
 20
131.5
 30
0.0
 11
183.397244908
 21
130.219633137
 31
0.0
  0
LINE
  8
0
  6
CONTINUOUS
 62
     2
 10
181.25
 20
131.5
 30
0.0
 11
190.0
 21
122.5
 31
0.0
  0
LINE
  8
0
  6
CONTINUOUS
 62
     2
 10
181.25
 20
126.5
 30
0.0
 11
181.981153882
 21
124.109306795
 31
0.0
  0
LINE
  8
0
  6
CONTINUOUS
 62
     2
 10
181.25
 20
126.5
 30
0.0
 11
183.078544438
 21
124.795175893
 31
0.0
  0
LINE
  8
0
  6
CONTINUOUS
 62
     2
 10
181.25
 20
126.5
 30
0.0
 11
190.0
 21
112.5
 31
0.0
  0
TEXT
  8
0
  6
CONTINUOUS
 62
     2
 10
190.0
 20
113.5
 30
0.5
 40
3.0
  1
ＺＥＲＯ調整器
 50
0.0
 41
0.666666667
 51
0.0
  7
KANJI2
  0
TEXT
  8
0
  6
CONTINUOUS
 62
     2
 10
190.0
 20
123.5
 30
0.5
 40
3.0
  1
ＳＰＡＮ調整器
 50
0.0
 41
0.666666667
 51
0.0
  7
KANJI2
  0
LINE
  8
0
  6
CONTINUOUS
 62
     2
 10
190.0
 20
122.5
 30
0.0
 11
207.0
 21
122.5
 31
0.0
  0
LINE
  8
0
  6
CONTINUOUS
 62
     2
 10
190.0
 20
112.5
 30
0.0
 11
207.0
 21
112.5
 31
0.0
  0
LINE
  8
0
  6
LTYPE1
 62
     2
 10
40.0
 20
54.0
 30
0.0
 11
75.0
 21
54.0
 31
0.0
  0
LINE
  8
0
  6
LTYPE1
 62
     2
 10
47.5
 20
49.0
 30
0.0
 11
47.5
 21
59.0
 31
0.0
  0
LINE
  8
0
  6
LTYPE1
 62
     2
 10
67.5
 20
49.0
 30
0.0
 11
67.5
 21
59.0
 31
0.0
  0
LINE
  8
0
  6
LTYPE1
 62
     2
 10
57.5
 20
27.0
 30
0.0
 11
57.5
 21
79.0
 31
0.0
  0
LINE
  8
0
  6
CONTINUOUS
 62
     2
 10
68.3
 20
54.8
 30
0.0
 11
70.465063509
 21
56.05
 31
0.0
  0
LINE
  8
0
  6
CONTINUOUS
 62
     2
 10
68.3
 20
54.8
 30
0.0
 11
69.55
 21
56.965063509
 31
0.0
  0
LINE
  8
0
  6
CONTINUOUS
 62
     2
 10
74.0
 20
60.5
 30
0.0
 11
86.6
 21
60.5
 31
0.0
  0
TEXT
  8
0
  6
CONTINUOUS
 62
     2
 10
74.0
 20
61.5
 30
0.0
 40
3.0
  1
２－φ４．５穴
 50
0.0
 41
0.6
 51
0.0
  7
KANJI3
  0
LINE
  8
0
  6
CONTINUOUS
 62
     2
 10
68.3
 20
54.8
 30
0.0
 11
74.0
 21
60.5
 31
0.0
  0
TEXT
  8
0
  6
CONTINUOUS
 62
     2
 10
74.0
 20
28.0
 30
0.0
 40
3.0
  1
端子ネジ
 50
0.0
 41
0.9
 51
0.0
  7
KANJI4
  0
TEXT
  8
0
  6
CONTINUOUS
 62
     2
 10
86.5
 20
28.0
 30
0.0
 40
3.0
  1
Ｍ３．５
 50
0.0
 41
0.6
 51
0.0
  7
KANJI3
  0
LINE
  8
0
  6
CONTINUOUS
 62
     2
 10
74.0
 20
27.0
 30
0.0
 11
94.0
 21
27.0
 31
0.0
  0
LINE
  8
0
  6
LTYPE1
 62
     2
 10
85.0
 20
54.0
 30
0.0
 11
111.5
 21
54.0
 31
0.0
  0
LINE
  8
0
  6
CONTINUOUS
 62
     2
 10
66.75
 20
39.45
 30
0.0
 11
67.406041267
 21
37.037613245
 31
0.0
  0
LINE
  8
0
  6
CONTINUOUS
 62
     2
 10
66.75
 20
39.45
 30
0.0
 11
68.52434178
 21
37.68883242
 31
0.0
  0
LINE
  8
0
  6
CONTINUOUS
 62
     2
 10
66.75
 20
39.45
 30
0.0
 11
74.0
 21
27.0
 31
0.0
  0
LINE
  8
0
  6
CONTINUOUS
 62
     2
 10
116.5
 20
62.85
 30
0.0
 11
115.852952387
 21
60.435185434
 31
0.0
  0
LINE
  8
0
  6
CONTINUOUS
 62
     2
 10
116.5
 20
62.85
 30
0.0
 11
117.147047613
 21
60.435185434
 31
0.0
  0
LINE
  8
0
  6
CONTINUOUS
 62
     2
 10
116.5
 20
62.85
 30
0.0
 11
116.5
 21
45.15
 31
0.0
  0
LINE
  8
0
  6
CONTINUOUS
 62
     2
 10
116.5
 20
45.15
 30
0.0
 11
117.147047613
 21
47.564814566
 31
0.0
  0
LINE
  8
0
  6
CONTINUOUS
 62
     2
 10
116.5
 20
45.15
 30
0.0
 11
115.852952387
 21
47.564814566
 31
0.0
  0
TEXT
  8
0
  6
CONTINUOUS
 62
     2
 10
115.5
 20
49.25
 30
0.5
 40
3.0
  1
３５．４
 50
90.0
 41
0.666666667
 51
0.0
  7
KANJI2
  0
LINE
  8
0
  6
CONTINUOUS
 62
     2
 10
107.0
 20
62.85
 30
0.0
 11
118.5
 21
62.85
 31
0.0
  0
LINE
  8
0
  6
CONTINUOUS
 62
     2
 10
107.0
 20
45.15
 30
0.0
 11
118.5
 21
45.15
 31
0.0
  0
LINE
  8
0
  6
CONTINUOUS
 62
     2
 10
35.0
 20
34.0
 30
0.0
 11
35.647047613
 21
36.414814566
 31
0.0
  0
LINE
  8
0
  6
CONTINUOUS
 62
     2
 10
35.0
 20
74.0
 30
0.0
 11
34.352952387
 21
71.585185434
 31
0.0
  0
LINE
  8
0
  6
CONTINUOUS
 62
     2
 10
35.0
 20
74.0
 30
0.0
 11
35.647047613
 21
71.585185434
 31
0.0
  0
TEXT
  8
0
  6
CONTINUOUS
 62
     2
 10
34.0
 20
51.75
 30
0.5
 40
3.0
  1
８０
 50
90.0
 41
0.666666667
 51
0.0
  7
KANJI2
  0
LINE
  8
0
  6
CONTINUOUS
 62
     2
 10
35.0
 20
34.0
 30
0.0
 11
34.352952387
 21
36.414814566
 31
0.0
  0
LINE
  8
0
  6
CONTINUOUS
 62
     2
 10
35.0
 20
32.0
 30
0.0
 11
34.352952387
 21
29.585185434
 31
0.0
  0
LINE
  8
0
  6
CONTINUOUS
 62
     2
 10
35.0
 20
32.0
 30
0.0
 11
35.647047613
 21
29.585185434
 31
0.0
  0
TEXT
  8
0
  6
CONTINUOUS
 62
     2
 10
34.0
 20
27.0
 30
0.5
 40
3.0
  1
４
 50
90.0
 41
0.666666667
 51
0.0
  7
KANJI2
  0
LINE
  8
0
  6
CONTINUOUS
 62
     2
 10
35.0
 20
27.0
 30
0.0
 11
35.0
 21
74.0
 31
0.0
  0
LINE
  8
0
  6
CONTINUOUS
 62
     2
 10
54.9
 20
74.0
 30
0.0
 11
33.0
 21
74.0
 31
0.0
  0
LINE
  8
0
  6
CONTINUOUS
 62
     2
 10
50.75
 20
34.0
 30
0.0
 11
33.0
 21
34.0
 31
0.0
  0
LINE
  8
0
  6
CONTINUOUS
 62
     2
 10
55.75
 20
32.0
 30
0.0
 11
33.0
 21
32.0
 31
0.0
  0
LINE
  8
0
  6
CONTINUOUS
 62
     2
 10
45.0
 20
89.0
 30
0.0
 11
47.414814566
 21
88.352952387
 31
0.0
  0
LINE
  8
0
  6
CONTINUOUS
 62
     2
 10
45.0
 20
89.0
 30
0.0
 11
47.414814566
 21
89.647047613
 31
0.0
  0
LINE
  8
0
  6
CONTINUOUS
 62
     2
 10
45.0
 20
89.0
 30
0.0
 11
70.0
 21
89.0
 31
0.0
  0
LINE
  8
0
  6
CONTINUOUS
 62
     2
 10
70.0
 20
89.0
 30
0.0
 11
67.585185434
 21
89.647047613
 31
0.0
  0
LINE
  8
0
  6
CONTINUOUS
 62
     2
 10
70.0
 20
89.0
 30
0.0
 11
67.585185434
 21
88.352952387
 31
0.0
  0
TEXT
  8
0
  6
CONTINUOUS
 62
     2
 10
55.25
 20
90.0
 30
0.5
 40
3.0
  1
５０
 50
0.0
 41
0.666666667
 51
0.0
  7
KANJI2
  0
LINE
  8
0
  6
CONTINUOUS
 62
     2
 10
47.5
 20
84.0
 30
0.0
 11
49.914814566
 21
83.352952387
 31
0.0
  0
LINE
  8
0
  6
CONTINUOUS
 62
     2
 10
47.5
 20
84.0
 30
0.0
 11
49.914814566
 21
84.647047613
 31
0.0
  0
LINE
  8
0
  6
CONTINUOUS
 62
     2
 10
47.5
 20
84.0
 30
0.0
 11
67.5
 21
84.0
 31
0.0
  0
LINE
  8
0
  6
CONTINUOUS
 62
     2
 10
67.5
 20
84.0
 30
0.0
 11
65.085185434
 21
84.647047613
 31
0.0
  0
LINE
  8
0
  6
CONTINUOUS
 62
     2
 10
67.5
 20
84.0
 30
0.0
 11
65.085185434
 21
83.352952387
 31
0.0
  0
TEXT
  8
0
  6
CONTINUOUS
 62
     2
 10
52.4
 20
85.0
 30
0.5
 40
3.0
  1
４０
 50
0.0
 41
0.666666667
 51
0.0
  7
KANJI2
  0
TEXT
  8
0
  6
CONTINUOUS
 62
     2
 10
56.9
 20
85.0
 30
0.3
 40
1.8
  1
±０．２
 50
0.0
 41
0.666666667
 51
0.0
  7
KANJI5
  0
LINE
  8
0
  6
CONTINUOUS
 62
     2
 10
90.0
 20
84.0
 30
0.0
 11
87.585185434
 21
84.647047613
 31
0.0
  0
LINE
  8
0
  6
CONTINUOUS
 62
     2
 10
90.0
 20
84.0
 30
0.0
 11
87.585185434
 21
83.352952387
 31
0.0
  0
LINE
  8
0
  6
CONTINUOUS
 62
     2
 10
92.5
 20
84.0
 30
0.0
 11
94.914814566
 21
83.352952387
 31
0.0
  0
LINE
  8
0
  6
CONTINUOUS
 62
     2
 10
92.5
 20
84.0
 30
0.0
 11
94.914814566
 21
84.647047613
 31
0.0
  0
LINE
  8
0
  6
CONTINUOUS
 62
     2
 10
85.0
 20
84.0
 30
0.0
 11
95.5
 21
84.0
 31
0.0
  0
TEXT
  8
0
  6
CONTINUOUS
 62
     2
 10
85.0
 20
85.0
 30
0.5
 40
3.0
  1
５
 50
0.0
 41
0.666666667
 51
0.0
  7
KANJI2
  0
LINE
  8
0
  6
CONTINUOUS
 62
     2
 10
106.5
 20
84.0
 30
0.0
 11
108.914814566
 21
83.352952387
 31
0.0
  0
LINE
  8
0
  6
CONTINUOUS
 62
     2
 10
106.5
 20
84.0
 30
0.0
 11
108.914814566
 21
84.647047613
 31
0.0
  0
LINE
  8
0
  6
CONTINUOUS
 62
     2
 10
104.5
 20
84.0
 30
0.0
 11
102.085185434
 21
84.647047613
 31
0.0
  0
LINE
  8
0
  6
CONTINUOUS
 62
     2
 10
104.5
 20
84.0
 30
0.0
 11
102.085185434
 21
83.352952387
 31
0.0
  0
LINE
  8
0
  6
CONTINUOUS
 62
     2
 10
111.5
 20
84.0
 30
0.0
 11
101.5
 21
84.0
 31
0.0
  0
TEXT
  8
0
  6
CONTINUOUS
 62
     2
 10
109.5
 20
85.0
 30
0.5
 40
3.0
  1
４
 50
0.0
 41
0.666666667
 51
0.0
  7
KANJI2
  0
LINE
  8
0
  6
CONTINUOUS
 62
     2
 10
90.0
 20
89.0
 30
0.0
 11
92.414814566
 21
88.352952387
 31
0.0
  0
LINE
  8
0
  6
CONTINUOUS
 62
     2
 10
90.0
 20
89.0
 30
0.0
 11
92.414814566
 21
89.647047613
 31
0.0
  0
LINE
  8
0
  6
CONTINUOUS
 62
     2
 10
90.0
 20
89.0
 30
0.0
 11
106.5
 21
89.0
 31
0.0
  0
LINE
  8
0
  6
CONTINUOUS
 62
     2
 10
106.5
 20
89.0
 30
0.0
 11
104.085185434
 21
89.647047613
 31
0.0
  0
LINE
  8
0
  6
CONTINUOUS
 62
     2
 10
106.5
 20
89.0
 30
0.0
 11
104.085185434
 21
88.352952387
 31
0.0
  0
TEXT
  8
0
  6
CONTINUOUS
 62
     2
 10
96.0
 20
90.0
 30
0.5
 40
3.0
  1
３３
 50
0.0
 41
0.666666667
 51
0.0
  7
KANJI2
  0
LINE
  8
0
  6
CONTINUOUS
 62
     2
 10
106.5
 20
74.5
 30
0.0
 11
106.5
 21
91.0
 31
0.0
  0
LINE
  8
0
  6
CONTINUOUS
 62
     2
 10
90.0
 20
61.7
 30
0.0
 11
90.0
 21
91.0
 31
0.0
  0
LINE
  8
0
  6
CONTINUOUS
 62
     2
 10
104.5
 20
74.5
 30
0.0
 11
104.5
 21
86.0
 31
0.0
  0
LINE
  8
0
  6
CONTINUOUS
 62
     2
 10
92.5
 20
74.0
 30
0.0
 11
92.5
 21
86.0
 31
0.0
  0
LINE
  8
0
  6
CONTINUOUS
 62
     2
 10
70.0
 20
73.5
 30
0.0
 11
70.0
 21
91.0
 31
0.0
  0
LINE
  8
0
  6
CONTINUOUS
 62
     2
 10
45.0
 20
73.5
 30
0.0
 11
45.0
 21
91.0
 31
0.0
  0
LINE
  8
0
  6
CONTINUOUS
 62
     2
 10
47.5
 20
59.0
 30
0.0
 11
47.5
 21
86.0
 31
0.0
  0
LINE
  8
0
  6
CONTINUOUS
 62
     2
 10
67.5
 20
59.0
 30
0.0
 11
67.5
 21
86.0
 31
0.0
  0
LINE
  8
0
  6
LTYPE1
 62
     2
 10
207.0
 20
54.0
 30
0.0
 11
127.25
 21
54.0
 31
0.0
  0
LINE
  8
0
  6
CONTINUOUS
 62
     2
 10
137.25
 20
84.0
 30
0.0
 11
139.664814566
 21
83.352952387
 31
0.0
  0
LINE
  8
0
  6
CONTINUOUS
 62
     2
 10
137.25
 20
84.0
 30
0.0
 11
139.664814566
 21
84.647047613
 31
0.0
  0
LINE
  8
0
  6
CONTINUOUS
 62
     2
 10
137.25
 20
84.0
 30
0.0
 11
202.0
 21
84.0
 31
0.0
  0
LINE
  8
0
  6
CONTINUOUS
 62
     2
 10
202.0
 20
84.0
 30
0.0
 11
199.585185434
 21
84.647047613
 31
0.0
  0
LINE
  8
0
  6
CONTINUOUS
 62
     2
 10
202.0
 20
84.0
 30
0.0
 11
199.585185434
 21
83.352952387
 31
0.0
  0
TEXT
  8
0
  6
CONTINUOUS
 62
     2
 10
162.375
 20
85.0
 30
0.5
 40
3.0
  1
ｍａｘ１３４
 50
0.0
 41
0.666666667
 51
0.0
  7
KANJI2
  0
LINE
  8
0
  6
CONTINUOUS
 62
     2
 10
202.0
 20
74.0
 30
0.0
 11
202.0
 21
86.0
 31
0.0
  0
TEXT
  8
0
  6
CONTINUOUS
 62
     3
 10
142.0
 20
97.0
 30
0.4
 40
4.0
  1
ソケットに本体を取付けた状態
 50
0.0
 41
0.9
 51
0.0
  7
KANJI6
  0
TEXT
  8
0
  6
CONTINUOUS
 62
     3
 10
35.0
 20
97.0
 30
0.4
 40
4.0
  1
ソケット
 50
0.0
 41
0.9
 51
0.0
  7
KANJI6
  0
TEXT
  8
0
  6
CONTINUOUS
 62
     3
 10
35.0
 20
182.0
 30
0.4
 40
4.0
  1
ＲＫＭＰ本体
 50
0.0
 41
0.9
 51
0.0
  7
KANJI6
  0
TEXT
  8
0
  6
CONTINUOUS
 62
     4
 10
234.0
 20
17.0
 30
0.6
 40
6.0
  1
ＭＳ－１２６４２
 50
0.0
 41
0.9
 51
0.0
  7
KANJI7
  0
CIRCLE
  8
0
  6
CONTINUOUS
 62
     1
 10
166.75
 20
127.5
 30
0.0
 40
1.625
  0
CIRCLE
  8
0
  6
CONTINUOUS
 62
     1
 10
166.75
 20
132.5
 30
0.0
 40
1.625
  0
LINE
  8
0
  6
LTYPE1
 62
     2
 10
163.25
 20
127.5
 30
0.0
 11
170.25
 21
127.5
 31
0.0
  0
LINE
  8
0
  6
LTYPE1
 62
     2
 10
163.25
 20
132.5
 30
0.0
 11
170.25
 21
132.5
 31
0.0
  0
LINE
  8
0
  6
LTYPE1
 62
     2
 10
166.75
 20
136.0
 30
0.0
 11
166.75
 21
124.0
 31
0.0
  0
LINE
  8
0
  6
CONTINUOUS
 62
     2
 10
165.75
 20
126.5
 30
0.0
 11
163.921455562
 21
124.795175893
 31
0.0
  0
LINE
  8
0
  6
CONTINUOUS
 62
     2
 10
165.75
 20
126.5
 30
0.0
 11
165.018846118
 21
124.109306795
 31
0.0
  0
LINE
  8
0
  6
CONTINUOUS
 62
     2
 10
165.75
 20
126.5
 30
0.0
 11
157.0
 21
112.5
 31
0.0
  0
LINE
  8
0
  6
CONTINUOUS
 62
     2
 10
165.75
 20
133.5
 30
0.0
 11
165.716746011
 21
135.999778825
 31
0.0
  0
LINE
  8
0
  6
CONTINUOUS
 62
     2
 10
165.75
 20
133.5
 30
0.0
 11
164.471311788
 21
135.648244972
 31
0.0
  0
LINE
  8
0
  6
CONTINUOUS
 62
     2
 10
165.75
 20
133.5
 30
0.0
 11
157.0
 21
164.5
 31
0.0
  0
LINE
  8
0
  6
CONTINUOUS
 62
     2
 10
157.0
 20
164.5
 30
0.0
 11
137.0
 21
164.5
 31
0.0
  0
TEXT
  8
0
  6
CONTINUOUS
 62
     2
 10
137.0
 20
165.5
 30
0.5
 40
3.0
  1
ＭＯＤＥスイッチ
 50
0.0
 41
0.666666667
 51
0.0
  7
KANJI2
  0
LINE
  8
0
  6
CONTINUOUS
 62
     2
 10
117.0
 20
112.5
 30
0.0
 11
157.0
 21
112.5
 31
0.0
  0
TEXT
  8
0
  6
CONTINUOUS
 62
     2
 10
117.0
 20
113.5
 30
0.5
 40
3.0
  1
ＲＥＳＰＯＮＳＥ　ＴＩＭＥ　調整器
 50
0.0
 41
0.666666667
 51
0.0
  7
KANJI2
  0
TEXT
  8
0
  6
CONTINUOUS
 62
     3
 10
234.5
 20
44.0
 30
0.4
 40
4.0
  1
ＲＫＭＰ－□
 50
0.0
 41
0.9
 51
0.0
  7
KANJI8
  0
TEXT
  8
0
  6
CONTINUOUS
 62
     3
 10
266.0
 20
33.0
 30
0.4
 40
4.0
  1
外形図
 50
0.0
 41
0.9
 51
0.0
  7
KANJI8
  0
TEXT
  8
0
  6
CONTINUOUS
 62
     3
 10
234.5
 20
37.5
 30
0.4
 40
4.0
  1
アナログバックアップ
 50
0.0
 41
0.9
 51
0.0
  7
KANJI8
  0
ENDSEC
  0
EOF
