  0
SECTION
  2
HEADER
  9
$ACADVER
  1
AC1009
  9
$DWGCODEPAGE
  3
dos932
  9
$EXTMIN
 10
0.0
 20
0.0
 30
0.0
  9
$EXTMAX
 10
297.0
 20
210.0
 30
0.0
  9
$LIMMIN
 10
0.0
 20
0.0
  9
$LIMMAX
 10
297.0
 20
210.0
  9
$LTSCALE
 40
1.0
  9
$PDMODE
 70
     0
  0
ENDSEC
  0
SECTION
  2
TABLES
  0
TABLE
  2
VPORT
 70
     1
  0
VPORT
  2
*ACTIVE
 70
     0
 10
0.0
 20
0.0
 11
1.0
 21
1.0
 12
148.5
 22
105.0
 13
0.0
 23
0.0
 14
10.0
 24
10.0
 15
10.0
 25
10.0
 16
0.0
 26
0.0
 36
1.0
 17
0.0
 27
0.0
 37
0.0
 40
297.0
 41
1.414285714
 42
50.0
 43
0.0
 44
0.0
 50
0.0
 51
0.0
 71
     0
 72
  1000
 73
     1
 74
     3
 75
     0
 76
     0
 77
     0
 78
     0
  0
ENDTAB
  0
TABLE
  2
LTYPE
 70
     2
  0
LTYPE
  2
CONTINUOUS
 70
    64
  3
Solid line
 72
    65
 73
     0
 40
0.0
  0
LTYPE
  2
LTYPE1
 70
    64
  3
CENTER
 72
    65
 73
     4
 40
5.0
 49
3.5
 49
-0.5
 49
0.5
 49
-0.5
  0
ENDTAB
  0
TABLE
  2
LAYER
 70
   128
  0
LAYER
  2
0
 70
     0
 62
     7
  6
CONTINUOUS
  0
LAYER
  2
2
 70
     0
 62
     7
  6
CONTINUOUS
  0
LAYER
  2
3
 70
     0
 62
     7
  6
CONTINUOUS
  0
LAYER
  2
4
 70
     0
 62
     7
  6
CONTINUOUS
  0
LAYER
  2
5
 70
     0
 62
     7
  6
CONTINUOUS
  0
LAYER
  2
6
 70
     0
 62
     7
  6
CONTINUOUS
  0
LAYER
  2
7
 70
     0
 62
     7
  6
CONTINUOUS
  0
LAYER
  2
8
 70
     0
 62
     7
  6
CONTINUOUS
  0
LAYER
  2
9
 70
     0
 62
     7
  6
CONTINUOUS
  0
LAYER
  2
10
 70
     0
 62
     7
  6
CONTINUOUS
  0
LAYER
  2
11
 70
     0
 62
     7
  6
CONTINUOUS
  0
LAYER
  2
12
 70
     0
 62
     7
  6
CONTINUOUS
  0
LAYER
  2
13
 70
     0
 62
     7
  6
CONTINUOUS
  0
LAYER
  2
14
 70
     0
 62
     7
  6
CONTINUOUS
  0
LAYER
  2
15
 70
     0
 62
     7
  6
CONTINUOUS
  0
LAYER
  2
16
 70
     0
 62
     7
  6
CONTINUOUS
  0
LAYER
  2
17
 70
     0
 62
     7
  6
CONTINUOUS
  0
LAYER
  2
18
 70
     0
 62
     7
  6
CONTINUOUS
  0
LAYER
  2
19
 70
     0
 62
     7
  6
CONTINUOUS
  0
LAYER
  2
20
 70
     0
 62
     7
  6
CONTINUOUS
  0
LAYER
  2
21
 70
     0
 62
     7
  6
CONTINUOUS
  0
LAYER
  2
22
 70
     0
 62
     7
  6
CONTINUOUS
  0
LAYER
  2
23
 70
     0
 62
     7
  6
CONTINUOUS
  0
LAYER
  2
24
 70
     0
 62
     7
  6
CONTINUOUS
  0
LAYER
  2
25
 70
     0
 62
     7
  6
CONTINUOUS
  0
LAYER
  2
26
 70
     0
 62
     7
  6
CONTINUOUS
  0
LAYER
  2
27
 70
     0
 62
     7
  6
CONTINUOUS
  0
LAYER
  2
28
 70
     0
 62
     7
  6
CONTINUOUS
  0
LAYER
  2
29
 70
     0
 62
     7
  6
CONTINUOUS
  0
LAYER
  2
30
 70
     0
 62
     7
  6
CONTINUOUS
  0
LAYER
  2
31
 70
     0
 62
     7
  6
CONTINUOUS
  0
LAYER
  2
32
 70
     0
 62
     7
  6
CONTINUOUS
  0
LAYER
  2
33
 70
     0
 62
     7
  6
CONTINUOUS
  0
LAYER
  2
34
 70
     0
 62
     7
  6
CONTINUOUS
  0
LAYER
  2
35
 70
     0
 62
     7
  6
CONTINUOUS
  0
LAYER
  2
36
 70
     0
 62
     7
  6
CONTINUOUS
  0
LAYER
  2
37
 70
     0
 62
     7
  6
CONTINUOUS
  0
LAYER
  2
38
 70
     0
 62
     7
  6
CONTINUOUS
  0
LAYER
  2
39
 70
     0
 62
     7
  6
CONTINUOUS
  0
LAYER
  2
40
 70
     0
 62
     7
  6
CONTINUOUS
  0
LAYER
  2
41
 70
     0
 62
     7
  6
CONTINUOUS
  0
LAYER
  2
42
 70
     0
 62
     7
  6
CONTINUOUS
  0
LAYER
  2
43
 70
     0
 62
     7
  6
CONTINUOUS
  0
LAYER
  2
44
 70
     0
 62
     7
  6
CONTINUOUS
  0
LAYER
  2
45
 70
     0
 62
     7
  6
CONTINUOUS
  0
LAYER
  2
46
 70
     0
 62
     7
  6
CONTINUOUS
  0
LAYER
  2
47
 70
     0
 62
     7
  6
CONTINUOUS
  0
LAYER
  2
48
 70
     0
 62
     7
  6
CONTINUOUS
  0
LAYER
  2
49
 70
     0
 62
     7
  6
CONTINUOUS
  0
LAYER
  2
50
 70
     0
 62
     7
  6
CONTINUOUS
  0
LAYER
  2
51
 70
     0
 62
     7
  6
CONTINUOUS
  0
LAYER
  2
52
 70
     0
 62
     7
  6
CONTINUOUS
  0
LAYER
  2
53
 70
     0
 62
     7
  6
CONTINUOUS
  0
LAYER
  2
54
 70
     0
 62
     7
  6
CONTINUOUS
  0
LAYER
  2
55
 70
     0
 62
     7
  6
CONTINUOUS
  0
LAYER
  2
56
 70
     0
 62
     7
  6
CONTINUOUS
  0
LAYER
  2
57
 70
     0
 62
     7
  6
CONTINUOUS
  0
LAYER
  2
58
 70
     0
 62
     7
  6
CONTINUOUS
  0
LAYER
  2
59
 70
     0
 62
     7
  6
CONTINUOUS
  0
LAYER
  2
60
 70
     0
 62
     7
  6
CONTINUOUS
  0
LAYER
  2
61
 70
     0
 62
     7
  6
CONTINUOUS
  0
LAYER
  2
62
 70
     0
 62
     7
  6
CONTINUOUS
  0
LAYER
  2
63
 70
     0
 62
     7
  6
CONTINUOUS
  0
LAYER
  2
64
 70
     0
 62
     7
  6
CONTINUOUS
  0
LAYER
  2
65
 70
     0
 62
     7
  6
CONTINUOUS
  0
LAYER
  2
66
 70
     0
 62
     7
  6
CONTINUOUS
  0
LAYER
  2
67
 70
     0
 62
     7
  6
CONTINUOUS
  0
LAYER
  2
68
 70
     0
 62
     7
  6
CONTINUOUS
  0
LAYER
  2
69
 70
     0
 62
     7
  6
CONTINUOUS
  0
LAYER
  2
70
 70
     0
 62
     7
  6
CONTINUOUS
  0
LAYER
  2
71
 70
     0
 62
     7
  6
CONTINUOUS
  0
LAYER
  2
72
 70
     0
 62
     7
  6
CONTINUOUS
  0
LAYER
  2
73
 70
     0
 62
     7
  6
CONTINUOUS
  0
LAYER
  2
74
 70
     0
 62
     7
  6
CONTINUOUS
  0
LAYER
  2
75
 70
     0
 62
     7
  6
CONTINUOUS
  0
LAYER
  2
76
 70
     0
 62
     7
  6
CONTINUOUS
  0
LAYER
  2
77
 70
     0
 62
     7
  6
CONTINUOUS
  0
LAYER
  2
78
 70
     0
 62
     7
  6
CONTINUOUS
  0
LAYER
  2
79
 70
     0
 62
     7
  6
CONTINUOUS
  0
LAYER
  2
80
 70
     0
 62
     7
  6
CONTINUOUS
  0
LAYER
  2
81
 70
     0
 62
     7
  6
CONTINUOUS
  0
LAYER
  2
82
 70
     0
 62
     7
  6
CONTINUOUS
  0
LAYER
  2
83
 70
     0
 62
     7
  6
CONTINUOUS
  0
LAYER
  2
84
 70
     0
 62
     7
  6
CONTINUOUS
  0
LAYER
  2
85
 70
     0
 62
     7
  6
CONTINUOUS
  0
LAYER
  2
86
 70
     0
 62
     7
  6
CONTINUOUS
  0
LAYER
  2
87
 70
     0
 62
     7
  6
CONTINUOUS
  0
LAYER
  2
88
 70
     0
 62
     7
  6
CONTINUOUS
  0
LAYER
  2
89
 70
     0
 62
     7
  6
CONTINUOUS
  0
LAYER
  2
90
 70
     0
 62
     7
  6
CONTINUOUS
  0
LAYER
  2
91
 70
     0
 62
     7
  6
CONTINUOUS
  0
LAYER
  2
92
 70
     0
 62
     7
  6
CONTINUOUS
  0
LAYER
  2
93
 70
     0
 62
     7
  6
CONTINUOUS
  0
LAYER
  2
94
 70
     0
 62
     7
  6
CONTINUOUS
  0
LAYER
  2
95
 70
     0
 62
     7
  6
CONTINUOUS
  0
LAYER
  2
96
 70
     0
 62
     7
  6
CONTINUOUS
  0
LAYER
  2
97
 70
     0
 62
     7
  6
CONTINUOUS
  0
LAYER
  2
98
 70
     0
 62
     7
  6
CONTINUOUS
  0
LAYER
  2
99
 70
     0
 62
     7
  6
CONTINUOUS
  0
LAYER
  2
100
 70
     0
 62
     7
  6
CONTINUOUS
  0
LAYER
  2
101
 70
     0
 62
     7
  6
CONTINUOUS
  0
LAYER
  2
102
 70
     0
 62
     7
  6
CONTINUOUS
  0
LAYER
  2
103
 70
     0
 62
     7
  6
CONTINUOUS
  0
LAYER
  2
104
 70
     0
 62
     7
  6
CONTINUOUS
  0
LAYER
  2
105
 70
     0
 62
     7
  6
CONTINUOUS
  0
LAYER
  2
106
 70
     0
 62
     7
  6
CONTINUOUS
  0
LAYER
  2
107
 70
     0
 62
     7
  6
CONTINUOUS
  0
LAYER
  2
108
 70
     0
 62
     7
  6
CONTINUOUS
  0
LAYER
  2
109
 70
     0
 62
     7
  6
CONTINUOUS
  0
LAYER
  2
110
 70
     0
 62
     7
  6
CONTINUOUS
  0
LAYER
  2
111
 70
     0
 62
     7
  6
CONTINUOUS
  0
LAYER
  2
112
 70
     0
 62
     7
  6
CONTINUOUS
  0
LAYER
  2
113
 70
     0
 62
     7
  6
CONTINUOUS
  0
LAYER
  2
114
 70
     0
 62
     7
  6
CONTINUOUS
  0
LAYER
  2
115
 70
     0
 62
     7
  6
CONTINUOUS
  0
LAYER
  2
116
 70
     0
 62
     7
  6
CONTINUOUS
  0
LAYER
  2
117
 70
     0
 62
     7
  6
CONTINUOUS
  0
LAYER
  2
118
 70
     0
 62
     7
  6
CONTINUOUS
  0
LAYER
  2
119
 70
     0
 62
     7
  6
CONTINUOUS
  0
LAYER
  2
120
 70
     0
 62
     7
  6
CONTINUOUS
  0
LAYER
  2
121
 70
     0
 62
     7
  6
CONTINUOUS
  0
LAYER
  2
122
 70
     0
 62
     7
  6
CONTINUOUS
  0
LAYER
  2
123
 70
     0
 62
     7
  6
CONTINUOUS
  0
LAYER
  2
124
 70
     0
 62
     7
  6
CONTINUOUS
  0
LAYER
  2
125
 70
     0
 62
     7
  6
CONTINUOUS
  0
LAYER
  2
126
 70
     0
 62
     7
  6
CONTINUOUS
  0
LAYER
  2
127
 70
     0
 62
     7
  6
CONTINUOUS
  0
LAYER
  2
128
 70
     0
 62
     7
  6
CONTINUOUS
  0
ENDTAB
  0
TABLE
  2
STYLE
 70
    13
  0
STYLE
  2
STANDARD
 70
     0
 40
0.0
 41
1.0
 50
0.0
 71
     0
 42
0.2
  3
txt.shx
  4
extfont.shx
  0
STYLE
  2
KANJI0
 70
     0
 40
1.5
 41
0.9
 50
0.0
 71
     0
 42
1.5
  3
txt.shx
  4
extfont.shx
  0
STYLE
  2
KANJI1
 70
     0
 40
1.2
 41
0.9
 50
0.0
 71
     0
 42
1.2
  3
txt.shx
  4
extfont.shx
  0
STYLE
  2
KANJI2
 70
     0
 40
1.2
 41
0.9
 50
0.0
 71
     0
 42
1.2
  3
txt.shx
  4
extfont.shx
  0
STYLE
  2
KANJI3
 70
     0
 40
3.0
 41
0.666666667
 50
0.0
 71
     0
 42
3.0
  3
txt.shx
  4
extfont.shx
  0
STYLE
  2
KANJI4
 70
     0
 40
1.8
 41
0.666666667
 50
0.0
 71
     0
 42
1.8
  3
txt.shx
  4
extfont.shx
  0
STYLE
  2
KANJI5
 70
     0
 40
3.0
 41
0.6
 50
0.0
 71
     0
 42
3.0
  3
txt.shx
  4
extfont.shx
  0
STYLE
  2
KANJI6
 70
     0
 40
3.0
 41
0.9
 50
0.0
 71
     0
 42
3.0
  3
txt.shx
  4
extfont.shx
  0
STYLE
  2
KANJI7
 70
     0
 40
4.0
 41
0.9
 50
0.0
 71
     0
 42
4.0
  3
txt.shx
  4
extfont.shx
  0
STYLE
  2
KANJI8
 70
     0
 40
6.0
 41
0.8
 50
0.0
 71
     0
 42
6.0
  3
txt.shx
  4
extfont.shx
  0
STYLE
  2
KANJI9
 70
     0
 40
3.8
 41
0.7
 50
0.0
 71
     0
 42
3.8
  3
txt.shx
  4
extfont.shx
  0
STYLE
  2
KANJI10
 70
     0
 40
3.8
 41
0.9
 50
0.0
 71
     0
 42
3.8
  3
txt.shx
  4
extfont.shx
  0
STYLE
  2
KANJI11
 70
     0
 40
4.0
 41
0.9
 50
0.0
 71
     0
 42
4.0
  3
txt.shx
  4
extfont.shx
  0
ENDTAB
  0
TABLE
  2
VIEW
 70
     0
  0
ENDTAB
  0
ENDSEC
  0
SECTION
  2
BLOCKS
  0
ENDSEC
  0
SECTION
  2
ENTITIES
  0
LINE
  8
0
  6
CONTINUOUS
 62
     1
 10
46.3
 20
73.0
 30
0.0
 11
45.0
 21
73.0
 31
0.0
  0
LINE
  8
0
  6
CONTINUOUS
 62
     1
 10
46.3
 20
73.0
 30
0.0
 11
46.3
 21
65.0
 31
0.0
  0
LINE
  8
0
  6
CONTINUOUS
 62
     1
 10
46.3
 20
65.0
 30
0.0
 11
50.2
 21
65.0
 31
0.0
  0
LINE
  8
0
  6
CONTINUOUS
 62
     1
 10
50.2
 20
65.0
 30
0.0
 11
50.2
 21
73.0
 31
0.0
  0
LINE
  8
0
  6
CONTINUOUS
 62
     1
 10
50.2
 20
73.0
 30
0.0
 11
51.5
 21
73.0
 31
0.0
  0
LINE
  8
0
  6
CONTINUOUS
 62
     1
 10
51.5
 20
73.0
 30
0.0
 11
51.5
 21
65.0
 31
0.0
  0
LINE
  8
0
  6
CONTINUOUS
 62
     1
 10
51.5
 20
65.0
 30
0.0
 11
55.4
 21
65.0
 31
0.0
  0
LINE
  8
0
  6
CONTINUOUS
 62
     1
 10
55.4
 20
65.0
 30
0.0
 11
55.4
 21
74.0
 31
0.0
  0
LINE
  8
0
  6
CONTINUOUS
 62
     1
 10
55.4
 20
74.0
 30
0.0
 11
56.625
 21
74.0
 31
0.0
  0
LINE
  8
0
  6
CONTINUOUS
 62
     1
 10
56.625
 20
74.0
 30
0.0
 11
56.625
 21
62.2
 31
0.0
  0
LINE
  8
0
  6
CONTINUOUS
 62
     1
 10
56.625
 20
62.2
 30
0.0
 11
57.5
 21
62.2
 31
0.0
  0
LINE
  8
0
  6
CONTINUOUS
 62
     1
 10
46.3
 20
73.0
 30
0.0
 11
50.2
 21
73.0
 31
0.0
  0
LINE
  8
0
  6
CONTINUOUS
 62
     1
 10
51.5
 20
73.0
 30
0.0
 11
55.4
 21
73.0
 31
0.0
  0
LINE
  8
0
  6
CONTINUOUS
 62
     1
 10
46.3
 20
70.7
 30
0.0
 11
50.2
 21
70.7
 31
0.0
  0
LINE
  8
0
  6
CONTINUOUS
 62
     1
 10
51.5
 20
70.7
 30
0.0
 11
55.4
 21
70.7
 31
0.0
  0
LINE
  8
0
  6
CONTINUOUS
 62
     1
 10
55.4
 20
70.7
 30
0.0
 11
55.4
 21
70.2
 31
0.0
  0
LINE
  8
0
  6
CONTINUOUS
 62
     1
 10
55.4
 20
70.2
 30
0.0
 11
51.5
 21
70.2
 31
0.0
  0
LINE
  8
0
  6
CONTINUOUS
 62
     1
 10
50.2
 20
70.2
 30
0.0
 11
46.3
 21
70.2
 31
0.0
  0
LINE
  8
0
  6
CONTINUOUS
 62
     1
 10
46.3
 20
69.7
 30
0.0
 11
50.2
 21
69.7
 31
0.0
  0
LINE
  8
0
  6
CONTINUOUS
 62
     1
 10
51.5
 20
69.7
 30
0.0
 11
55.4
 21
69.7
 31
0.0
  0
LINE
  8
0
  6
CONTINUOUS
 62
     1
 10
55.4
 20
69.45
 30
0.0
 11
51.5
 21
69.45
 31
0.0
  0
LINE
  8
0
  6
CONTINUOUS
 62
     1
 10
50.2
 20
69.45
 30
0.0
 11
46.3
 21
69.45
 31
0.0
  0
CIRCLE
  8
0
  6
CONTINUOUS
 62
     1
 10
48.25
 20
67.25
 30
0.0
 40
1.375
  0
LINE
  8
0
  6
CONTINUOUS
 62
     1
 10
46.462471773
 20
65.750085724
 30
0.0
 11
49.749914276
 21
65.462471773
 31
0.0
  0
LINE
  8
0
  6
CONTINUOUS
 62
     1
 10
49.749914276
 20
65.462471773
 30
0.0
 11
50.037528227
 21
68.749914276
 31
0.0
  0
LINE
  8
0
  6
CONTINUOUS
 62
     1
 10
50.037528227
 20
68.749914276
 30
0.0
 11
46.750085724
 21
69.037528227
 31
0.0
  0
LINE
  8
0
  6
CONTINUOUS
 62
     1
 10
46.750085724
 20
69.037528227
 30
0.0
 11
46.462471773
 21
65.750085724
 31
0.0
  0
LINE
  8
0
  6
CONTINUOUS
 62
     1
 10
48.2
 20
68.9
 30
0.0
 11
48.15
 21
68.6
 31
0.0
  0
LINE
  8
0
  6
CONTINUOUS
 62
     1
 10
48.6
 20
68.85
 30
0.0
 11
48.6
 21
68.55
 31
0.0
  0
LINE
  8
0
  6
CONTINUOUS
 62
     1
 10
47.85
 20
65.925
 30
0.0
 11
47.85
 21
65.625
 31
0.0
  0
LINE
  8
0
  6
CONTINUOUS
 62
     1
 10
48.3
 20
65.875
 30
0.0
 11
48.2
 21
65.575
 31
0.0
  0
LINE
  8
0
  6
CONTINUOUS
 62
     1
 10
46.881274415
 20
67.118793013
 30
0.0
 11
47.456160173
 21
67.068497026
 31
0.0
  0
LINE
  8
0
  6
CONTINUOUS
 62
     1
 10
47.761130778
 20
65.964841689
 30
0.0
 11
47.819775755
 21
66.63515685
 31
0.0
  0
ARC
  8
0
  6
CONTINUOUS
 62
     1
 10
47.421297876
 20
66.670019147
 30
0.0
 40
0.4
 50
355.0
 51
85.0
  0
LINE
  8
0
  6
CONTINUOUS
 62
     1
 10
48.566921779
 20
66.569790043
 30
0.0
 11
48.508276801
 21
65.899474882
 31
0.0
  0
LINE
  8
0
  6
CONTINUOUS
 62
     1
 10
49.000261955
 20
66.933405625
 30
0.0
 11
49.575147713
 21
66.883109638
 31
0.0
  0
ARC
  8
0
  6
CONTINUOUS
 62
     1
 10
48.965399658
 20
66.534927746
 30
0.0
 40
0.4
 50
85.0
 51
175.0
  0
LINE
  8
0
  6
CONTINUOUS
 62
     1
 10
46.924852287
 20
67.616890362
 30
0.0
 11
47.499738045
 21
67.566594375
 31
0.0
  0
ARC
  8
0
  6
CONTINUOUS
 62
     1
 10
47.534600342
 20
67.965072254
 30
0.0
 40
0.4
 50
265.0
 51
355.0
  0
LINE
  8
0
  6
CONTINUOUS
 62
     1
 10
49.043839827
 20
67.431502974
 30
0.0
 11
49.618725585
 21
67.381206987
 31
0.0
  0
ARC
  8
0
  6
CONTINUOUS
 62
     1
 10
49.078702124
 20
67.829980853
 30
0.0
 40
0.4
 50
175.0
 51
265.0
  0
LINE
  8
0
  6
CONTINUOUS
 62
     1
 10
47.991723199
 20
68.600525118
 30
0.0
 11
47.933078221
 21
67.930209957
 31
0.0
  0
LINE
  8
0
  6
CONTINUOUS
 62
     1
 10
48.680224245
 20
67.86484315
 30
0.0
 11
48.738869222
 21
68.535158311
 31
0.0
  0
CIRCLE
  8
0
  6
CONTINUOUS
 62
     1
 10
53.45
 20
67.25
 30
0.0
 40
1.375
  0
LINE
  8
0
  6
CONTINUOUS
 62
     1
 10
51.662471773
 20
65.750085724
 30
0.0
 11
54.949914276
 21
65.462471773
 31
0.0
  0
LINE
  8
0
  6
CONTINUOUS
 62
     1
 10
54.949914276
 20
65.462471773
 30
0.0
 11
55.237528227
 21
68.749914276
 31
0.0
  0
LINE
  8
0
  6
CONTINUOUS
 62
     1
 10
55.237528227
 20
68.749914276
 30
0.0
 11
51.950085724
 21
69.037528227
 31
0.0
  0
LINE
  8
0
  6
CONTINUOUS
 62
     1
 10
51.950085724
 20
69.037528227
 30
0.0
 11
51.662471773
 21
65.750085724
 31
0.0
  0
LINE
  8
0
  6
CONTINUOUS
 62
     1
 10
53.4
 20
68.9
 30
0.0
 11
53.35
 21
68.6
 31
0.0
  0
LINE
  8
0
  6
CONTINUOUS
 62
     1
 10
53.8
 20
68.85
 30
0.0
 11
53.8
 21
68.55
 31
0.0
  0
LINE
  8
0
  6
CONTINUOUS
 62
     1
 10
53.05
 20
65.925
 30
0.0
 11
53.05
 21
65.625
 31
0.0
  0
LINE
  8
0
  6
CONTINUOUS
 62
     1
 10
53.5
 20
65.875
 30
0.0
 11
53.4
 21
65.575
 31
0.0
  0
LINE
  8
0
  6
CONTINUOUS
 62
     1
 10
52.081274415
 20
67.118793013
 30
0.0
 11
52.656160173
 21
67.068497026
 31
0.0
  0
LINE
  8
0
  6
CONTINUOUS
 62
     1
 10
52.961130778
 20
65.964841689
 30
0.0
 11
53.019775755
 21
66.63515685
 31
0.0
  0
ARC
  8
0
  6
CONTINUOUS
 62
     1
 10
52.621297876
 20
66.670019147
 30
0.0
 40
0.4
 50
355.0
 51
85.0
  0
LINE
  8
0
  6
CONTINUOUS
 62
     1
 10
53.766921779
 20
66.569790043
 30
0.0
 11
53.708276801
 21
65.899474882
 31
0.0
  0
LINE
  8
0
  6
CONTINUOUS
 62
     1
 10
54.200261955
 20
66.933405625
 30
0.0
 11
54.775147713
 21
66.883109638
 31
0.0
  0
ARC
  8
0
  6
CONTINUOUS
 62
     1
 10
54.165399658
 20
66.534927746
 30
0.0
 40
0.4
 50
85.0
 51
175.0
  0
LINE
  8
0
  6
CONTINUOUS
 62
     1
 10
52.124852287
 20
67.616890362
 30
0.0
 11
52.699738045
 21
67.566594375
 31
0.0
  0
ARC
  8
0
  6
CONTINUOUS
 62
     1
 10
52.734600342
 20
67.965072254
 30
0.0
 40
0.4
 50
265.0
 51
355.0
  0
LINE
  8
0
  6
CONTINUOUS
 62
     1
 10
54.243839827
 20
67.431502974
 30
0.0
 11
54.818725585
 21
67.381206987
 31
0.0
  0
ARC
  8
0
  6
CONTINUOUS
 62
     1
 10
54.278702124
 20
67.829980853
 30
0.0
 40
0.4
 50
175.0
 51
265.0
  0
LINE
  8
0
  6
CONTINUOUS
 62
     1
 10
53.191723199
 20
68.600525118
 30
0.0
 11
53.133078221
 21
67.930209957
 31
0.0
  0
LINE
  8
0
  6
CONTINUOUS
 62
     1
 10
53.880224245
 20
67.86484315
 30
0.0
 11
53.938869222
 21
68.535158311
 31
0.0
  0
ARC
  8
0
  6
CONTINUOUS
 62
     1
 10
45.5
 20
63.25
 30
0.0
 40
0.5
 50
180.0
 51
270.0
  0
LINE
  8
0
  6
CONTINUOUS
 62
     1
 10
45.5
 20
62.75
 30
0.0
 11
46.75
 21
62.75
 31
0.0
  0
ARC
  8
0
  6
CONTINUOUS
 62
     1
 10
46.75
 20
63.25
 30
0.0
 40
0.5
 50
270.0
 51
0.0
  0
LINE
  8
0
  6
CONTINUOUS
 62
     1
 10
47.25
 20
63.25
 30
0.0
 11
47.25
 21
64.5
 31
0.0
  0
ARC
  8
0
  6
CONTINUOUS
 62
     1
 10
46.75
 20
64.5
 30
0.0
 40
0.5
 50
0.0
 51
90.0
  0
LINE
  8
0
  6
CONTINUOUS
 62
     1
 10
46.75
 20
65.0
 30
0.0
 11
45.5
 21
65.0
 31
0.0
  0
ARC
  8
0
  6
CONTINUOUS
 62
     1
 10
45.5
 20
64.5
 30
0.0
 40
0.5
 50
90.0
 51
180.0
  0
LINE
  8
0
  6
CONTINUOUS
 62
     1
 10
45.0
 20
64.5
 30
0.0
 11
45.0
 21
63.25
 31
0.0
  0
LINE
  8
0
  6
CONTINUOUS
 62
     1
 10
45.736615639
 20
60.969530887
 30
0.0
 11
46.661615639
 21
60.969530887
 31
0.0
  0
LINE
  8
0
  6
CONTINUOUS
 62
     1
 10
46.661615639
 20
60.969530887
 30
0.0
 11
46.661615639
 21
62.809530887
 31
0.0
  0
LINE
  8
0
  6
CONTINUOUS
 62
     1
 10
46.661615639
 20
62.809530887
 30
0.0
 11
45.736615639
 21
62.809530887
 31
0.0
  0
LINE
  8
0
  6
CONTINUOUS
 62
     1
 10
45.736615639
 20
62.809530887
 30
0.0
 11
45.736615639
 21
60.969530887
 31
0.0
  0
LINE
  8
0
  6
CONTINUOUS
 62
     1
 10
45.0
 20
73.0
 30
0.0
 11
45.0
 21
54.0
 31
0.0
  0
LINE
  8
0
  6
CONTINUOUS
 62
     1
 10
68.7
 20
73.0
 30
0.0
 11
70.0
 21
73.0
 31
0.0
  0
LINE
  8
0
  6
CONTINUOUS
 62
     1
 10
68.7
 20
73.0
 30
0.0
 11
68.7
 21
65.0
 31
0.0
  0
LINE
  8
0
  6
CONTINUOUS
 62
     1
 10
68.7
 20
65.0
 30
0.0
 11
64.8
 21
65.0
 31
0.0
  0
LINE
  8
0
  6
CONTINUOUS
 62
     1
 10
64.8
 20
65.0
 30
0.0
 11
64.8
 21
73.0
 31
0.0
  0
LINE
  8
0
  6
CONTINUOUS
 62
     1
 10
64.8
 20
73.0
 30
0.0
 11
63.5
 21
73.0
 31
0.0
  0
LINE
  8
0
  6
CONTINUOUS
 62
     1
 10
63.5
 20
73.0
 30
0.0
 11
63.5
 21
65.0
 31
0.0
  0
LINE
  8
0
  6
CONTINUOUS
 62
     1
 10
63.5
 20
65.0
 30
0.0
 11
59.6
 21
65.0
 31
0.0
  0
LINE
  8
0
  6
CONTINUOUS
 62
     1
 10
59.6
 20
65.0
 30
0.0
 11
59.6
 21
74.0
 31
0.0
  0
LINE
  8
0
  6
CONTINUOUS
 62
     1
 10
59.6
 20
74.0
 30
0.0
 11
58.375
 21
74.0
 31
0.0
  0
LINE
  8
0
  6
CONTINUOUS
 62
     1
 10
58.375
 20
74.0
 30
0.0
 11
58.375
 21
62.2
 31
0.0
  0
LINE
  8
0
  6
CONTINUOUS
 62
     1
 10
58.375
 20
62.2
 30
0.0
 11
57.5
 21
62.2
 31
0.0
  0
LINE
  8
0
  6
CONTINUOUS
 62
     1
 10
68.7
 20
73.0
 30
0.0
 11
64.8
 21
73.0
 31
0.0
  0
LINE
  8
0
  6
CONTINUOUS
 62
     1
 10
63.5
 20
73.0
 30
0.0
 11
59.6
 21
73.0
 31
0.0
  0
LINE
  8
0
  6
CONTINUOUS
 62
     1
 10
68.7
 20
70.7
 30
0.0
 11
64.8
 21
70.7
 31
0.0
  0
LINE
  8
0
  6
CONTINUOUS
 62
     1
 10
63.5
 20
70.7
 30
0.0
 11
59.6
 21
70.7
 31
0.0
  0
LINE
  8
0
  6
CONTINUOUS
 62
     1
 10
59.6
 20
70.7
 30
0.0
 11
59.6
 21
70.2
 31
0.0
  0
LINE
  8
0
  6
CONTINUOUS
 62
     1
 10
59.6
 20
70.2
 30
0.0
 11
63.5
 21
70.2
 31
0.0
  0
LINE
  8
0
  6
CONTINUOUS
 62
     1
 10
64.8
 20
70.2
 30
0.0
 11
68.7
 21
70.2
 31
0.0
  0
LINE
  8
0
  6
CONTINUOUS
 62
     1
 10
68.7
 20
69.7
 30
0.0
 11
64.8
 21
69.7
 31
0.0
  0
LINE
  8
0
  6
CONTINUOUS
 62
     1
 10
63.5
 20
69.7
 30
0.0
 11
59.6
 21
69.7
 31
0.0
  0
LINE
  8
0
  6
CONTINUOUS
 62
     1
 10
59.6
 20
69.45
 30
0.0
 11
63.5
 21
69.45
 31
0.0
  0
LINE
  8
0
  6
CONTINUOUS
 62
     1
 10
64.8
 20
69.45
 30
0.0
 11
68.7
 21
69.45
 31
0.0
  0
CIRCLE
  8
0
  6
CONTINUOUS
 62
     1
 10
66.75
 20
67.25
 30
0.0
 40
1.375
  0
LINE
  8
0
  6
CONTINUOUS
 62
     1
 10
68.537528227
 20
65.750085724
 30
0.0
 11
65.250085724
 21
65.462471773
 31
0.0
  0
LINE
  8
0
  6
CONTINUOUS
 62
     1
 10
65.250085724
 20
65.462471773
 30
0.0
 11
64.962471773
 21
68.749914276
 31
0.0
  0
LINE
  8
0
  6
CONTINUOUS
 62
     1
 10
64.962471773
 20
68.749914276
 30
0.0
 11
68.249914276
 21
69.037528227
 31
0.0
  0
LINE
  8
0
  6
CONTINUOUS
 62
     1
 10
68.249914276
 20
69.037528227
 30
0.0
 11
68.537528227
 21
65.750085724
 31
0.0
  0
LINE
  8
0
  6
CONTINUOUS
 62
     1
 10
66.8
 20
68.9
 30
0.0
 11
66.85
 21
68.6
 31
0.0
  0
LINE
  8
0
  6
CONTINUOUS
 62
     1
 10
66.4
 20
68.85
 30
0.0
 11
66.4
 21
68.55
 31
0.0
  0
LINE
  8
0
  6
CONTINUOUS
 62
     1
 10
67.15
 20
65.925
 30
0.0
 11
67.15
 21
65.625
 31
0.0
  0
LINE
  8
0
  6
CONTINUOUS
 62
     1
 10
66.7
 20
65.875
 30
0.0
 11
66.8
 21
65.575
 31
0.0
  0
LINE
  8
0
  6
CONTINUOUS
 62
     1
 10
68.118725585
 20
67.118793013
 30
0.0
 11
67.543839827
 21
67.068497026
 31
0.0
  0
LINE
  8
0
  6
CONTINUOUS
 62
     1
 10
67.238869222
 20
65.964841689
 30
0.0
 11
67.180224245
 21
66.63515685
 31
0.0
  0
ARC
  8
0
  6
CONTINUOUS
 62
     1
 10
67.578702124
 20
66.670019147
 30
0.0
 40
0.4
 50
95.0
 51
185.0
  0
LINE
  8
0
  6
CONTINUOUS
 62
     1
 10
66.433078221
 20
66.569790043
 30
0.0
 11
66.491723199
 21
65.899474882
 31
0.0
  0
LINE
  8
0
  6
CONTINUOUS
 62
     1
 10
65.999738045
 20
66.933405625
 30
0.0
 11
65.424852287
 21
66.883109638
 31
0.0
  0
ARC
  8
0
  6
CONTINUOUS
 62
     1
 10
66.034600342
 20
66.534927746
 30
0.0
 40
0.4
 50
5.0
 51
95.0
  0
LINE
  8
0
  6
CONTINUOUS
 62
     1
 10
68.075147713
 20
67.616890362
 30
0.0
 11
67.500261955
 21
67.566594375
 31
0.0
  0
ARC
  8
0
  6
CONTINUOUS
 62
     1
 10
67.465399658
 20
67.965072254
 30
0.0
 40
0.4
 50
185.0
 51
275.0
  0
LINE
  8
0
  6
CONTINUOUS
 62
     1
 10
65.956160173
 20
67.431502974
 30
0.0
 11
65.381274415
 21
67.381206987
 31
0.0
  0
ARC
  8
0
  6
CONTINUOUS
 62
     1
 10
65.921297876
 20
67.829980853
 30
0.0
 40
0.4
 50
275.0
 51
5.0
  0
LINE
  8
0
  6
CONTINUOUS
 62
     1
 10
67.008276801
 20
68.600525118
 30
0.0
 11
67.066921779
 21
67.930209957
 31
0.0
  0
LINE
  8
0
  6
CONTINUOUS
 62
     1
 10
66.319775755
 20
67.86484315
 30
0.0
 11
66.261130778
 21
68.535158311
 31
0.0
  0
CIRCLE
  8
0
  6
CONTINUOUS
 62
     1
 10
61.55
 20
67.25
 30
0.0
 40
1.375
  0
LINE
  8
0
  6
CONTINUOUS
 62
     1
 10
63.337528227
 20
65.750085724
 30
0.0
 11
60.050085724
 21
65.462471773
 31
0.0
  0
LINE
  8
0
  6
CONTINUOUS
 62
     1
 10
60.050085724
 20
65.462471773
 30
0.0
 11
59.762471773
 21
68.749914276
 31
0.0
  0
LINE
  8
0
  6
CONTINUOUS
 62
     1
 10
59.762471773
 20
68.749914276
 30
0.0
 11
63.049914276
 21
69.037528227
 31
0.0
  0
LINE
  8
0
  6
CONTINUOUS
 62
     1
 10
63.049914276
 20
69.037528227
 30
0.0
 11
63.337528227
 21
65.750085724
 31
0.0
  0
LINE
  8
0
  6
CONTINUOUS
 62
     1
 10
61.6
 20
68.9
 30
0.0
 11
61.65
 21
68.6
 31
0.0
  0
LINE
  8
0
  6
CONTINUOUS
 62
     1
 10
61.2
 20
68.85
 30
0.0
 11
61.2
 21
68.55
 31
0.0
  0
LINE
  8
0
  6
CONTINUOUS
 62
     1
 10
61.95
 20
65.925
 30
0.0
 11
61.95
 21
65.625
 31
0.0
  0
LINE
  8
0
  6
CONTINUOUS
 62
     1
 10
61.5
 20
65.875
 30
0.0
 11
61.6
 21
65.575
 31
0.0
  0
LINE
  8
0
  6
CONTINUOUS
 62
     1
 10
62.918725585
 20
67.118793013
 30
0.0
 11
62.343839827
 21
67.068497026
 31
0.0
  0
LINE
  8
0
  6
CONTINUOUS
 62
     1
 10
62.038869222
 20
65.964841689
 30
0.0
 11
61.980224245
 21
66.63515685
 31
0.0
  0
ARC
  8
0
  6
CONTINUOUS
 62
     1
 10
62.378702124
 20
66.670019147
 30
0.0
 40
0.4
 50
95.0
 51
185.0
  0
LINE
  8
0
  6
CONTINUOUS
 62
     1
 10
61.233078221
 20
66.569790043
 30
0.0
 11
61.291723199
 21
65.899474882
 31
0.0
  0
LINE
  8
0
  6
CONTINUOUS
 62
     1
 10
60.799738045
 20
66.933405625
 30
0.0
 11
60.224852287
 21
66.883109638
 31
0.0
  0
ARC
  8
0
  6
CONTINUOUS
 62
     1
 10
60.834600342
 20
66.534927746
 30
0.0
 40
0.4
 50
5.0
 51
95.0
  0
LINE
  8
0
  6
CONTINUOUS
 62
     1
 10
62.875147713
 20
67.616890362
 30
0.0
 11
62.300261955
 21
67.566594375
 31
0.0
  0
ARC
  8
0
  6
CONTINUOUS
 62
     1
 10
62.265399658
 20
67.965072254
 30
0.0
 40
0.4
 50
185.0
 51
275.0
  0
LINE
  8
0
  6
CONTINUOUS
 62
     1
 10
60.756160173
 20
67.431502974
 30
0.0
 11
60.181274415
 21
67.381206987
 31
0.0
  0
ARC
  8
0
  6
CONTINUOUS
 62
     1
 10
60.721297876
 20
67.829980853
 30
0.0
 40
0.4
 50
275.0
 51
5.0
  0
LINE
  8
0
  6
CONTINUOUS
 62
     1
 10
61.808276801
 20
68.600525118
 30
0.0
 11
61.866921779
 21
67.930209957
 31
0.0
  0
LINE
  8
0
  6
CONTINUOUS
 62
     1
 10
61.119775755
 20
67.86484315
 30
0.0
 11
61.061130778
 21
68.535158311
 31
0.0
  0
ARC
  8
0
  6
CONTINUOUS
 62
     1
 10
69.5
 20
63.25
 30
0.0
 40
0.5
 50
270.0
 51
0.0
  0
LINE
  8
0
  6
CONTINUOUS
 62
     1
 10
69.5
 20
62.75
 30
0.0
 11
68.25
 21
62.75
 31
0.0
  0
ARC
  8
0
  6
CONTINUOUS
 62
     1
 10
68.25
 20
63.25
 30
0.0
 40
0.5
 50
180.0
 51
270.0
  0
LINE
  8
0
  6
CONTINUOUS
 62
     1
 10
67.75
 20
63.25
 30
0.0
 11
67.75
 21
64.5
 31
0.0
  0
ARC
  8
0
  6
CONTINUOUS
 62
     1
 10
68.25
 20
64.5
 30
0.0
 40
0.5
 50
90.0
 51
180.0
  0
LINE
  8
0
  6
CONTINUOUS
 62
     1
 10
68.25
 20
65.0
 30
0.0
 11
69.5
 21
65.0
 31
0.0
  0
ARC
  8
0
  6
CONTINUOUS
 62
     1
 10
69.5
 20
64.5
 30
0.0
 40
0.5
 50
0.0
 51
90.0
  0
LINE
  8
0
  6
CONTINUOUS
 62
     1
 10
70.0
 20
64.5
 30
0.0
 11
70.0
 21
63.25
 31
0.0
  0
LINE
  8
0
  6
CONTINUOUS
 62
     1
 10
69.263384361
 20
60.969530887
 30
0.0
 11
68.338384361
 21
60.969530887
 31
0.0
  0
LINE
  8
0
  6
CONTINUOUS
 62
     1
 10
68.338384361
 20
60.969530887
 30
0.0
 11
68.338384361
 21
62.809530887
 31
0.0
  0
LINE
  8
0
  6
CONTINUOUS
 62
     1
 10
68.338384361
 20
62.809530887
 30
0.0
 11
69.263384361
 21
62.809530887
 31
0.0
  0
LINE
  8
0
  6
CONTINUOUS
 62
     1
 10
69.263384361
 20
62.809530887
 30
0.0
 11
69.263384361
 21
60.969530887
 31
0.0
  0
LINE
  8
0
  6
CONTINUOUS
 62
     1
 10
70.0
 20
73.0
 30
0.0
 11
70.0
 21
54.0
 31
0.0
  0
LINE
  8
0
  6
CONTINUOUS
 62
     1
 10
56.625
 20
74.0
 30
0.0
 11
58.375
 21
74.0
 31
0.0
  0
LINE
  8
0
  6
CONTINUOUS
 62
     1
 10
56.625
 20
68.75
 30
0.0
 11
58.375
 21
68.8
 31
0.0
  0
LINE
  8
0
  6
CONTINUOUS
 62
     1
 10
56.625
 20
67.7
 30
0.0
 11
58.375
 21
67.7
 31
0.0
  0
LINE
  8
0
  6
CONTINUOUS
 62
     1
 10
56.625
 20
72.9
 30
0.0
 11
58.375
 21
72.9
 31
0.0
  0
LINE
  8
0
  6
CONTINUOUS
 62
     1
 10
46.3
 20
35.0
 30
0.0
 11
45.0
 21
35.0
 31
0.0
  0
LINE
  8
0
  6
CONTINUOUS
 62
     1
 10
46.3
 20
35.0
 30
0.0
 11
46.3
 21
43.0
 31
0.0
  0
LINE
  8
0
  6
CONTINUOUS
 62
     1
 10
46.3
 20
43.0
 30
0.0
 11
50.2
 21
43.0
 31
0.0
  0
LINE
  8
0
  6
CONTINUOUS
 62
     1
 10
50.2
 20
43.0
 30
0.0
 11
50.2
 21
35.0
 31
0.0
  0
LINE
  8
0
  6
CONTINUOUS
 62
     1
 10
50.2
 20
35.0
 30
0.0
 11
51.5
 21
35.0
 31
0.0
  0
LINE
  8
0
  6
CONTINUOUS
 62
     1
 10
51.5
 20
35.0
 30
0.0
 11
51.5
 21
43.0
 31
0.0
  0
LINE
  8
0
  6
CONTINUOUS
 62
     1
 10
51.5
 20
43.0
 30
0.0
 11
55.4
 21
43.0
 31
0.0
  0
LINE
  8
0
  6
CONTINUOUS
 62
     1
 10
55.4
 20
43.0
 30
0.0
 11
55.4
 21
34.0
 31
0.0
  0
LINE
  8
0
  6
CONTINUOUS
 62
     1
 10
55.4
 20
34.0
 30
0.0
 11
56.625
 21
34.0
 31
0.0
  0
LINE
  8
0
  6
CONTINUOUS
 62
     1
 10
56.625
 20
34.0
 30
0.0
 11
56.625
 21
45.8
 31
0.0
  0
LINE
  8
0
  6
CONTINUOUS
 62
     1
 10
56.625
 20
45.8
 30
0.0
 11
57.5
 21
45.8
 31
0.0
  0
LINE
  8
0
  6
CONTINUOUS
 62
     1
 10
46.3
 20
35.0
 30
0.0
 11
50.2
 21
35.0
 31
0.0
  0
LINE
  8
0
  6
CONTINUOUS
 62
     1
 10
51.5
 20
35.0
 30
0.0
 11
55.4
 21
35.0
 31
0.0
  0
LINE
  8
0
  6
CONTINUOUS
 62
     1
 10
46.3
 20
37.3
 30
0.0
 11
50.2
 21
37.3
 31
0.0
  0
LINE
  8
0
  6
CONTINUOUS
 62
     1
 10
51.5
 20
37.3
 30
0.0
 11
55.4
 21
37.3
 31
0.0
  0
LINE
  8
0
  6
CONTINUOUS
 62
     1
 10
55.4
 20
37.3
 30
0.0
 11
55.4
 21
37.8
 31
0.0
  0
LINE
  8
0
  6
CONTINUOUS
 62
     1
 10
55.4
 20
37.8
 30
0.0
 11
51.5
 21
37.8
 31
0.0
  0
LINE
  8
0
  6
CONTINUOUS
 62
     1
 10
50.2
 20
37.8
 30
0.0
 11
46.3
 21
37.8
 31
0.0
  0
LINE
  8
0
  6
CONTINUOUS
 62
     1
 10
46.3
 20
38.3
 30
0.0
 11
50.2
 21
38.3
 31
0.0
  0
LINE
  8
0
  6
CONTINUOUS
 62
     1
 10
51.5
 20
38.3
 30
0.0
 11
55.4
 21
38.3
 31
0.0
  0
LINE
  8
0
  6
CONTINUOUS
 62
     1
 10
55.4
 20
38.55
 30
0.0
 11
51.5
 21
38.55
 31
0.0
  0
LINE
  8
0
  6
CONTINUOUS
 62
     1
 10
50.2
 20
38.55
 30
0.0
 11
46.3
 21
38.55
 31
0.0
  0
CIRCLE
  8
0
  6
CONTINUOUS
 62
     1
 10
48.25
 20
40.75
 30
0.0
 40
1.375
  0
LINE
  8
0
  6
CONTINUOUS
 62
     1
 10
46.462471773
 20
42.249914276
 30
0.0
 11
49.749914276
 21
42.537528227
 31
0.0
  0
LINE
  8
0
  6
CONTINUOUS
 62
     1
 10
49.749914276
 20
42.537528227
 30
0.0
 11
50.037528227
 21
39.250085724
 31
0.0
  0
LINE
  8
0
  6
CONTINUOUS
 62
     1
 10
50.037528227
 20
39.250085724
 30
0.0
 11
46.750085724
 21
38.962471773
 31
0.0
  0
LINE
  8
0
  6
CONTINUOUS
 62
     1
 10
46.750085724
 20
38.962471773
 30
0.0
 11
46.462471773
 21
42.249914276
 31
0.0
  0
LINE
  8
0
  6
CONTINUOUS
 62
     1
 10
48.2
 20
39.1
 30
0.0
 11
48.15
 21
39.4
 31
0.0
  0
LINE
  8
0
  6
CONTINUOUS
 62
     1
 10
48.6
 20
39.15
 30
0.0
 11
48.6
 21
39.45
 31
0.0
  0
LINE
  8
0
  6
CONTINUOUS
 62
     1
 10
47.85
 20
42.075
 30
0.0
 11
47.85
 21
42.375
 31
0.0
  0
LINE
  8
0
  6
CONTINUOUS
 62
     1
 10
48.3
 20
42.125
 30
0.0
 11
48.2
 21
42.425
 31
0.0
  0
LINE
  8
0
  6
CONTINUOUS
 62
     1
 10
46.881274415
 20
40.881206987
 30
0.0
 11
47.456160173
 21
40.931502974
 31
0.0
  0
LINE
  8
0
  6
CONTINUOUS
 62
     1
 10
47.761130778
 20
42.035158311
 30
0.0
 11
47.819775755
 21
41.36484315
 31
0.0
  0
ARC
  8
0
  6
CONTINUOUS
 62
     1
 10
47.421297876
 20
41.329980853
 30
0.0
 40
0.4
 50
275.0
 51
5.0
  0
LINE
  8
0
  6
CONTINUOUS
 62
     1
 10
48.566921779
 20
41.430209957
 30
0.0
 11
48.508276801
 21
42.100525118
 31
0.0
  0
LINE
  8
0
  6
CONTINUOUS
 62
     1
 10
49.000261955
 20
41.066594375
 30
0.0
 11
49.575147713
 21
41.116890362
 31
0.0
  0
ARC
  8
0
  6
CONTINUOUS
 62
     1
 10
48.965399658
 20
41.465072254
 30
0.0
 40
0.4
 50
185.0
 51
275.0
  0
LINE
  8
0
  6
CONTINUOUS
 62
     1
 10
46.924852287
 20
40.383109638
 30
0.0
 11
47.499738045
 21
40.433405625
 31
0.0
  0
ARC
  8
0
  6
CONTINUOUS
 62
     1
 10
47.534600342
 20
40.034927746
 30
0.0
 40
0.4
 50
5.0
 51
95.0
  0
LINE
  8
0
  6
CONTINUOUS
 62
     1
 10
49.043839827
 20
40.568497026
 30
0.0
 11
49.618725585
 21
40.618793013
 31
0.0
  0
ARC
  8
0
  6
CONTINUOUS
 62
     1
 10
49.078702124
 20
40.170019147
 30
0.0
 40
0.4
 50
95.0
 51
185.0
  0
LINE
  8
0
  6
CONTINUOUS
 62
     1
 10
47.991723199
 20
39.399474882
 30
0.0
 11
47.933078221
 21
40.069790043
 31
0.0
  0
LINE
  8
0
  6
CONTINUOUS
 62
     1
 10
48.680224245
 20
40.13515685
 30
0.0
 11
48.738869222
 21
39.464841689
 31
0.0
  0
CIRCLE
  8
0
  6
CONTINUOUS
 62
     1
 10
53.45
 20
40.75
 30
0.0
 40
1.375
  0
LINE
  8
0
  6
CONTINUOUS
 62
     1
 10
51.662471773
 20
42.249914276
 30
0.0
 11
54.949914276
 21
42.537528227
 31
0.0
  0
LINE
  8
0
  6
CONTINUOUS
 62
     1
 10
54.949914276
 20
42.537528227
 30
0.0
 11
55.237528227
 21
39.250085724
 31
0.0
  0
LINE
  8
0
  6
CONTINUOUS
 62
     1
 10
55.237528227
 20
39.250085724
 30
0.0
 11
51.950085724
 21
38.962471773
 31
0.0
  0
LINE
  8
0
  6
CONTINUOUS
 62
     1
 10
51.950085724
 20
38.962471773
 30
0.0
 11
51.662471773
 21
42.249914276
 31
0.0
  0
LINE
  8
0
  6
CONTINUOUS
 62
     1
 10
53.4
 20
39.1
 30
0.0
 11
53.35
 21
39.4
 31
0.0
  0
LINE
  8
0
  6
CONTINUOUS
 62
     1
 10
53.8
 20
39.15
 30
0.0
 11
53.8
 21
39.45
 31
0.0
  0
LINE
  8
0
  6
CONTINUOUS
 62
     1
 10
53.05
 20
42.075
 30
0.0
 11
53.05
 21
42.375
 31
0.0
  0
LINE
  8
0
  6
CONTINUOUS
 62
     1
 10
53.5
 20
42.125
 30
0.0
 11
53.4
 21
42.425
 31
0.0
  0
LINE
  8
0
  6
CONTINUOUS
 62
     1
 10
52.081274415
 20
40.881206987
 30
0.0
 11
52.656160173
 21
40.931502974
 31
0.0
  0
LINE
  8
0
  6
CONTINUOUS
 62
     1
 10
52.961130778
 20
42.035158311
 30
0.0
 11
53.019775755
 21
41.36484315
 31
0.0
  0
ARC
  8
0
  6
CONTINUOUS
 62
     1
 10
52.621297876
 20
41.329980853
 30
0.0
 40
0.4
 50
275.0
 51
5.0
  0
LINE
  8
0
  6
CONTINUOUS
 62
     1
 10
53.766921779
 20
41.430209957
 30
0.0
 11
53.708276801
 21
42.100525118
 31
0.0
  0
LINE
  8
0
  6
CONTINUOUS
 62
     1
 10
54.200261955
 20
41.066594375
 30
0.0
 11
54.775147713
 21
41.116890362
 31
0.0
  0
ARC
  8
0
  6
CONTINUOUS
 62
     1
 10
54.165399658
 20
41.465072254
 30
0.0
 40
0.4
 50
185.0
 51
275.0
  0
LINE
  8
0
  6
CONTINUOUS
 62
     1
 10
52.124852287
 20
40.383109638
 30
0.0
 11
52.699738045
 21
40.433405625
 31
0.0
  0
ARC
  8
0
  6
CONTINUOUS
 62
     1
 10
52.734600342
 20
40.034927746
 30
0.0
 40
0.4
 50
5.0
 51
95.0
  0
LINE
  8
0
  6
CONTINUOUS
 62
     1
 10
54.243839827
 20
40.568497026
 30
0.0
 11
54.818725585
 21
40.618793013
 31
0.0
  0
ARC
  8
0
  6
CONTINUOUS
 62
     1
 10
54.278702124
 20
40.170019147
 30
0.0
 40
0.4
 50
95.0
 51
185.0
  0
LINE
  8
0
  6
CONTINUOUS
 62
     1
 10
53.191723199
 20
39.399474882
 30
0.0
 11
53.133078221
 21
40.069790043
 31
0.0
  0
LINE
  8
0
  6
CONTINUOUS
 62
     1
 10
53.880224245
 20
40.13515685
 30
0.0
 11
53.938869222
 21
39.464841689
 31
0.0
  0
ARC
  8
0
  6
CONTINUOUS
 62
     1
 10
45.5
 20
44.75
 30
0.0
 40
0.5
 50
90.0
 51
180.0
  0
LINE
  8
0
  6
CONTINUOUS
 62
     1
 10
45.5
 20
45.25
 30
0.0
 11
46.75
 21
45.25
 31
0.0
  0
ARC
  8
0
  6
CONTINUOUS
 62
     1
 10
46.75
 20
44.75
 30
0.0
 40
0.5
 50
0.0
 51
90.0
  0
LINE
  8
0
  6
CONTINUOUS
 62
     1
 10
47.25
 20
44.75
 30
0.0
 11
47.25
 21
43.5
 31
0.0
  0
ARC
  8
0
  6
CONTINUOUS
 62
     1
 10
46.75
 20
43.5
 30
0.0
 40
0.5
 50
270.0
 51
0.0
  0
LINE
  8
0
  6
CONTINUOUS
 62
     1
 10
46.75
 20
43.0
 30
0.0
 11
45.5
 21
43.0
 31
0.0
  0
ARC
  8
0
  6
CONTINUOUS
 62
     1
 10
45.5
 20
43.5
 30
0.0
 40
0.5
 50
180.0
 51
270.0
  0
LINE
  8
0
  6
CONTINUOUS
 62
     1
 10
45.0
 20
43.5
 30
0.0
 11
45.0
 21
44.75
 31
0.0
  0
LINE
  8
0
  6
CONTINUOUS
 62
     1
 10
45.736615639
 20
47.030469113
 30
0.0
 11
46.661615639
 21
47.030469113
 31
0.0
  0
LINE
  8
0
  6
CONTINUOUS
 62
     1
 10
46.661615639
 20
47.030469113
 30
0.0
 11
46.661615639
 21
45.190469113
 31
0.0
  0
LINE
  8
0
  6
CONTINUOUS
 62
     1
 10
46.661615639
 20
45.190469113
 30
0.0
 11
45.736615639
 21
45.190469113
 31
0.0
  0
LINE
  8
0
  6
CONTINUOUS
 62
     1
 10
45.736615639
 20
45.190469113
 30
0.0
 11
45.736615639
 21
47.030469113
 31
0.0
  0
LINE
  8
0
  6
CONTINUOUS
 62
     1
 10
45.0
 20
35.0
 30
0.0
 11
45.0
 21
54.0
 31
0.0
  0
LINE
  8
0
  6
CONTINUOUS
 62
     1
 10
68.7
 20
35.0
 30
0.0
 11
70.0
 21
35.0
 31
0.0
  0
LINE
  8
0
  6
CONTINUOUS
 62
     1
 10
68.7
 20
35.0
 30
0.0
 11
68.7
 21
43.0
 31
0.0
  0
LINE
  8
0
  6
CONTINUOUS
 62
     1
 10
68.7
 20
43.0
 30
0.0
 11
64.8
 21
43.0
 31
0.0
  0
LINE
  8
0
  6
CONTINUOUS
 62
     1
 10
64.8
 20
43.0
 30
0.0
 11
64.8
 21
35.0
 31
0.0
  0
LINE
  8
0
  6
CONTINUOUS
 62
     1
 10
64.8
 20
35.0
 30
0.0
 11
63.5
 21
35.0
 31
0.0
  0
LINE
  8
0
  6
CONTINUOUS
 62
     1
 10
63.5
 20
35.0
 30
0.0
 11
63.5
 21
43.0
 31
0.0
  0
LINE
  8
0
  6
CONTINUOUS
 62
     1
 10
63.5
 20
43.0
 30
0.0
 11
59.6
 21
43.0
 31
0.0
  0
LINE
  8
0
  6
CONTINUOUS
 62
     1
 10
59.6
 20
43.0
 30
0.0
 11
59.6
 21
34.0
 31
0.0
  0
LINE
  8
0
  6
CONTINUOUS
 62
     1
 10
59.6
 20
34.0
 30
0.0
 11
58.375
 21
34.0
 31
0.0
  0
LINE
  8
0
  6
CONTINUOUS
 62
     1
 10
58.375
 20
34.0
 30
0.0
 11
58.375
 21
45.8
 31
0.0
  0
LINE
  8
0
  6
CONTINUOUS
 62
     1
 10
58.375
 20
45.8
 30
0.0
 11
57.5
 21
45.8
 31
0.0
  0
LINE
  8
0
  6
CONTINUOUS
 62
     1
 10
68.7
 20
35.0
 30
0.0
 11
64.8
 21
35.0
 31
0.0
  0
LINE
  8
0
  6
CONTINUOUS
 62
     1
 10
63.5
 20
35.0
 30
0.0
 11
59.6
 21
35.0
 31
0.0
  0
LINE
  8
0
  6
CONTINUOUS
 62
     1
 10
68.7
 20
37.3
 30
0.0
 11
64.8
 21
37.3
 31
0.0
  0
LINE
  8
0
  6
CONTINUOUS
 62
     1
 10
63.5
 20
37.3
 30
0.0
 11
59.6
 21
37.3
 31
0.0
  0
LINE
  8
0
  6
CONTINUOUS
 62
     1
 10
59.6
 20
37.3
 30
0.0
 11
59.6
 21
37.8
 31
0.0
  0
LINE
  8
0
  6
CONTINUOUS
 62
     1
 10
59.6
 20
37.8
 30
0.0
 11
63.5
 21
37.8
 31
0.0
  0
LINE
  8
0
  6
CONTINUOUS
 62
     1
 10
64.8
 20
37.8
 30
0.0
 11
68.7
 21
37.8
 31
0.0
  0
LINE
  8
0
  6
CONTINUOUS
 62
     1
 10
68.7
 20
38.3
 30
0.0
 11
64.8
 21
38.3
 31
0.0
  0
LINE
  8
0
  6
CONTINUOUS
 62
     1
 10
63.5
 20
38.3
 30
0.0
 11
59.6
 21
38.3
 31
0.0
  0
LINE
  8
0
  6
CONTINUOUS
 62
     1
 10
59.6
 20
38.55
 30
0.0
 11
63.5
 21
38.55
 31
0.0
  0
LINE
  8
0
  6
CONTINUOUS
 62
     1
 10
64.8
 20
38.55
 30
0.0
 11
68.7
 21
38.55
 31
0.0
  0
CIRCLE
  8
0
  6
CONTINUOUS
 62
     1
 10
66.75
 20
40.75
 30
0.0
 40
1.375
  0
LINE
  8
0
  6
CONTINUOUS
 62
     1
 10
68.537528227
 20
42.249914276
 30
0.0
 11
65.250085724
 21
42.537528227
 31
0.0
  0
LINE
  8
0
  6
CONTINUOUS
 62
     1
 10
65.250085724
 20
42.537528227
 30
0.0
 11
64.962471773
 21
39.250085724
 31
0.0
  0
LINE
  8
0
  6
CONTINUOUS
 62
     1
 10
64.962471773
 20
39.250085724
 30
0.0
 11
68.249914276
 21
38.962471773
 31
0.0
  0
LINE
  8
0
  6
CONTINUOUS
 62
     1
 10
68.249914276
 20
38.962471773
 30
0.0
 11
68.537528227
 21
42.249914276
 31
0.0
  0
LINE
  8
0
  6
CONTINUOUS
 62
     1
 10
66.8
 20
39.1
 30
0.0
 11
66.85
 21
39.4
 31
0.0
  0
LINE
  8
0
  6
CONTINUOUS
 62
     1
 10
66.4
 20
39.15
 30
0.0
 11
66.4
 21
39.45
 31
0.0
  0
LINE
  8
0
  6
CONTINUOUS
 62
     1
 10
67.15
 20
42.075
 30
0.0
 11
67.15
 21
42.375
 31
0.0
  0
LINE
  8
0
  6
CONTINUOUS
 62
     1
 10
66.7
 20
42.125
 30
0.0
 11
66.8
 21
42.425
 31
0.0
  0
LINE
  8
0
  6
CONTINUOUS
 62
     1
 10
68.118725585
 20
40.881206987
 30
0.0
 11
67.543839827
 21
40.931502974
 31
0.0
  0
LINE
  8
0
  6
CONTINUOUS
 62
     1
 10
67.238869222
 20
42.035158311
 30
0.0
 11
67.180224245
 21
41.36484315
 31
0.0
  0
ARC
  8
0
  6
CONTINUOUS
 62
     1
 10
67.578702124
 20
41.329980853
 30
0.0
 40
0.4
 50
175.0
 51
265.0
  0
LINE
  8
0
  6
CONTINUOUS
 62
     1
 10
66.433078221
 20
41.430209957
 30
0.0
 11
66.491723199
 21
42.100525118
 31
0.0
  0
LINE
  8
0
  6
CONTINUOUS
 62
     1
 10
65.999738045
 20
41.066594375
 30
0.0
 11
65.424852287
 21
41.116890362
 31
0.0
  0
ARC
  8
0
  6
CONTINUOUS
 62
     1
 10
66.034600342
 20
41.465072254
 30
0.0
 40
0.4
 50
265.0
 51
355.0
  0
LINE
  8
0
  6
CONTINUOUS
 62
     1
 10
68.075147713
 20
40.383109638
 30
0.0
 11
67.500261955
 21
40.433405625
 31
0.0
  0
ARC
  8
0
  6
CONTINUOUS
 62
     1
 10
67.465399658
 20
40.034927746
 30
0.0
 40
0.4
 50
85.0
 51
175.0
  0
LINE
  8
0
  6
CONTINUOUS
 62
     1
 10
65.956160173
 20
40.568497026
 30
0.0
 11
65.381274415
 21
40.618793013
 31
0.0
  0
ARC
  8
0
  6
CONTINUOUS
 62
     1
 10
65.921297876
 20
40.170019147
 30
0.0
 40
0.4
 50
355.0
 51
85.0
  0
LINE
  8
0
  6
CONTINUOUS
 62
     1
 10
67.008276801
 20
39.399474882
 30
0.0
 11
67.066921779
 21
40.069790043
 31
0.0
  0
LINE
  8
0
  6
CONTINUOUS
 62
     1
 10
66.319775755
 20
40.13515685
 30
0.0
 11
66.261130778
 21
39.464841689
 31
0.0
  0
CIRCLE
  8
0
  6
CONTINUOUS
 62
     1
 10
61.55
 20
40.75
 30
0.0
 40
1.375
  0
LINE
  8
0
  6
CONTINUOUS
 62
     1
 10
63.337528227
 20
42.249914276
 30
0.0
 11
60.050085724
 21
42.537528227
 31
0.0
  0
LINE
  8
0
  6
CONTINUOUS
 62
     1
 10
60.050085724
 20
42.537528227
 30
0.0
 11
59.762471773
 21
39.250085724
 31
0.0
  0
LINE
  8
0
  6
CONTINUOUS
 62
     1
 10
59.762471773
 20
39.250085724
 30
0.0
 11
63.049914276
 21
38.962471773
 31
0.0
  0
LINE
  8
0
  6
CONTINUOUS
 62
     1
 10
63.049914276
 20
38.962471773
 30
0.0
 11
63.337528227
 21
42.249914276
 31
0.0
  0
LINE
  8
0
  6
CONTINUOUS
 62
     1
 10
61.6
 20
39.1
 30
0.0
 11
61.65
 21
39.4
 31
0.0
  0
LINE
  8
0
  6
CONTINUOUS
 62
     1
 10
61.2
 20
39.15
 30
0.0
 11
61.2
 21
39.45
 31
0.0
  0
LINE
  8
0
  6
CONTINUOUS
 62
     1
 10
61.95
 20
42.075
 30
0.0
 11
61.95
 21
42.375
 31
0.0
  0
LINE
  8
0
  6
CONTINUOUS
 62
     1
 10
61.5
 20
42.125
 30
0.0
 11
61.6
 21
42.425
 31
0.0
  0
LINE
  8
0
  6
CONTINUOUS
 62
     1
 10
62.918725585
 20
40.881206987
 30
0.0
 11
62.343839827
 21
40.931502974
 31
0.0
  0
LINE
  8
0
  6
CONTINUOUS
 62
     1
 10
62.038869222
 20
42.035158311
 30
0.0
 11
61.980224245
 21
41.36484315
 31
0.0
  0
ARC
  8
0
  6
CONTINUOUS
 62
     1
 10
62.378702124
 20
41.329980853
 30
0.0
 40
0.4
 50
175.0
 51
265.0
  0
LINE
  8
0
  6
CONTINUOUS
 62
     1
 10
61.233078221
 20
41.430209957
 30
0.0
 11
61.291723199
 21
42.100525118
 31
0.0
  0
LINE
  8
0
  6
CONTINUOUS
 62
     1
 10
60.799738045
 20
41.066594375
 30
0.0
 11
60.224852287
 21
41.116890362
 31
0.0
  0
ARC
  8
0
  6
CONTINUOUS
 62
     1
 10
60.834600342
 20
41.465072254
 30
0.0
 40
0.4
 50
265.0
 51
355.0
  0
LINE
  8
0
  6
CONTINUOUS
 62
     1
 10
62.875147713
 20
40.383109638
 30
0.0
 11
62.300261955
 21
40.433405625
 31
0.0
  0
ARC
  8
0
  6
CONTINUOUS
 62
     1
 10
62.265399658
 20
40.034927746
 30
0.0
 40
0.4
 50
85.0
 51
175.0
  0
LINE
  8
0
  6
CONTINUOUS
 62
     1
 10
60.756160173
 20
40.568497026
 30
0.0
 11
60.181274415
 21
40.618793013
 31
0.0
  0
ARC
  8
0
  6
CONTINUOUS
 62
     1
 10
60.721297876
 20
40.170019147
 30
0.0
 40
0.4
 50
355.0
 51
85.0
  0
LINE
  8
0
  6
CONTINUOUS
 62
     1
 10
61.808276801
 20
39.399474882
 30
0.0
 11
61.866921779
 21
40.069790043
 31
0.0
  0
LINE
  8
0
  6
CONTINUOUS
 62
     1
 10
61.119775755
 20
40.13515685
 30
0.0
 11
61.061130778
 21
39.464841689
 31
0.0
  0
ARC
  8
0
  6
CONTINUOUS
 62
     1
 10
69.5
 20
44.75
 30
0.0
 40
0.5
 50
0.0
 51
90.0
  0
LINE
  8
0
  6
CONTINUOUS
 62
     1
 10
69.5
 20
45.25
 30
0.0
 11
68.25
 21
45.25
 31
0.0
  0
ARC
  8
0
  6
CONTINUOUS
 62
     1
 10
68.25
 20
44.75
 30
0.0
 40
0.5
 50
90.0
 51
180.0
  0
LINE
  8
0
  6
CONTINUOUS
 62
     1
 10
67.75
 20
44.75
 30
0.0
 11
67.75
 21
43.5
 31
0.0
  0
ARC
  8
0
  6
CONTINUOUS
 62
     1
 10
68.25
 20
43.5
 30
0.0
 40
0.5
 50
180.0
 51
270.0
  0
LINE
  8
0
  6
CONTINUOUS
 62
     1
 10
68.25
 20
43.0
 30
0.0
 11
69.5
 21
43.0
 31
0.0
  0
ARC
  8
0
  6
CONTINUOUS
 62
     1
 10
69.5
 20
43.5
 30
0.0
 40
0.5
 50
270.0
 51
0.0
  0
LINE
  8
0
  6
CONTINUOUS
 62
     1
 10
70.0
 20
43.5
 30
0.0
 11
70.0
 21
44.75
 31
0.0
  0
LINE
  8
0
  6
CONTINUOUS
 62
     1
 10
69.263384361
 20
47.030469113
 30
0.0
 11
68.338384361
 21
47.030469113
 31
0.0
  0
LINE
  8
0
  6
CONTINUOUS
 62
     1
 10
68.338384361
 20
47.030469113
 30
0.0
 11
68.338384361
 21
45.190469113
 31
0.0
  0
LINE
  8
0
  6
CONTINUOUS
 62
     1
 10
68.338384361
 20
45.190469113
 30
0.0
 11
69.263384361
 21
45.190469113
 31
0.0
  0
LINE
  8
0
  6
CONTINUOUS
 62
     1
 10
69.263384361
 20
45.190469113
 30
0.0
 11
69.263384361
 21
47.030469113
 31
0.0
  0
LINE
  8
0
  6
CONTINUOUS
 62
     1
 10
70.0
 20
35.0
 30
0.0
 11
70.0
 21
54.0
 31
0.0
  0
LINE
  8
0
  6
CONTINUOUS
 62
     1
 10
56.625
 20
34.0
 30
0.0
 11
58.375
 21
34.0
 31
0.0
  0
LINE
  8
0
  6
CONTINUOUS
 62
     1
 10
56.625
 20
39.25
 30
0.0
 11
58.375
 21
39.2
 31
0.0
  0
LINE
  8
0
  6
CONTINUOUS
 62
     1
 10
56.625
 20
40.3
 30
0.0
 11
58.375
 21
40.3
 31
0.0
  0
LINE
  8
0
  6
CONTINUOUS
 62
     1
 10
56.625
 20
35.1
 30
0.0
 11
58.375
 21
35.1
 31
0.0
  0
CIRCLE
  8
0
  6
CONTINUOUS
 62
     1
 10
57.5
 20
54.0
 30
0.0
 40
7.2
  0
LINE
  8
0
  6
CONTINUOUS
 62
     1
 10
49.0
 20
51.875
 30
0.0
 11
45.0
 21
51.875
 31
0.0
  0
ARC
  8
0
  6
CONTINUOUS
 62
     1
 10
49.0
 20
52.375
 30
0.0
 40
0.5
 50
270.0
 51
360.0
  0
LINE
  8
0
  6
CONTINUOUS
 62
     1
 10
45.0
 20
56.125
 30
0.0
 11
49.0
 21
56.125
 31
0.0
  0
LINE
  8
0
  6
CONTINUOUS
 62
     1
 10
49.5
 20
55.625
 30
0.0
 11
49.5
 21
52.375
 31
0.0
  0
ARC
  8
0
  6
CONTINUOUS
 62
     1
 10
49.0
 20
55.625
 30
0.0
 40
0.5
 50
0.0
 51
90.0
  0
CIRCLE
  8
0
  6
CONTINUOUS
 62
     1
 10
47.5
 20
54.0
 30
0.0
 40
1.125
  0
CIRCLE
  8
0
  6
CONTINUOUS
 62
     1
 10
57.5
 20
54.0
 30
0.0
 40
2.75
  0
ARC
  8
0
  6
CONTINUOUS
 62
     1
 10
57.5
 20
51.875
 30
0.0
 40
0.625
 50
180.0
 51
0.0
  0
ARC
  8
0
  6
CONTINUOUS
 62
     1
 10
57.5
 20
54.0
 30
0.0
 40
2.125
 50
287.744671625
 51
0.0
  0
LINE
  8
0
  6
CONTINUOUS
 62
     1
 10
58.125
 20
51.875
 30
0.0
 11
58.14764842
 21
51.976098687
 31
0.0
  0
ARC
  8
0
  6
CONTINUOUS
 62
     1
 10
57.5
 20
54.0
 30
0.0
 40
2.125
 50
0.0
 51
252.361095784
  0
LINE
  8
0
  6
CONTINUOUS
 62
     1
 10
56.856088782
 20
51.974906584
 30
0.0
 11
56.875
 21
51.875
 31
0.0
  0
LINE
  8
0
  6
CONTINUOUS
 62
     1
 10
66.0
 20
51.875
 30
0.0
 11
70.0
 21
51.875
 31
0.0
  0
ARC
  8
0
  6
CONTINUOUS
 62
     1
 10
66.0
 20
52.375
 30
0.0
 40
0.5
 50
180.0
 51
270.0
  0
LINE
  8
0
  6
CONTINUOUS
 62
     1
 10
70.0
 20
56.125
 30
0.0
 11
66.0
 21
56.125
 31
0.0
  0
LINE
  8
0
  6
CONTINUOUS
 62
     1
 10
65.5
 20
55.625
 30
0.0
 11
65.5
 21
52.375
 31
0.0
  0
ARC
  8
0
  6
CONTINUOUS
 62
     1
 10
66.0
 20
55.625
 30
0.0
 40
0.5
 50
90.0
 51
180.0
  0
CIRCLE
  8
0
  6
CONTINUOUS
 62
     1
 10
67.5
 20
54.0
 30
0.0
 40
1.125
  0
CIRCLE
  8
0
  6
CONTINUOUS
 62
     1
 10
53.66469501
 20
52.404301584
 30
0.0
 40
0.5
  0
CIRCLE
  8
0
  6
CONTINUOUS
 62
     1
 10
61.33530499
 20
52.404301584
 30
0.0
 40
0.5
  0
CIRCLE
  8
0
  6
CONTINUOUS
 62
     1
 10
53.66469501
 20
55.595698416
 30
0.0
 40
0.5
  0
CIRCLE
  8
0
  6
CONTINUOUS
 62
     1
 10
61.33530499
 20
55.595698416
 30
0.0
 40
0.5
  0
CIRCLE
  8
0
  6
CONTINUOUS
 62
     1
 10
55.913243114
 20
50.159874948
 30
0.0
 40
0.5
  0
CIRCLE
  8
0
  6
CONTINUOUS
 62
     1
 10
59.086756886
 20
50.159874948
 30
0.0
 40
0.5
  0
CIRCLE
  8
0
  6
CONTINUOUS
 62
     1
 10
55.913243114
 20
57.840125052
 30
0.0
 40
0.5
  0
CIRCLE
  8
0
  6
CONTINUOUS
 62
     1
 10
59.086756886
 20
57.840125052
 30
0.0
 40
0.5
  0
CIRCLE
  8
0
  6
CONTINUOUS
 62
     1
 10
55.913243114
 20
57.840125052
 30
0.0
 40
0.6
  0
CIRCLE
  8
0
  6
CONTINUOUS
 62
     1
 10
59.086756886
 20
57.840125052
 30
0.0
 40
0.6
  0
CIRCLE
  8
0
  6
CONTINUOUS
 62
     1
 10
61.33530499
 20
55.595698416
 30
0.0
 40
0.6
  0
CIRCLE
  8
0
  6
CONTINUOUS
 62
     1
 10
61.33530499
 20
52.404301584
 30
0.0
 40
0.6
  0
CIRCLE
  8
0
  6
CONTINUOUS
 62
     1
 10
59.086756886
 20
50.159874948
 30
0.0
 40
0.6
  0
CIRCLE
  8
0
  6
CONTINUOUS
 62
     1
 10
55.913243114
 20
50.159874948
 30
0.0
 40
0.6
  0
CIRCLE
  8
0
  6
CONTINUOUS
 62
     1
 10
53.66469501
 20
52.404301584
 30
0.0
 40
0.6
  0
CIRCLE
  8
0
  6
CONTINUOUS
 62
     1
 10
53.66469501
 20
55.595698416
 30
0.0
 40
0.6
  0
LINE
  8
0
  6
CONTINUOUS
 62
     1
 10
50.5
 20
35.0
 30
0.0
 11
50.5
 21
34.75
 31
0.0
  0
LINE
  8
0
  6
CONTINUOUS
 62
     1
 10
50.5
 20
34.75
 30
0.0
 11
51.25
 21
34.0
 31
0.0
  0
LINE
  8
0
  6
CONTINUOUS
 62
     1
 10
51.25
 20
34.0
 30
0.0
 11
54.75
 21
34.0
 31
0.0
  0
LINE
  8
0
  6
CONTINUOUS
 62
     1
 10
54.75
 20
34.0
 30
0.0
 11
54.75
 21
33.0
 31
0.0
  0
LINE
  8
0
  6
CONTINUOUS
 62
     1
 10
54.75
 20
33.0
 30
0.0
 11
56.25
 21
32.0
 31
0.0
  0
LINE
  8
0
  6
CONTINUOUS
 62
     1
 10
56.25
 20
32.0
 30
0.0
 11
58.75
 21
32.0
 31
0.0
  0
LINE
  8
0
  6
CONTINUOUS
 62
     1
 10
58.75
 20
32.0
 30
0.0
 11
60.25
 21
33.0
 31
0.0
  0
LINE
  8
0
  6
CONTINUOUS
 62
     1
 10
60.25
 20
33.0
 30
0.0
 11
60.25
 21
34.0
 31
0.0
  0
LINE
  8
0
  6
CONTINUOUS
 62
     1
 10
60.25
 20
34.0
 30
0.0
 11
63.75
 21
34.0
 31
0.0
  0
LINE
  8
0
  6
CONTINUOUS
 62
     1
 10
63.75
 20
34.0
 30
0.0
 11
64.5
 21
34.75
 31
0.0
  0
LINE
  8
0
  6
CONTINUOUS
 62
     1
 10
64.5
 20
34.75
 30
0.0
 11
64.5
 21
35.0
 31
0.0
  0
LINE
  8
0
  6
CONTINUOUS
 62
     1
 10
55.75
 20
34.0
 30
0.0
 11
55.75
 21
33.5
 31
0.0
  0
LINE
  8
0
  6
CONTINUOUS
 62
     1
 10
55.75
 20
33.5
 30
0.0
 11
56.5
 21
33.5
 31
0.0
  0
LINE
  8
0
  6
CONTINUOUS
 62
     1
 10
58.5
 20
33.5
 30
0.0
 11
59.25
 21
33.5
 31
0.0
  0
LINE
  8
0
  6
CONTINUOUS
 62
     1
 10
59.25
 20
33.5
 30
0.0
 11
59.25
 21
34.0
 31
0.0
  0
ARC
  8
0
  6
CONTINUOUS
 62
     1
 10
57.5
 20
33.5
 30
0.0
 40
1.0
 50
180.0
 51
0.0
  0
LINE
  8
0
  6
CONTINUOUS
 62
     1
 10
46.3
 20
35.75
 30
0.0
 11
45.0
 21
35.75
 31
0.0
  0
LINE
  8
0
  6
CONTINUOUS
 62
     1
 10
50.25
 20
35.75
 30
0.0
 11
51.5
 21
35.75
 31
0.0
  0
LINE
  8
0
  6
CONTINUOUS
 62
     1
 10
63.5
 20
35.75
 30
0.0
 11
64.8
 21
35.75
 31
0.0
  0
LINE
  8
0
  6
CONTINUOUS
 62
     1
 10
68.7
 20
35.75
 30
0.0
 11
70.0
 21
35.75
 31
0.0
  0
LINE
  8
0
  6
CONTINUOUS
 62
     1
 10
55.4
 20
34.75
 30
0.0
 11
56.625
 21
34.75
 31
0.0
  0
LINE
  8
0
  6
CONTINUOUS
 62
     1
 10
58.375
 20
34.75
 30
0.0
 11
59.625
 21
34.75
 31
0.0
  0
ARC
  8
0
  6
CONTINUOUS
 62
     1
 10
44.484375
 20
36.875
 30
0.0
 40
1.015625
 50
300.510237406
 51
59.489762594
  0
ARC
  8
0
  6
CONTINUOUS
 62
     1
 10
70.515625
 20
36.875
 30
0.0
 40
1.015625
 50
120.510237406
 51
239.489762594
  0
LINE
  8
0
  6
CONTINUOUS
 62
     1
 10
46.3
 20
72.25
 30
0.0
 11
45.0
 21
72.25
 31
0.0
  0
ARC
  8
0
  6
CONTINUOUS
 62
     1
 10
44.484375
 20
71.125
 30
0.0
 40
1.015625
 50
300.510237406
 51
59.489762594
  0
LINE
  8
0
  6
CONTINUOUS
 62
     1
 10
50.25
 20
72.25
 30
0.0
 11
51.5
 21
72.25
 31
0.0
  0
LINE
  8
0
  6
CONTINUOUS
 62
     1
 10
55.4
 20
73.25
 30
0.0
 11
56.625
 21
73.25
 31
0.0
  0
LINE
  8
0
  6
CONTINUOUS
 62
     1
 10
58.375
 20
73.25
 30
0.0
 11
59.625
 21
73.25
 31
0.0
  0
LINE
  8
0
  6
CONTINUOUS
 62
     1
 10
63.5
 20
72.25
 30
0.0
 11
64.8
 21
72.25
 31
0.0
  0
LINE
  8
0
  6
CONTINUOUS
 62
     1
 10
68.7
 20
72.25
 30
0.0
 11
70.0
 21
72.25
 31
0.0
  0
ARC
  8
0
  6
CONTINUOUS
 62
     1
 10
70.515625
 20
71.125
 30
0.0
 40
1.015625
 50
120.510237406
 51
239.489762594
  0
TEXT
  8
0
  6
CONTINUOUS
 62
     1
 10
47.6
 20
43.6
 30
0.15
 40
1.5
  1
７
 50
0.0
 41
0.9
 51
0.0
  7
KANJI0
  0
TEXT
  8
0
  6
CONTINUOUS
 62
     1
 10
52.8
 20
43.6
 30
0.15
 40
1.5
  1
８
 50
0.0
 41
0.9
 51
0.0
  7
KANJI0
  0
TEXT
  8
0
  6
CONTINUOUS
 62
     1
 10
60.9
 20
43.6
 30
0.15
 40
1.5
  1
１
 50
0.0
 41
0.9
 51
0.0
  7
KANJI0
  0
TEXT
  8
0
  6
CONTINUOUS
 62
     1
 10
66.1
 20
43.6
 30
0.15
 40
1.5
  1
２
 50
0.0
 41
0.9
 51
0.0
  7
KANJI0
  0
TEXT
  8
0
  6
CONTINUOUS
 62
     1
 10
47.6
 20
63.1
 30
0.15
 40
1.5
  1
６
 50
0.0
 41
0.9
 51
0.0
  7
KANJI0
  0
TEXT
  8
0
  6
CONTINUOUS
 62
     1
 10
52.8
 20
63.1
 30
0.15
 40
1.5
  1
５
 50
0.0
 41
0.9
 51
0.0
  7
KANJI0
  0
TEXT
  8
0
  6
CONTINUOUS
 62
     1
 10
60.9
 20
63.1
 30
0.15
 40
1.5
  1
４
 50
0.0
 41
0.9
 51
0.0
  7
KANJI0
  0
TEXT
  8
0
  6
CONTINUOUS
 62
     1
 10
66.1
 20
63.1
 30
0.15
 40
1.5
  1
３
 50
0.0
 41
0.9
 51
0.0
  7
KANJI0
  0
LINE
  8
0
  6
CONTINUOUS
 62
     1
 10
99.75
 20
73.0
 30
0.0
 11
93.25
 21
73.0
 31
0.0
  0
LINE
  8
0
  6
CONTINUOUS
 62
     1
 10
93.25
 20
73.0
 30
0.0
 11
92.5
 21
72.25
 31
0.0
  0
LINE
  8
0
  6
CONTINUOUS
 62
     1
 10
92.5
 20
72.25
 30
0.0
 11
92.5
 21
35.75
 31
0.0
  0
LINE
  8
0
  6
CONTINUOUS
 62
     1
 10
92.5
 20
35.75
 30
0.0
 11
93.25
 21
35.0
 31
0.0
  0
LINE
  8
0
  6
CONTINUOUS
 62
     1
 10
93.25
 20
35.0
 30
0.0
 11
99.75
 21
35.0
 31
0.0
  0
LINE
  8
0
  6
CONTINUOUS
 62
     1
 10
99.75
 20
35.0
 30
0.0
 11
99.75
 21
73.0
 31
0.0
  0
LINE
  8
0
  6
CONTINUOUS
 62
     1
 10
99.75
 20
73.0
 30
0.0
 11
101.75
 21
73.0
 31
0.0
  0
LINE
  8
0
  6
CONTINUOUS
 62
     1
 10
101.75
 20
73.0
 30
0.0
 11
101.75
 21
62.75
 31
0.0
  0
LINE
  8
0
  6
CONTINUOUS
 62
     1
 10
101.75
 20
62.75
 30
0.0
 11
99.75
 21
62.75
 31
0.0
  0
LINE
  8
0
  6
CONTINUOUS
 62
     1
 10
99.75
 20
35.0
 30
0.0
 11
101.75
 21
35.0
 31
0.0
  0
LINE
  8
0
  6
CONTINUOUS
 62
     1
 10
101.75
 20
35.0
 30
0.0
 11
101.75
 21
45.25
 31
0.0
  0
LINE
  8
0
  6
CONTINUOUS
 62
     1
 10
101.75
 20
45.25
 30
0.0
 11
99.75
 21
45.25
 31
0.0
  0
LINE
  8
0
  6
CONTINUOUS
 62
     1
 10
92.5
 20
51.875
 30
0.0
 11
94.5
 21
51.875
 31
0.0
  0
LINE
  8
0
  6
CONTINUOUS
 62
     1
 10
94.5
 20
51.875
 30
0.0
 11
94.5
 21
56.125
 31
0.0
  0
LINE
  8
0
  6
CONTINUOUS
 62
     1
 10
94.5
 20
56.125
 30
0.0
 11
92.5
 21
56.125
 31
0.0
  0
LINE
  8
0
  6
CONTINUOUS
 62
     1
 10
92.5
 20
37.75
 30
0.0
 11
99.75
 21
37.75
 31
0.0
  0
LINE
  8
0
  6
CONTINUOUS
 62
     1
 10
99.75
 20
36.0
 30
0.0
 11
92.5
 21
36.0
 31
0.0
  0
LINE
  8
0
  6
CONTINUOUS
 62
     1
 10
92.5
 20
72.0
 30
0.0
 11
99.75
 21
72.0
 31
0.0
  0
LINE
  8
0
  6
CONTINUOUS
 62
     1
 10
99.75
 20
70.25
 30
0.0
 11
92.5
 21
70.25
 31
0.0
  0
LINE
  8
0
  6
CONTINUOUS
 62
     1
 10
99.75
 20
51.5
 30
0.0
 11
101.75
 21
51.5
 31
0.0
  0
LINE
  8
0
  6
CONTINUOUS
 62
     1
 10
101.75
 20
51.5
 30
0.0
 11
101.75
 21
49.5
 31
0.0
  0
LINE
  8
0
  6
CONTINUOUS
 62
     1
 10
101.75
 20
49.5
 30
0.0
 11
99.75
 21
49.5
 31
0.0
  0
LINE
  8
0
  6
CONTINUOUS
 62
     1
 10
99.75
 20
56.5
 30
0.0
 11
101.75
 21
56.5
 31
0.0
  0
LINE
  8
0
  6
CONTINUOUS
 62
     1
 10
101.75
 20
56.5
 30
0.0
 11
101.75
 21
58.5
 31
0.0
  0
LINE
  8
0
  6
CONTINUOUS
 62
     1
 10
101.75
 20
58.5
 30
0.0
 11
99.75
 21
58.5
 31
0.0
  0
LINE
  8
0
  6
CONTINUOUS
 62
     1
 10
92.5
 20
61.2
 30
0.0
 11
90.0
 21
61.2
 31
0.0
  0
LINE
  8
0
  6
CONTINUOUS
 62
     1
 10
90.0
 20
61.2
 30
0.0
 11
90.0
 21
46.8
 31
0.0
  0
LINE
  8
0
  6
CONTINUOUS
 62
     1
 10
90.0
 20
46.8
 30
0.0
 11
92.5
 21
46.8
 31
0.0
  0
LINE
  8
0
  6
CONTINUOUS
 62
     1
 10
92.5
 20
45.25
 30
0.0
 11
91.75
 21
45.25
 31
0.0
  0
LINE
  8
0
  6
CONTINUOUS
 62
     1
 10
91.75
 20
45.25
 30
0.0
 11
91.75
 21
43.0
 31
0.0
  0
LINE
  8
0
  6
CONTINUOUS
 62
     1
 10
91.75
 20
43.0
 30
0.0
 11
92.5
 21
43.0
 31
0.0
  0
LINE
  8
0
  6
CONTINUOUS
 62
     1
 10
92.5
 20
62.75
 30
0.0
 11
91.75
 21
62.75
 31
0.0
  0
LINE
  8
0
  6
CONTINUOUS
 62
     1
 10
91.75
 20
62.75
 30
0.0
 11
91.75
 21
65.0
 31
0.0
  0
LINE
  8
0
  6
CONTINUOUS
 62
     1
 10
91.75
 20
65.0
 30
0.0
 11
92.5
 21
65.0
 31
0.0
  0
LINE
  8
0
  6
CONTINUOUS
 62
     1
 10
100.65
 20
45.25
 30
0.0
 11
100.65
 21
46.25
 31
0.0
  0
LINE
  8
0
  6
CONTINUOUS
 62
     1
 10
100.65
 20
46.25
 30
0.0
 11
101.15
 21
46.25
 31
0.0
  0
LINE
  8
0
  6
CONTINUOUS
 62
     1
 10
101.15
 20
46.25
 30
0.0
 11
101.75
 21
45.25
 31
0.0
  0
LINE
  8
0
  6
CONTINUOUS
 62
     1
 10
99.75
 20
35.0
 30
0.0
 11
99.75
 21
32.0
 31
0.0
  0
LINE
  8
0
  6
CONTINUOUS
 62
     1
 10
99.75
 20
32.0
 30
0.0
 11
101.75
 21
32.0
 31
0.0
  0
LINE
  8
0
  6
CONTINUOUS
 62
     1
 10
101.75
 20
32.0
 30
0.0
 11
101.75
 21
35.0
 31
0.0
  0
LINE
  8
0
  6
CONTINUOUS
 62
     1
 10
99.75
 20
34.0
 30
0.0
 11
101.75
 21
34.0
 31
0.0
  0
LINE
  8
0
  6
CONTINUOUS
 62
     1
 10
99.75
 20
33.0
 30
0.0
 11
101.75
 21
33.0
 31
0.0
  0
ARC
  8
0
  6
CONTINUOUS
 62
     1
 10
90.7
 20
44.1
 30
0.0
 40
0.405
 50
30.0
 51
210.0
  0
LINE
  8
0
  6
CONTINUOUS
 62
     1
 10
92.5
 20
40.25
 30
0.0
 11
90.349259711
 21
43.8975
 31
0.0
  0
LINE
  8
0
  6
CONTINUOUS
 62
     1
 10
91.050740289
 20
44.3025
 30
0.0
 11
91.500740289
 21
43.5525
 31
0.0
  0
LINE
  8
0
  6
CONTINUOUS
 62
     1
 10
91.500740289
 20
43.5525
 30
0.0
 11
91.750740289
 21
43.7025
 31
0.0
  0
ARC
  8
0
  6
CONTINUOUS
 62
     1
 10
90.7
 20
63.9
 30
0.0
 40
0.405
 50
150.0
 51
330.0
  0
LINE
  8
0
  6
CONTINUOUS
 62
     1
 10
92.5
 20
67.75
 30
0.0
 11
90.349259711
 21
64.1025
 31
0.0
  0
LINE
  8
0
  6
CONTINUOUS
 62
     1
 10
91.050740289
 20
63.6975
 30
0.0
 11
91.500740289
 21
64.4475
 31
0.0
  0
LINE
  8
0
  6
CONTINUOUS
 62
     1
 10
91.500740289
 20
64.4475
 30
0.0
 11
91.750740289
 21
64.2975
 31
0.0
  0
LINE
  8
0
  6
CONTINUOUS
 62
     1
 10
101.75
 20
62.75
 30
0.0
 11
101.75
 21
62.35
 31
0.0
  0
LINE
  8
0
  6
CONTINUOUS
 62
     1
 10
101.75
 20
62.35
 30
0.0
 11
101.05
 21
60.55
 31
0.0
  0
LINE
  8
0
  6
CONTINUOUS
 62
     1
 10
101.05
 20
60.55
 30
0.0
 11
100.65
 21
60.55
 31
0.0
  0
LINE
  8
0
  6
CONTINUOUS
 62
     1
 10
100.65
 20
60.55
 30
0.0
 11
100.65
 21
62.75
 31
0.0
  0
LINE
  8
0
  6
CONTINUOUS
 62
     1
 10
142.0
 20
73.0
 30
0.0
 11
148.5
 21
73.0
 31
0.0
  0
LINE
  8
0
  6
CONTINUOUS
 62
     1
 10
148.5
 20
73.0
 30
0.0
 11
149.25
 21
72.25
 31
0.0
  0
LINE
  8
0
  6
CONTINUOUS
 62
     1
 10
149.25
 20
72.25
 30
0.0
 11
149.25
 21
35.75
 31
0.0
  0
LINE
  8
0
  6
CONTINUOUS
 62
     1
 10
149.25
 20
35.75
 30
0.0
 11
148.5
 21
35.0
 31
0.0
  0
LINE
  8
0
  6
CONTINUOUS
 62
     1
 10
148.5
 20
35.0
 30
0.0
 11
142.0
 21
35.0
 31
0.0
  0
LINE
  8
0
  6
CONTINUOUS
 62
     1
 10
142.0
 20
35.0
 30
0.0
 11
142.0
 21
73.0
 31
0.0
  0
LINE
  8
0
  6
CONTINUOUS
 62
     1
 10
142.0
 20
73.0
 30
0.0
 11
140.0
 21
73.0
 31
0.0
  0
LINE
  8
0
  6
CONTINUOUS
 62
     1
 10
140.0
 20
73.0
 30
0.0
 11
140.0
 21
62.75
 31
0.0
  0
LINE
  8
0
  6
CONTINUOUS
 62
     1
 10
140.0
 20
62.75
 30
0.0
 11
142.0
 21
62.75
 31
0.0
  0
LINE
  8
0
  6
CONTINUOUS
 62
     1
 10
142.0
 20
35.0
 30
0.0
 11
140.0
 21
35.0
 31
0.0
  0
LINE
  8
0
  6
CONTINUOUS
 62
     1
 10
140.0
 20
35.0
 30
0.0
 11
140.0
 21
45.25
 31
0.0
  0
LINE
  8
0
  6
CONTINUOUS
 62
     1
 10
140.0
 20
45.25
 30
0.0
 11
142.0
 21
45.25
 31
0.0
  0
LINE
  8
0
  6
CONTINUOUS
 62
     1
 10
149.25
 20
51.875
 30
0.0
 11
147.25
 21
51.875
 31
0.0
  0
LINE
  8
0
  6
CONTINUOUS
 62
     1
 10
147.25
 20
51.875
 30
0.0
 11
147.25
 21
56.125
 31
0.0
  0
LINE
  8
0
  6
CONTINUOUS
 62
     1
 10
147.25
 20
56.125
 30
0.0
 11
149.25
 21
56.125
 31
0.0
  0
LINE
  8
0
  6
CONTINUOUS
 62
     1
 10
149.25
 20
37.75
 30
0.0
 11
142.0
 21
37.75
 31
0.0
  0
LINE
  8
0
  6
CONTINUOUS
 62
     1
 10
142.0
 20
36.0
 30
0.0
 11
149.25
 21
36.0
 31
0.0
  0
LINE
  8
0
  6
CONTINUOUS
 62
     1
 10
149.25
 20
72.0
 30
0.0
 11
142.0
 21
72.0
 31
0.0
  0
LINE
  8
0
  6
CONTINUOUS
 62
     1
 10
142.0
 20
70.25
 30
0.0
 11
149.25
 21
70.25
 31
0.0
  0
LINE
  8
0
  6
CONTINUOUS
 62
     1
 10
142.0
 20
51.5
 30
0.0
 11
140.0
 21
51.5
 31
0.0
  0
LINE
  8
0
  6
CONTINUOUS
 62
     1
 10
140.0
 20
51.5
 30
0.0
 11
140.0
 21
49.5
 31
0.0
  0
LINE
  8
0
  6
CONTINUOUS
 62
     1
 10
140.0
 20
49.5
 30
0.0
 11
142.0
 21
49.5
 31
0.0
  0
LINE
  8
0
  6
CONTINUOUS
 62
     1
 10
142.0
 20
56.5
 30
0.0
 11
140.0
 21
56.5
 31
0.0
  0
LINE
  8
0
  6
CONTINUOUS
 62
     1
 10
140.0
 20
56.5
 30
0.0
 11
140.0
 21
58.5
 31
0.0
  0
LINE
  8
0
  6
CONTINUOUS
 62
     1
 10
140.0
 20
58.5
 30
0.0
 11
142.0
 21
58.5
 31
0.0
  0
LINE
  8
0
  6
CONTINUOUS
 62
     1
 10
149.25
 20
45.25
 30
0.0
 11
150.0
 21
45.25
 31
0.0
  0
LINE
  8
0
  6
CONTINUOUS
 62
     1
 10
150.0
 20
45.25
 30
0.0
 11
150.0
 21
43.0
 31
0.0
  0
LINE
  8
0
  6
CONTINUOUS
 62
     1
 10
150.0
 20
43.0
 30
0.0
 11
149.25
 21
43.0
 31
0.0
  0
LINE
  8
0
  6
CONTINUOUS
 62
     1
 10
149.25
 20
62.75
 30
0.0
 11
150.0
 21
62.75
 31
0.0
  0
LINE
  8
0
  6
CONTINUOUS
 62
     1
 10
150.0
 20
62.75
 30
0.0
 11
150.0
 21
65.0
 31
0.0
  0
LINE
  8
0
  6
CONTINUOUS
 62
     1
 10
150.0
 20
65.0
 30
0.0
 11
149.25
 21
65.0
 31
0.0
  0
LINE
  8
0
  6
CONTINUOUS
 62
     1
 10
141.1
 20
45.25
 30
0.0
 11
141.1
 21
46.25
 31
0.0
  0
LINE
  8
0
  6
CONTINUOUS
 62
     1
 10
141.1
 20
46.25
 30
0.0
 11
140.6
 21
46.25
 31
0.0
  0
LINE
  8
0
  6
CONTINUOUS
 62
     1
 10
140.6
 20
46.25
 30
0.0
 11
140.0
 21
45.25
 31
0.0
  0
LINE
  8
0
  6
CONTINUOUS
 62
     1
 10
142.0
 20
35.0
 30
0.0
 11
142.0
 21
32.0
 31
0.0
  0
LINE
  8
0
  6
CONTINUOUS
 62
     1
 10
142.0
 20
32.0
 30
0.0
 11
140.0
 21
32.0
 31
0.0
  0
LINE
  8
0
  6
CONTINUOUS
 62
     1
 10
140.0
 20
32.0
 30
0.0
 11
140.0
 21
35.0
 31
0.0
  0
LINE
  8
0
  6
CONTINUOUS
 62
     1
 10
142.0
 20
34.0
 30
0.0
 11
140.0
 21
34.0
 31
0.0
  0
LINE
  8
0
  6
CONTINUOUS
 62
     1
 10
142.0
 20
33.0
 30
0.0
 11
140.0
 21
33.0
 31
0.0
  0
LINE
  8
0
  6
CONTINUOUS
 62
     1
 10
150.249259711
 20
43.5525
 30
0.0
 11
149.999259711
 21
43.7025
 31
0.0
  0
LINE
  8
0
  6
CONTINUOUS
 62
     1
 10
150.249259711
 20
64.4475
 30
0.0
 11
149.999259711
 21
64.2975
 31
0.0
  0
LINE
  8
0
  6
CONTINUOUS
 62
     1
 10
140.0
 20
62.75
 30
0.0
 11
140.0
 21
62.35
 31
0.0
  0
LINE
  8
0
  6
CONTINUOUS
 62
     1
 10
140.0
 20
62.35
 30
0.0
 11
140.7
 21
60.55
 31
0.0
  0
LINE
  8
0
  6
CONTINUOUS
 62
     1
 10
140.7
 20
60.55
 30
0.0
 11
141.1
 21
60.55
 31
0.0
  0
LINE
  8
0
  6
CONTINUOUS
 62
     1
 10
141.1
 20
60.55
 30
0.0
 11
141.1
 21
62.75
 31
0.0
  0
LINE
  8
0
  6
CONTINUOUS
 62
     1
 10
150.0
 20
73.5
 30
0.0
 11
150.0
 21
34.5
 31
0.0
  0
LINE
  8
0
  6
CONTINUOUS
 62
     1
 10
150.3
 20
67.25
 30
0.0
 11
150.3
 21
54.0
 31
0.0
  0
LINE
  8
0
  6
CONTINUOUS
 62
     1
 10
154.0
 20
67.75
 30
0.0
 11
154.0
 21
73.5
 31
0.0
  0
LINE
  8
0
  6
CONTINUOUS
 62
     1
 10
150.0
 20
67.25
 30
0.0
 11
153.5
 21
67.25
 31
0.0
  0
ARC
  8
0
  6
CONTINUOUS
 62
     1
 10
153.5
 20
67.75
 30
0.0
 40
0.5
 50
270.0
 51
0.0
  0
LINE
  8
0
  6
CONTINUOUS
 62
     1
 10
151.5
 20
60.5
 30
0.0
 11
152.7
 21
60.5
 31
0.0
  0
LINE
  8
0
  6
CONTINUOUS
 62
     1
 10
152.7
 20
60.5
 30
0.0
 11
152.7
 21
63.5
 31
0.0
  0
LINE
  8
0
  6
CONTINUOUS
 62
     1
 10
152.7
 20
63.5
 30
0.0
 11
151.5
 21
63.5
 31
0.0
  0
LINE
  8
0
  6
CONTINUOUS
 62
     1
 10
151.5
 20
63.5
 30
0.0
 11
151.5
 21
60.5
 31
0.0
  0
LINE
  8
0
  6
CONTINUOUS
 62
     1
 10
150.3
 20
40.75
 30
0.0
 11
150.3
 21
54.0
 31
0.0
  0
LINE
  8
0
  6
CONTINUOUS
 62
     1
 10
154.0
 20
40.25
 30
0.0
 11
154.0
 21
34.5
 31
0.0
  0
LINE
  8
0
  6
CONTINUOUS
 62
     1
 10
150.0
 20
40.75
 30
0.0
 11
153.5
 21
40.75
 31
0.0
  0
ARC
  8
0
  6
CONTINUOUS
 62
     1
 10
153.5
 20
40.25
 30
0.0
 40
0.5
 50
0.0
 51
90.0
  0
LINE
  8
0
  6
CONTINUOUS
 62
     1
 10
151.5
 20
47.5
 30
0.0
 11
152.7
 21
47.5
 31
0.0
  0
LINE
  8
0
  6
CONTINUOUS
 62
     1
 10
152.7
 20
47.5
 30
0.0
 11
152.7
 21
44.5
 31
0.0
  0
LINE
  8
0
  6
CONTINUOUS
 62
     1
 10
152.7
 20
44.5
 30
0.0
 11
151.5
 21
44.5
 31
0.0
  0
LINE
  8
0
  6
CONTINUOUS
 62
     1
 10
151.5
 20
44.5
 30
0.0
 11
151.5
 21
47.5
 31
0.0
  0
LINE
  8
0
  6
CONTINUOUS
 62
     1
 10
149.25
 20
61.2
 30
0.0
 11
150.0
 21
61.2
 31
0.0
  0
LINE
  8
0
  6
CONTINUOUS
 62
     1
 10
149.25
 20
46.8
 30
0.0
 11
150.0
 21
46.8
 31
0.0
  0
ARC
  8
0
  6
CONTINUOUS
 62
     1
 10
155.249744349
 20
34.10653992
 30
0.0
 40
0.405
 50
270.0
 51
90.0
  0
LINE
  8
0
  6
CONTINUOUS
 62
     1
 10
155.249744349
 20
34.51153992
 30
0.0
 11
154.375225296
 21
34.526251352
 31
0.0
  0
LINE
  8
0
  6
CONTINUOUS
 62
     1
 10
155.249744349
 20
33.70153992
 30
0.0
 11
149.375225296
 21
33.626251352
 31
0.0
  0
LINE
  8
0
  6
CONTINUOUS
 62
     1
 10
149.375225296
 20
33.626251352
 30
0.0
 11
148.275225296
 21
34.926251352
 31
0.0
  0
ARC
  8
0
  6
CONTINUOUS
 62
     1
 10
155.249744349
 20
73.89346008
 30
0.0
 40
0.405
 50
270.0
 51
90.0
  0
LINE
  8
0
  6
CONTINUOUS
 62
     1
 10
155.249744349
 20
74.29846008
 30
0.0
 11
149.375225296
 21
74.373748648
 31
0.0
  0
LINE
  8
0
  6
CONTINUOUS
 62
     1
 10
149.375225296
 20
74.373748648
 30
0.0
 11
148.275225296
 21
73.073748648
 31
0.0
  0
LINE
  8
0
  6
CONTINUOUS
 62
     1
 10
140.0
 20
52.0
 30
0.0
 11
135.0
 21
56.0
 31
0.0
  0
LINE
  8
0
  6
CONTINUOUS
 62
     1
 10
140.0
 20
54.0
 30
0.0
 11
135.0
 21
58.0
 31
0.0
  0
LINE
  8
0
  6
CONTINUOUS
 62
     1
 10
140.0
 20
56.0
 30
0.0
 11
135.0
 21
60.0
 31
0.0
  0
LINE
  8
0
  6
CONTINUOUS
 62
     1
 10
140.0
 20
58.0
 30
0.0
 11
135.0
 21
62.0
 31
0.0
  0
LINE
  8
0
  6
CONTINUOUS
 62
     1
 10
140.0
 20
60.0
 30
0.0
 11
135.0
 21
64.0
 31
0.0
  0
LINE
  8
0
  6
CONTINUOUS
 62
     1
 10
140.0
 20
62.0
 30
0.0
 11
135.0
 21
66.0
 31
0.0
  0
LINE
  8
0
  6
CONTINUOUS
 62
     1
 10
140.0
 20
64.0
 30
0.0
 11
135.0
 21
68.0
 31
0.0
  0
LINE
  8
0
  6
CONTINUOUS
 62
     1
 10
140.0
 20
66.0
 30
0.0
 11
135.0
 21
70.0
 31
0.0
  0
LINE
  8
0
  6
CONTINUOUS
 62
     1
 10
140.0
 20
68.0
 30
0.0
 11
135.0
 21
72.0
 31
0.0
  0
LINE
  8
0
  6
CONTINUOUS
 62
     1
 10
140.0
 20
70.0
 30
0.0
 11
135.0
 21
74.0
 31
0.0
  0
LINE
  8
0
  6
CONTINUOUS
 62
     1
 10
140.0
 20
72.0
 30
0.0
 11
135.0
 21
76.0
 31
0.0
  0
LINE
  8
0
  6
CONTINUOUS
 62
     1
 10
140.0
 20
74.0
 30
0.0
 11
135.0
 21
78.0
 31
0.0
  0
LINE
  8
0
  6
CONTINUOUS
 62
     1
 10
140.0
 20
76.0
 30
0.0
 11
135.0
 21
80.0
 31
0.0
  0
LINE
  8
0
  6
CONTINUOUS
 62
     1
 10
140.0
 20
78.0
 30
0.0
 11
135.0
 21
82.0
 31
0.0
  0
LINE
  8
0
  6
CONTINUOUS
 62
     1
 10
140.0
 20
80.0
 30
0.0
 11
135.0
 21
84.0
 31
0.0
  0
LINE
  8
0
  6
CONTINUOUS
 62
     1
 10
140.0
 20
82.0
 30
0.0
 11
135.0
 21
86.0
 31
0.0
  0
LINE
  8
0
  6
CONTINUOUS
 62
     1
 10
140.0
 20
50.0
 30
0.0
 11
135.0
 21
54.0
 31
0.0
  0
LINE
  8
0
  6
CONTINUOUS
 62
     1
 10
140.0
 20
48.0
 30
0.0
 11
135.0
 21
52.0
 31
0.0
  0
LINE
  8
0
  6
CONTINUOUS
 62
     1
 10
140.0
 20
46.0
 30
0.0
 11
135.0
 21
50.0
 31
0.0
  0
LINE
  8
0
  6
CONTINUOUS
 62
     1
 10
140.0
 20
44.0
 30
0.0
 11
135.0
 21
48.0
 31
0.0
  0
LINE
  8
0
  6
CONTINUOUS
 62
     1
 10
140.0
 20
42.0
 30
0.0
 11
135.0
 21
46.0
 31
0.0
  0
LINE
  8
0
  6
CONTINUOUS
 62
     1
 10
140.0
 20
40.0
 30
0.0
 11
135.0
 21
44.0
 31
0.0
  0
LINE
  8
0
  6
CONTINUOUS
 62
     1
 10
140.0
 20
38.0
 30
0.0
 11
135.0
 21
42.0
 31
0.0
  0
LINE
  8
0
  6
CONTINUOUS
 62
     1
 10
140.0
 20
36.0
 30
0.0
 11
135.0
 21
40.0
 31
0.0
  0
LINE
  8
0
  6
CONTINUOUS
 62
     1
 10
140.0
 20
34.0
 30
0.0
 11
135.0
 21
38.0
 31
0.0
  0
LINE
  8
0
  6
CONTINUOUS
 62
     1
 10
140.0
 20
32.0
 30
0.0
 11
135.0
 21
36.0
 31
0.0
  0
LINE
  8
0
  6
CONTINUOUS
 62
     1
 10
140.0
 20
30.0
 30
0.0
 11
135.0
 21
34.0
 31
0.0
  0
LINE
  8
0
  6
CONTINUOUS
 62
     1
 10
140.0
 20
28.0
 30
0.0
 11
135.0
 21
32.0
 31
0.0
  0
LINE
  8
0
  6
CONTINUOUS
 62
     1
 10
140.0
 20
84.0
 30
0.0
 11
135.0
 21
88.0
 31
0.0
  0
LINE
  8
0
  6
CONTINUOUS
 62
     1
 10
140.0
 20
86.0
 30
0.0
 11
137.5
 21
88.0
 31
0.0
  0
LINE
  8
0
  6
CONTINUOUS
 62
     1
 10
140.0
 20
88.0
 30
0.0
 11
140.0
 21
27.0
 31
0.0
  0
LINE
  8
0
  6
CONTINUOUS
 62
     1
 10
138.75
 20
27.0
 30
0.0
 11
135.0
 21
30.0
 31
0.0
  0
LINE
  8
0
  6
CONTINUOUS
 62
     1
 10
136.25
 20
27.0
 30
0.0
 11
135.0
 21
28.0
 31
0.0
  0
LINE
  8
0
  6
CONTINUOUS
 62
     1
 10
55.0
 20
120.5
 30
0.0
 11
55.0
 21
159.5
 31
0.0
  0
LINE
  8
0
  6
CONTINUOUS
 62
     1
 10
30.0
 20
159.5
 30
0.0
 11
30.0
 21
120.5
 31
0.0
  0
LINE
  8
0
  6
CONTINUOUS
 62
     1
 10
54.0
 20
121.5
 30
0.0
 11
54.0
 21
126.75
 31
0.0
  0
LINE
  8
0
  6
CONTINUOUS
 62
     1
 10
54.0
 20
126.75
 30
0.0
 11
53.0
 21
126.75
 31
0.0
  0
LINE
  8
0
  6
CONTINUOUS
 62
     1
 10
31.0
 20
121.5
 30
0.0
 11
31.0
 21
126.75
 31
0.0
  0
LINE
  8
0
  6
CONTINUOUS
 62
     1
 10
31.0
 20
126.75
 30
0.0
 11
32.0
 21
126.75
 31
0.0
  0
LINE
  8
0
  6
CONTINUOUS
 62
     1
 10
32.0
 20
153.25
 30
0.0
 11
31.0
 21
153.25
 31
0.0
  0
LINE
  8
0
  6
CONTINUOUS
 62
     1
 10
31.0
 20
153.25
 30
0.0
 11
31.0
 21
158.5
 31
0.0
  0
LINE
  8
0
  6
CONTINUOUS
 62
     1
 10
54.0
 20
158.5
 30
0.0
 11
54.0
 21
153.25
 31
0.0
  0
LINE
  8
0
  6
CONTINUOUS
 62
     1
 10
54.0
 20
153.25
 30
0.0
 11
53.0
 21
153.25
 31
0.0
  0
LINE
  8
0
  6
CONTINUOUS
 62
     1
 10
53.0
 20
153.25
 30
0.0
 11
53.0
 21
148.75
 31
0.0
  0
LINE
  8
0
  6
CONTINUOUS
 62
     1
 10
53.0
 20
148.75
 30
0.0
 11
32.0
 21
148.75
 31
0.0
  0
LINE
  8
0
  6
CONTINUOUS
 62
     1
 10
32.0
 20
148.75
 30
0.0
 11
32.0
 21
153.25
 31
0.0
  0
LINE
  8
0
  6
CONTINUOUS
 62
     1
 10
32.0
 20
126.75
 30
0.0
 11
32.0
 21
131.25
 31
0.0
  0
LINE
  8
0
  6
CONTINUOUS
 62
     1
 10
32.0
 20
131.25
 30
0.0
 11
53.0
 21
131.25
 31
0.0
  0
LINE
  8
0
  6
CONTINUOUS
 62
     1
 10
53.0
 20
131.25
 30
0.0
 11
53.0
 21
126.75
 31
0.0
  0
LINE
  8
0
  6
CONTINUOUS
 62
     1
 10
32.0
 20
132.25
 30
0.0
 11
53.0
 21
132.25
 31
0.0
  0
LINE
  8
0
  6
CONTINUOUS
 62
     1
 10
53.0
 20
132.25
 30
0.0
 11
53.0
 21
147.75
 31
0.0
  0
LINE
  8
0
  6
CONTINUOUS
 62
     1
 10
53.0
 20
147.75
 30
0.0
 11
32.0
 21
147.75
 31
0.0
  0
LINE
  8
0
  6
CONTINUOUS
 62
     1
 10
32.0
 20
147.75
 30
0.0
 11
32.0
 21
132.25
 31
0.0
  0
LINE
  8
0
  6
CONTINUOUS
 62
     1
 10
40.5
 20
124.0
 30
0.0
 11
44.5
 21
124.0
 31
0.0
  0
LINE
  8
0
  6
CONTINUOUS
 62
     1
 10
30.0
 20
120.5
 30
0.0
 11
41.5
 21
120.5
 31
0.0
  0
LINE
  8
0
  6
CONTINUOUS
 62
     1
 10
43.5
 20
120.5
 30
0.0
 11
55.0
 21
120.5
 31
0.0
  0
LINE
  8
0
  6
CONTINUOUS
 62
     1
 10
44.5
 20
121.5
 30
0.0
 11
54.0
 21
121.5
 31
0.0
  0
LINE
  8
0
  6
CONTINUOUS
 62
     1
 10
40.5
 20
124.0
 30
0.0
 11
40.5
 21
121.5
 31
0.0
  0
LINE
  8
0
  6
CONTINUOUS
 62
     1
 10
31.0
 20
121.5
 30
0.0
 11
40.5
 21
121.5
 31
0.0
  0
LINE
  8
0
  6
CONTINUOUS
 62
     1
 10
41.5
 20
123.0
 30
0.0
 11
41.5
 21
120.5
 31
0.0
  0
LINE
  8
0
  6
CONTINUOUS
 62
     1
 10
43.5
 20
123.0
 30
0.0
 11
41.5
 21
123.0
 31
0.0
  0
LINE
  8
0
  6
CONTINUOUS
 62
     1
 10
43.5
 20
123.0
 30
0.0
 11
43.5
 21
120.5
 31
0.0
  0
LINE
  8
0
  6
CONTINUOUS
 62
     1
 10
44.5
 20
156.0
 30
0.0
 11
44.5
 21
158.5
 31
0.0
  0
LINE
  8
0
  6
CONTINUOUS
 62
     1
 10
43.5
 20
157.0
 30
0.0
 11
41.5
 21
157.0
 31
0.0
  0
LINE
  8
0
  6
CONTINUOUS
 62
     1
 10
43.5
 20
157.0
 30
0.0
 11
43.5
 21
159.5
 31
0.0
  0
LINE
  8
0
  6
CONTINUOUS
 62
     1
 10
55.0
 20
159.5
 30
0.0
 11
43.5
 21
159.5
 31
0.0
  0
LINE
  8
0
  6
CONTINUOUS
 62
     1
 10
41.5
 20
157.0
 30
0.0
 11
41.5
 21
159.5
 31
0.0
  0
LINE
  8
0
  6
CONTINUOUS
 62
     1
 10
41.5
 20
159.5
 30
0.0
 11
30.0
 21
159.5
 31
0.0
  0
LINE
  8
0
  6
CONTINUOUS
 62
     1
 10
31.0
 20
158.5
 30
0.0
 11
40.5
 21
158.5
 31
0.0
  0
LINE
  8
0
  6
CONTINUOUS
 62
     1
 10
40.5
 20
156.0
 30
0.0
 11
40.5
 21
158.5
 31
0.0
  0
LINE
  8
0
  6
CONTINUOUS
 62
     1
 10
40.5
 20
156.0
 30
0.0
 11
44.5
 21
156.0
 31
0.0
  0
LINE
  8
0
  6
CONTINUOUS
 62
     1
 10
44.5
 20
158.5
 30
0.0
 11
54.0
 21
158.5
 31
0.0
  0
LINE
  8
0
  6
CONTINUOUS
 62
     1
 10
44.5
 20
156.0
 30
0.0
 11
44.5
 21
148.75
 31
0.0
  0
LINE
  8
0
  6
CONTINUOUS
 62
     1
 10
40.5
 20
156.0
 30
0.0
 11
40.5
 21
153.25
 31
0.0
  0
LINE
  8
0
  6
CONTINUOUS
 62
     1
 10
36.5
 20
153.25
 30
0.0
 11
44.5
 21
153.25
 31
0.0
  0
LINE
  8
0
  6
CONTINUOUS
 62
     1
 10
35.0
 20
148.75
 30
0.0
 11
35.0
 21
151.75
 31
0.0
  0
ARC
  8
0
  6
CONTINUOUS
 62
     1
 10
36.5
 20
151.75
 30
0.0
 40
1.5
 50
90.0
 51
180.0
  0
ARC
  8
0
  6
CONTINUOUS
 62
     1
 10
41.5
 20
151.25
 30
0.0
 40
0.5
 50
0.0
 51
180.0
  0
ARC
  8
0
  6
CONTINUOUS
 62
     1
 10
41.5
 20
149.75
 30
0.0
 40
0.5
 50
180.0
 51
0.0
  0
LINE
  8
0
  6
CONTINUOUS
 62
     1
 10
42.0
 20
149.75
 30
0.0
 11
42.0
 21
151.25
 31
0.0
  0
LINE
  8
0
  6
CONTINUOUS
 62
     1
 10
41.0
 20
151.25
 30
0.0
 11
41.0
 21
149.75
 31
0.0
  0
ARC
  8
0
  6
CONTINUOUS
 62
     1
 10
39.5
 20
151.25
 30
0.0
 40
0.5
 50
0.0
 51
180.0
  0
ARC
  8
0
  6
CONTINUOUS
 62
     1
 10
39.5
 20
149.75
 30
0.0
 40
0.5
 50
180.0
 51
0.0
  0
LINE
  8
0
  6
CONTINUOUS
 62
     1
 10
40.0
 20
149.75
 30
0.0
 11
40.0
 21
151.25
 31
0.0
  0
LINE
  8
0
  6
CONTINUOUS
 62
     1
 10
39.0
 20
151.25
 30
0.0
 11
39.0
 21
149.75
 31
0.0
  0
ARC
  8
0
  6
CONTINUOUS
 62
     1
 10
37.5
 20
151.25
 30
0.0
 40
0.5
 50
0.0
 51
180.0
  0
ARC
  8
0
  6
CONTINUOUS
 62
     1
 10
37.5
 20
149.75
 30
0.0
 40
0.5
 50
180.0
 51
0.0
  0
LINE
  8
0
  6
CONTINUOUS
 62
     1
 10
38.0
 20
149.75
 30
0.0
 11
38.0
 21
151.25
 31
0.0
  0
LINE
  8
0
  6
CONTINUOUS
 62
     1
 10
37.0
 20
151.25
 30
0.0
 11
37.0
 21
149.75
 31
0.0
  0
LINE
  8
0
  6
CONTINUOUS
 62
     1
 10
54.0
 20
133.25
 30
0.0
 11
53.75
 21
133.25
 31
0.0
  0
LINE
  8
0
  6
CONTINUOUS
 62
     1
 10
53.75
 20
133.25
 30
0.0
 11
53.75
 21
130.75
 31
0.0
  0
LINE
  8
0
  6
CONTINUOUS
 62
     1
 10
53.75
 20
130.75
 30
0.0
 11
54.0
 21
130.75
 31
0.0
  0
LINE
  8
0
  6
CONTINUOUS
 62
     1
 10
54.0
 20
146.75
 30
0.0
 11
53.75
 21
146.75
 31
0.0
  0
LINE
  8
0
  6
CONTINUOUS
 62
     1
 10
53.75
 20
146.75
 30
0.0
 11
53.75
 21
149.25
 31
0.0
  0
LINE
  8
0
  6
CONTINUOUS
 62
     1
 10
53.75
 20
149.25
 30
0.0
 11
54.0
 21
149.25
 31
0.0
  0
LINE
  8
0
  6
CONTINUOUS
 62
     1
 10
31.0
 20
133.25
 30
0.0
 11
31.25
 21
133.25
 31
0.0
  0
LINE
  8
0
  6
CONTINUOUS
 62
     1
 10
31.25
 20
133.25
 30
0.0
 11
31.25
 21
130.75
 31
0.0
  0
LINE
  8
0
  6
CONTINUOUS
 62
     1
 10
31.25
 20
130.75
 30
0.0
 11
31.0
 21
130.75
 31
0.0
  0
LINE
  8
0
  6
CONTINUOUS
 62
     1
 10
31.0
 20
146.75
 30
0.0
 11
31.25
 21
146.75
 31
0.0
  0
LINE
  8
0
  6
CONTINUOUS
 62
     1
 10
31.25
 20
146.75
 30
0.0
 11
31.25
 21
149.25
 31
0.0
  0
LINE
  8
0
  6
CONTINUOUS
 62
     1
 10
31.25
 20
149.25
 30
0.0
 11
31.0
 21
149.25
 31
0.0
  0
LINE
  8
0
  6
CONTINUOUS
 62
     1
 10
40.5
 20
124.0
 30
0.0
 11
40.5
 21
126.75
 31
0.0
  0
LINE
  8
0
  6
CONTINUOUS
 62
     1
 10
40.5
 20
126.75
 30
0.0
 11
44.5
 21
126.75
 31
0.0
  0
LINE
  8
0
  6
CONTINUOUS
 62
     1
 10
44.5
 20
126.75
 30
0.0
 11
44.5
 21
121.5
 31
0.0
  0
LINE
  8
0
  6
CONTINUOUS
 62
     1
 10
31.0
 20
123.5
 30
0.0
 11
35.0
 21
123.5
 31
0.0
  0
LINE
  8
0
  6
CONTINUOUS
 62
     1
 10
35.0
 20
123.5
 30
0.0
 11
35.0
 21
121.5
 31
0.0
  0
LINE
  8
0
  6
CONTINUOUS
 62
     1
 10
32.75
 20
123.5
 30
0.0
 11
32.75
 21
123.0
 31
0.0
  0
LINE
  8
0
  6
CONTINUOUS
 62
     1
 10
32.75
 20
123.0
 30
0.0
 11
33.25
 21
123.0
 31
0.0
  0
LINE
  8
0
  6
CONTINUOUS
 62
     1
 10
33.25
 20
123.0
 30
0.0
 11
33.25
 21
123.5
 31
0.0
  0
LINE
  8
0
  6
CONTINUOUS
 62
     1
 10
34.25
 20
123.5
 30
0.0
 11
34.25
 21
122.0
 31
0.0
  0
LINE
  8
0
  6
CONTINUOUS
 62
     1
 10
34.25
 20
122.0
 30
0.0
 11
31.75
 21
122.0
 31
0.0
  0
LINE
  8
0
  6
CONTINUOUS
 62
     1
 10
31.75
 20
122.0
 30
0.0
 11
31.75
 21
123.5
 31
0.0
  0
LINE
  8
0
  6
CONTINUOUS
 62
     1
 10
54.0
 20
123.5
 30
0.0
 11
50.0
 21
123.5
 31
0.0
  0
LINE
  8
0
  6
CONTINUOUS
 62
     1
 10
50.0
 20
123.5
 30
0.0
 11
50.0
 21
121.5
 31
0.0
  0
LINE
  8
0
  6
CONTINUOUS
 62
     1
 10
52.25
 20
123.5
 30
0.0
 11
52.25
 21
123.0
 31
0.0
  0
LINE
  8
0
  6
CONTINUOUS
 62
     1
 10
52.25
 20
123.0
 30
0.0
 11
51.75
 21
123.0
 31
0.0
  0
LINE
  8
0
  6
CONTINUOUS
 62
     1
 10
51.75
 20
123.0
 30
0.0
 11
51.75
 21
123.5
 31
0.0
  0
LINE
  8
0
  6
CONTINUOUS
 62
     1
 10
50.75
 20
123.5
 30
0.0
 11
50.75
 21
122.0
 31
0.0
  0
LINE
  8
0
  6
CONTINUOUS
 62
     1
 10
50.75
 20
122.0
 30
0.0
 11
53.25
 21
122.0
 31
0.0
  0
LINE
  8
0
  6
CONTINUOUS
 62
     1
 10
53.25
 20
122.0
 30
0.0
 11
53.25
 21
123.5
 31
0.0
  0
LINE
  8
0
  6
CONTINUOUS
 62
     1
 10
54.0
 20
156.5
 30
0.0
 11
50.0
 21
156.5
 31
0.0
  0
LINE
  8
0
  6
CONTINUOUS
 62
     1
 10
50.0
 20
156.5
 30
0.0
 11
50.0
 21
158.5
 31
0.0
  0
LINE
  8
0
  6
CONTINUOUS
 62
     1
 10
52.25
 20
156.5
 30
0.0
 11
52.25
 21
157.0
 31
0.0
  0
LINE
  8
0
  6
CONTINUOUS
 62
     1
 10
52.25
 20
157.0
 30
0.0
 11
51.75
 21
157.0
 31
0.0
  0
LINE
  8
0
  6
CONTINUOUS
 62
     1
 10
51.75
 20
157.0
 30
0.0
 11
51.75
 21
156.5
 31
0.0
  0
LINE
  8
0
  6
CONTINUOUS
 62
     1
 10
50.75
 20
156.5
 30
0.0
 11
50.75
 21
158.0
 31
0.0
  0
LINE
  8
0
  6
CONTINUOUS
 62
     1
 10
50.75
 20
158.0
 30
0.0
 11
53.25
 21
158.0
 31
0.0
  0
LINE
  8
0
  6
CONTINUOUS
 62
     1
 10
53.25
 20
158.0
 30
0.0
 11
53.25
 21
156.5
 31
0.0
  0
LINE
  8
0
  6
CONTINUOUS
 62
     1
 10
31.0
 20
156.5
 30
0.0
 11
35.0
 21
156.5
 31
0.0
  0
LINE
  8
0
  6
CONTINUOUS
 62
     1
 10
35.0
 20
156.5
 30
0.0
 11
35.0
 21
158.5
 31
0.0
  0
LINE
  8
0
  6
CONTINUOUS
 62
     1
 10
32.75
 20
156.5
 30
0.0
 11
32.75
 21
157.0
 31
0.0
  0
LINE
  8
0
  6
CONTINUOUS
 62
     1
 10
32.75
 20
157.0
 30
0.0
 11
33.25
 21
157.0
 31
0.0
  0
LINE
  8
0
  6
CONTINUOUS
 62
     1
 10
33.25
 20
157.0
 30
0.0
 11
33.25
 21
156.5
 31
0.0
  0
LINE
  8
0
  6
CONTINUOUS
 62
     1
 10
34.25
 20
156.5
 30
0.0
 11
34.25
 21
158.0
 31
0.0
  0
LINE
  8
0
  6
CONTINUOUS
 62
     1
 10
34.25
 20
158.0
 30
0.0
 11
31.75
 21
158.0
 31
0.0
  0
LINE
  8
0
  6
CONTINUOUS
 62
     1
 10
31.75
 20
158.0
 30
0.0
 11
31.75
 21
156.5
 31
0.0
  0
CIRCLE
  8
0
  6
CONTINUOUS
 62
     1
 10
42.5
 20
140.0
 30
0.0
 40
7.0
  0
CIRCLE
  8
0
  6
CONTINUOUS
 62
     1
 10
42.5
 20
140.0
 30
0.0
 40
6.25
  0
CIRCLE
  8
0
  6
CONTINUOUS
 62
     1
 10
42.5
 20
140.0
 30
0.0
 40
1.875
  0
ARC
  8
0
  6
CONTINUOUS
 62
     1
 10
42.5
 20
138.05
 30
0.0
 40
0.375
 50
180.0
 51
0.0
  0
LINE
  8
0
  6
CONTINUOUS
 62
     1
 10
42.15
 20
138.05
 30
0.0
 11
42.15
 21
138.15
 31
0.0
  0
LINE
  8
0
  6
CONTINUOUS
 62
     1
 10
42.85
 20
138.05
 30
0.0
 11
42.85
 21
138.15
 31
0.0
  0
LINE
  8
0
  6
CONTINUOUS
 62
     1
 10
42.252501001
 20
137.752501001
 30
0.0
 11
42.25
 21
133.755002002
 31
0.0
  0
LINE
  8
0
  6
CONTINUOUS
 62
     1
 10
42.75
 20
133.755002002
 30
0.0
 11
42.75
 21
137.770491503
 31
0.0
  0
LINE
  8
0
  6
CONTINUOUS
 62
     1
 10
36.25
 20
139.75
 30
0.0
 11
40.643844699
 21
139.734834957
 31
0.0
  0
LINE
  8
0
  6
CONTINUOUS
 62
     1
 10
44.356887169
 20
139.740009534
 30
0.0
 11
48.744343664
 21
139.734157555
 31
0.0
  0
LINE
  8
0
  6
CONTINUOUS
 62
     1
 10
43.629176487
 20
138.50314147
 30
0.0
 11
46.727438753
 21
135.396603255
 31
0.0
  0
LINE
  8
0
  6
CONTINUOUS
 62
     1
 10
47.080992144
 20
135.750156646
 30
0.0
 11
43.990432842
 21
138.862355528
 31
0.0
  0
LINE
  8
0
  6
CONTINUOUS
 62
     1
 10
38.257359313
 20
135.403805922
 30
0.0
 11
41.375
 21
138.5
 31
0.0
  0
LINE
  8
0
  6
CONTINUOUS
 62
     1
 10
41.01221571
 20
138.858893998
 30
0.0
 11
37.913618903
 21
135.754106875
 31
0.0
  0
CIRCLE
  8
0
  6
CONTINUOUS
 62
     1
 10
40.913243114
 20
136.159874948
 30
0.0
 40
0.5
  0
CIRCLE
  8
0
  6
CONTINUOUS
 62
     1
 10
38.66469501
 20
138.404301584
 30
0.0
 40
0.5
  0
CIRCLE
  8
0
  6
CONTINUOUS
 62
     1
 10
44.086756886
 20
136.159874948
 30
0.0
 40
0.5
  0
CIRCLE
  8
0
  6
CONTINUOUS
 62
     1
 10
46.33530499
 20
138.404301584
 30
0.0
 40
0.5
  0
LINE
  8
0
  6
CONTINUOUS
 62
     1
 10
36.25
 20
140.25
 30
0.0
 11
40.643844699
 21
140.265165043
 31
0.0
  0
LINE
  8
0
  6
CONTINUOUS
 62
     1
 10
38.257359313
 20
144.596194078
 30
0.0
 11
41.375
 21
141.5
 31
0.0
  0
LINE
  8
0
  6
CONTINUOUS
 62
     1
 10
41.01221571
 20
141.141106002
 30
0.0
 11
37.913618903
 21
144.245893125
 31
0.0
  0
CIRCLE
  8
0
  6
CONTINUOUS
 62
     1
 10
40.913243114
 20
143.840125052
 30
0.0
 40
0.5
  0
CIRCLE
  8
0
  6
CONTINUOUS
 62
     1
 10
38.66469501
 20
141.595698416
 30
0.0
 40
0.5
  0
LINE
  8
0
  6
CONTINUOUS
 62
     1
 10
44.356887169
 20
140.259990466
 30
0.0
 11
48.744343664
 21
140.265842445
 31
0.0
  0
LINE
  8
0
  6
CONTINUOUS
 62
     1
 10
43.629176487
 20
141.49685853
 30
0.0
 11
46.727438753
 21
144.603396745
 31
0.0
  0
LINE
  8
0
  6
CONTINUOUS
 62
     1
 10
47.080992144
 20
144.249843354
 30
0.0
 11
43.990432842
 21
141.137644472
 31
0.0
  0
CIRCLE
  8
0
  6
CONTINUOUS
 62
     1
 10
44.086756886
 20
143.840125052
 30
0.0
 40
0.5
  0
CIRCLE
  8
0
  6
CONTINUOUS
 62
     1
 10
46.33530499
 20
141.595698416
 30
0.0
 40
0.5
  0
LINE
  8
0
  6
CONTINUOUS
 62
     1
 10
42.25
 20
146.244997998
 30
0.0
 11
42.234834957
 21
141.856155301
 31
0.0
  0
LINE
  8
0
  6
CONTINUOUS
 62
     1
 10
42.75
 20
146.244997998
 30
0.0
 11
42.76824283
 21
141.855713012
 31
0.0
  0
LINE
  8
0
  6
CONTINUOUS
 62
     1
 10
80.0
 20
159.5
 30
0.0
 11
80.0
 21
120.5
 31
0.0
  0
LINE
  8
0
  6
CONTINUOUS
 62
     1
 10
80.3
 20
153.25
 30
0.0
 11
80.3
 21
140.0
 31
0.0
  0
LINE
  8
0
  6
CONTINUOUS
 62
     1
 10
84.0
 20
153.75
 30
0.0
 11
84.0
 21
159.5
 31
0.0
  0
LINE
  8
0
  6
CONTINUOUS
 62
     1
 10
80.0
 20
153.25
 30
0.0
 11
83.5
 21
153.25
 31
0.0
  0
ARC
  8
0
  6
CONTINUOUS
 62
     1
 10
83.5
 20
153.75
 30
0.0
 40
0.5
 50
270.0
 51
0.0
  0
LINE
  8
0
  6
CONTINUOUS
 62
     1
 10
81.5
 20
146.5
 30
0.0
 11
82.7
 21
146.5
 31
0.0
  0
LINE
  8
0
  6
CONTINUOUS
 62
     1
 10
82.7
 20
146.5
 30
0.0
 11
82.7
 21
149.5
 31
0.0
  0
LINE
  8
0
  6
CONTINUOUS
 62
     1
 10
82.7
 20
149.5
 30
0.0
 11
81.5
 21
149.5
 31
0.0
  0
LINE
  8
0
  6
CONTINUOUS
 62
     1
 10
81.5
 20
149.5
 30
0.0
 11
81.5
 21
146.5
 31
0.0
  0
LINE
  8
0
  6
CONTINUOUS
 62
     1
 10
80.3
 20
126.75
 30
0.0
 11
80.3
 21
140.0
 31
0.0
  0
LINE
  8
0
  6
CONTINUOUS
 62
     1
 10
84.0
 20
126.25
 30
0.0
 11
84.0
 21
120.5
 31
0.0
  0
LINE
  8
0
  6
CONTINUOUS
 62
     1
 10
80.0
 20
126.75
 30
0.0
 11
83.5
 21
126.75
 31
0.0
  0
ARC
  8
0
  6
CONTINUOUS
 62
     1
 10
83.5
 20
126.25
 30
0.0
 40
0.5
 50
0.0
 51
90.0
  0
LINE
  8
0
  6
CONTINUOUS
 62
     1
 10
81.5
 20
133.5
 30
0.0
 11
82.7
 21
133.5
 31
0.0
  0
LINE
  8
0
  6
CONTINUOUS
 62
     1
 10
82.7
 20
133.5
 30
0.0
 11
82.7
 21
130.5
 31
0.0
  0
LINE
  8
0
  6
CONTINUOUS
 62
     1
 10
82.7
 20
130.5
 30
0.0
 11
81.5
 21
130.5
 31
0.0
  0
LINE
  8
0
  6
CONTINUOUS
 62
     1
 10
81.5
 20
130.5
 30
0.0
 11
81.5
 21
133.5
 31
0.0
  0
LINE
  8
0
  6
CONTINUOUS
 62
     1
 10
80.0
 20
144.340125052
 30
0.0
 11
77.0
 21
144.340125052
 31
0.0
  0
LINE
  8
0
  6
CONTINUOUS
 62
     1
 10
80.0
 20
143.340125052
 30
0.0
 11
77.0
 21
143.340125052
 31
0.0
  0
ARC
  8
0
  6
CONTINUOUS
 62
     1
 10
77.0
 20
143.840125052
 30
0.0
 40
0.5
 50
90.0
 51
270.0
  0
LINE
  8
0
  6
CONTINUOUS
 62
     1
 10
80.0
 20
142.095698416
 30
0.0
 11
77.0
 21
142.095698416
 31
0.0
  0
LINE
  8
0
  6
CONTINUOUS
 62
     1
 10
80.0
 20
141.095698416
 30
0.0
 11
77.0
 21
141.095698416
 31
0.0
  0
ARC
  8
0
  6
CONTINUOUS
 62
     1
 10
77.0
 20
141.595698416
 30
0.0
 40
0.5
 50
90.0
 51
270.0
  0
LINE
  8
0
  6
CONTINUOUS
 62
     1
 10
75.0
 20
140.0
 30
0.0
 11
75.0
 21
141.395698416
 31
0.0
  0
LINE
  8
0
  6
CONTINUOUS
 62
     1
 10
75.2
 20
141.595698416
 30
0.0
 11
76.5
 21
141.595698416
 31
0.0
  0
ARC
  8
0
  6
CONTINUOUS
 62
     1
 10
75.2
 20
141.395698416
 30
0.0
 40
0.2
 50
90.0
 51
180.0
  0
LINE
  8
0
  6
CONTINUOUS
 62
     1
 10
80.0
 20
135.659874948
 30
0.0
 11
77.0
 21
135.659874948
 31
0.0
  0
LINE
  8
0
  6
CONTINUOUS
 62
     1
 10
80.0
 20
136.659874948
 30
0.0
 11
77.0
 21
136.659874948
 31
0.0
  0
ARC
  8
0
  6
CONTINUOUS
 62
     1
 10
77.0
 20
136.159874948
 30
0.0
 40
0.5
 50
90.0
 51
270.0
  0
LINE
  8
0
  6
CONTINUOUS
 62
     1
 10
80.0
 20
137.904301584
 30
0.0
 11
77.0
 21
137.904301584
 31
0.0
  0
LINE
  8
0
  6
CONTINUOUS
 62
     1
 10
80.0
 20
138.904301584
 30
0.0
 11
77.0
 21
138.904301584
 31
0.0
  0
ARC
  8
0
  6
CONTINUOUS
 62
     1
 10
77.0
 20
138.404301584
 30
0.0
 40
0.5
 50
90.0
 51
270.0
  0
LINE
  8
0
  6
CONTINUOUS
 62
     1
 10
75.0
 20
140.0
 30
0.0
 11
75.0
 21
138.604301584
 31
0.0
  0
LINE
  8
0
  6
CONTINUOUS
 62
     1
 10
75.2
 20
138.404301584
 30
0.0
 11
76.5
 21
138.404301584
 31
0.0
  0
ARC
  8
0
  6
CONTINUOUS
 62
     1
 10
75.2
 20
138.604301584
 30
0.0
 40
0.2
 50
180.0
 51
270.0
  0
POINT
  8
0
  6
CONTINUOUS
 62
     1
 10
76.0
 20
138.404301584
 30
0.0
  0
LINE
  8
0
  6
CONTINUOUS
 62
     1
 10
76.0
 20
138.404301584
 30
0.0
 11
76.02
 21
138.204301584
 31
0.0
  0
LINE
  8
0
  6
CONTINUOUS
 62
     1
 10
76.02
 20
138.204301584
 30
0.0
 11
76.1
 21
138.104301584
 31
0.0
  0
LINE
  8
0
  6
CONTINUOUS
 62
     1
 10
76.1
 20
138.104301584
 30
0.0
 11
76.29
 21
137.974301584
 31
0.0
  0
LINE
  8
0
  6
CONTINUOUS
 62
     1
 10
76.29
 20
137.974301584
 30
0.0
 11
76.7
 21
137.954301584
 31
0.0
  0
LINE
  8
0
  6
CONTINUOUS
 62
     1
 10
76.7
 20
137.954301584
 30
0.0
 11
76.93
 21
137.954301584
 31
0.0
  0
TEXT
  8
0
  6
CONTINUOUS
 62
     1
 10
43.1
 20
136.8
 30
0.0
 40
1.2
  1
８
 50
0.0
 41
0.9
 51
0.0
  7
KANJI1
  0
TEXT
  8
0
  6
CONTINUOUS
 62
     1
 10
44.6
 20
138.3
 30
0.0
 40
1.2
  1
７
 50
0.0
 41
0.9
 51
0.0
  7
KANJI1
  0
TEXT
  8
0
  6
CONTINUOUS
 62
     1
 10
44.6
 20
140.5
 30
0.0
 40
1.2
  1
６
 50
0.0
 41
0.9
 51
0.0
  7
KANJI1
  0
TEXT
  8
0
  6
CONTINUOUS
 62
     1
 10
43.0
 20
142.1
 30
0.0
 40
1.2
  1
５
 50
0.0
 41
0.9
 51
0.0
  7
KANJI1
  0
TEXT
  8
0
  6
CONTINUOUS
 62
     1
 10
40.9
 20
142.1
 30
0.0
 40
1.2
  1
４
 50
0.0
 41
0.9
 51
0.0
  7
KANJI1
  0
TEXT
  8
0
  6
CONTINUOUS
 62
     1
 10
39.4
 20
140.5
 30
0.12
 40
1.2
  1
３
 50
0.0
 41
0.9
 51
0.0
  7
KANJI2
  0
TEXT
  8
0
  6
CONTINUOUS
 62
     1
 10
39.3
 20
138.4
 30
0.0
 40
1.2
  1
２
 50
0.0
 41
0.9
 51
0.0
  7
KANJI1
  0
TEXT
  8
0
  6
CONTINUOUS
 62
     1
 10
40.9
 20
136.8
 30
0.0
 40
1.2
  1
１
 50
0.0
 41
0.9
 51
0.0
  7
KANJI1
  0
LINE
  8
0
  6
CONTINUOUS
 62
     1
 10
80.0
 20
159.5
 30
0.0
 11
130.0
 21
159.5
 31
0.0
  0
LINE
  8
0
  6
CONTINUOUS
 62
     1
 10
80.0
 20
120.5
 30
0.0
 11
130.0
 21
120.5
 31
0.0
  0
LINE
  8
0
  6
CONTINUOUS
 62
     1
 10
130.0
 20
120.5
 30
0.0
 11
130.0
 21
159.5
 31
0.0
  0
LINE
  8
0
  6
CONTINUOUS
 62
     1
 10
150.0
 20
73.5
 30
0.0
 11
200.0
 21
73.5
 31
0.0
  0
LINE
  8
0
  6
CONTINUOUS
 62
     1
 10
150.0
 20
34.5
 30
0.0
 11
200.0
 21
34.5
 31
0.0
  0
LINE
  8
0
  6
CONTINUOUS
 62
     1
 10
200.0
 20
34.5
 30
0.0
 11
200.0
 21
73.5
 31
0.0
  0
LINE
  8
0
  6
CONTINUOUS
 62
     2
 10
0.0
 20
-40120293990291103000000000000000000000000000000000000.0
 30
0.0
 11
-2.414814566
 21
-40120293990291103000000000000000000000000000000000000.0
 31
0.0
  0
LINE
  8
0
  6
CONTINUOUS
 62
     2
 10
0.0
 20
-40120293990291103000000000000000000000000000000000000.0
 30
0.0
 11
-2.414814566
 21
-40120293990291103000000000000000000000000000000000000.0
 31
0.0
  0
POINT
  8
0
  6
CONTINUOUS
 62
     2
 10
-913584205445739770000000000000000000000000000000000000000000000000000000000000000.0
 20
-4656443568210321400000000000000000000000000000000000000000000000000000000000000000000000000000000000000000000000000000000000000000.0
 30
0.0
  0
POINT
  8
0
  6
CONTINUOUS
 62
     2
 10
-913584205445739770000000000000000000000000000000000000000000000000000000000000000.0
 20
-4656443568210321400000000000000000000000000000000000000000000000000000000000000000000000000000000000000000000000000000000000000000.0
 30
0.0
  0
POINT
  8
0
  6
CONTINUOUS
 62
     2
 10
-913584205445740290000000000000000000000000000000000000000000000000000000000000000.0
 20
42150867100155799000000000000000000000000000000000000000000000000000000000000000000000000000000000000000000000000000000000000000000000000000000000000000000000000000000000000.0
 30
0.0
  0
POINT
  8
0
  6
CONTINUOUS
 62
     2
 10
-913584205445740290000000000000000000000000000000000000000000000000000000000000000.0
 20
42150867100155799000000000000000000000000000000000000000000000000000000000000000000000000000000000000000000000000000000000000000000000000000000000000000000000000000000000000.0
 30
0.0
  0
POINT
  8
0
  6
CONTINUOUS
 62
     2
 10
-913584205445740290000000000000000000000000000000000000000000000000000000000000000.0
 20
42150867100155799000000000000000000000000000000000000000000000000000000000000000000000000000000000000000000000000000000000000000000000000000000000000000000000000000000000000.0
 30
0.0
  0
POINT
  8
0
  6
CONTINUOUS
 62
     2
 10
-913584205445740290000000000000000000000000000000000000000000000000000000000000000.0
 20
42150867100155799000000000000000000000000000000000000000000000000000000000000000000000000000000000000000000000000000000000000000000000000000000000000000000000000000000000000.0
 30
0.0
  0
LINE
  8
0
  6
CONTINUOUS
 62
     2
 10
156.9
 20
-4012029399029110300000000000000000000000000000000000.0
 30
0.0
 11
156.658518543
 21
-4012029399029110300000000000000000000000000000000000.0
 31
0.0
  0
LINE
  8
0
  6
CONTINUOUS
 62
     2
 10
156.9
 20
-4012029399029110300000000000000000000000000000000000.0
 30
0.0
 11
156.658518543
 21
-4012029399029110300000000000000000000000000000000000.0
 31
0.0
  0
POINT
  8
0
  6
CONTINUOUS
 62
     2
 10
-91358420544573977000000000000000000000000000000000000000000000000000000000000000.0
 20
-465644356821032180000000000000000000000000000000000000000000000000000000000000000000000000000000000000000000000000000000000000000.0
 30
0.0
  0
POINT
  8
0
  6
CONTINUOUS
 62
     2
 10
-91358420544573977000000000000000000000000000000000000000000000000000000000000000.0
 20
-465644356821032180000000000000000000000000000000000000000000000000000000000000000000000000000000000000000000000000000000000000000.0
 30
0.0
  0
POINT
  8
0
  6
CONTINUOUS
 62
     2
 10
-91358420544574029000000000000000000000000000000000000000000000000000000000000000.0
 20
4215086710015580100000000000000000000000000000000000000000000000000000000000000000000000000000000000000000000000000000000000000000000000000000000000000000000000000000000000.0
 30
0.0
  0
POINT
  8
0
  6
CONTINUOUS
 62
     2
 10
-91358420544574029000000000000000000000000000000000000000000000000000000000000000.0
 20
4215086710015580100000000000000000000000000000000000000000000000000000000000000000000000000000000000000000000000000000000000000000000000000000000000000000000000000000000000.0
 30
0.0
  0
POINT
  8
0
  6
CONTINUOUS
 62
     2
 10
-91358420544574029000000000000000000000000000000000000000000000000000000000000000.0
 20
4215086710015580100000000000000000000000000000000000000000000000000000000000000000000000000000000000000000000000000000000000000000000000000000000000000000000000000000000000.0
 30
0.0
  0
POINT
  8
0
  6
CONTINUOUS
 62
     2
 10
-91358420544574029000000000000000000000000000000000000000000000000000000000000000.0
 20
4215086710015580100000000000000000000000000000000000000000000000000000000000000000000000000000000000000000000000000000000000000000000000000000000000000000000000000000000000.0
 30
0.0
  0
LINE
  8
0
  6
CONTINUOUS
 62
     2
 10
154.8
 20
-4012029399029110300000000000000000000000000000000000.0
 30
0.0
 11
154.558518543
 21
-4012029399029110300000000000000000000000000000000000.0
 31
0.0
  0
LINE
  8
0
  6
CONTINUOUS
 62
     2
 10
154.8
 20
-4012029399029110300000000000000000000000000000000000.0
 30
0.0
 11
154.558518543
 21
-4012029399029110300000000000000000000000000000000000.0
 31
0.0
  0
POINT
  8
0
  6
CONTINUOUS
 62
     2
 10
-91358420544573977000000000000000000000000000000000000000000000000000000000000000.0
 20
-465644356821032180000000000000000000000000000000000000000000000000000000000000000000000000000000000000000000000000000000000000000.0
 30
0.0
  0
POINT
  8
0
  6
CONTINUOUS
 62
     2
 10
-91358420544573977000000000000000000000000000000000000000000000000000000000000000.0
 20
-465644356821032180000000000000000000000000000000000000000000000000000000000000000000000000000000000000000000000000000000000000000.0
 30
0.0
  0
POINT
  8
0
  6
CONTINUOUS
 62
     2
 10
-91358420544574029000000000000000000000000000000000000000000000000000000000000000.0
 20
4215086710015580100000000000000000000000000000000000000000000000000000000000000000000000000000000000000000000000000000000000000000000000000000000000000000000000000000000000.0
 30
0.0
  0
POINT
  8
0
  6
CONTINUOUS
 62
     2
 10
-91358420544574029000000000000000000000000000000000000000000000000000000000000000.0
 20
4215086710015580100000000000000000000000000000000000000000000000000000000000000000000000000000000000000000000000000000000000000000000000000000000000000000000000000000000000.0
 30
0.0
  0
POINT
  8
0
  6
CONTINUOUS
 62
     2
 10
-91358420544574029000000000000000000000000000000000000000000000000000000000000000.0
 20
4215086710015580100000000000000000000000000000000000000000000000000000000000000000000000000000000000000000000000000000000000000000000000000000000000000000000000000000000000.0
 30
0.0
  0
POINT
  8
0
  6
CONTINUOUS
 62
     2
 10
-91358420544574029000000000000000000000000000000000000000000000000000000000000000.0
 20
4215086710015580100000000000000000000000000000000000000000000000000000000000000000000000000000000000000000000000000000000000000000000000000000000000000000000000000000000000.0
 30
0.0
  0
LINE
  8
0
  6
CONTINUOUS
 62
     2
 10
156.1
 20
-4012029399029110300000000000000000000000000000000000.0
 30
0.0
 11
155.858518543
 21
-4012029399029110300000000000000000000000000000000000.0
 31
0.0
  0
LINE
  8
0
  6
CONTINUOUS
 62
     2
 10
156.1
 20
-4012029399029110300000000000000000000000000000000000.0
 30
0.0
 11
155.858518543
 21
-4012029399029110300000000000000000000000000000000000.0
 31
0.0
  0
POINT
  8
0
  6
CONTINUOUS
 62
     2
 10
-91358420544573977000000000000000000000000000000000000000000000000000000000000000.0
 20
-465644356821032180000000000000000000000000000000000000000000000000000000000000000000000000000000000000000000000000000000000000000.0
 30
0.0
  0
POINT
  8
0
  6
CONTINUOUS
 62
     2
 10
-91358420544573977000000000000000000000000000000000000000000000000000000000000000.0
 20
-465644356821032180000000000000000000000000000000000000000000000000000000000000000000000000000000000000000000000000000000000000000.0
 30
0.0
  0
POINT
  8
0
  6
CONTINUOUS
 62
     2
 10
-91358420544574029000000000000000000000000000000000000000000000000000000000000000.0
 20
4215086710015580100000000000000000000000000000000000000000000000000000000000000000000000000000000000000000000000000000000000000000000000000000000000000000000000000000000000.0
 30
0.0
  0
POINT
  8
0
  6
CONTINUOUS
 62
     2
 10
-91358420544574029000000000000000000000000000000000000000000000000000000000000000.0
 20
4215086710015580100000000000000000000000000000000000000000000000000000000000000000000000000000000000000000000000000000000000000000000000000000000000000000000000000000000000.0
 30
0.0
  0
POINT
  8
0
  6
CONTINUOUS
 62
     2
 10
-91358420544574029000000000000000000000000000000000000000000000000000000000000000.0
 20
4215086710015580100000000000000000000000000000000000000000000000000000000000000000000000000000000000000000000000000000000000000000000000000000000000000000000000000000000000.0
 30
0.0
  0
POINT
  8
0
  6
CONTINUOUS
 62
     2
 10
-91358420544574029000000000000000000000000000000000000000000000000000000000000000.0
 20
4215086710015580100000000000000000000000000000000000000000000000000000000000000000000000000000000000000000000000000000000000000000000000000000000000000000000000000000000000.0
 30
0.0
  0
LINE
  8
0
  6
CONTINUOUS
 62
     2
 10
171.79
 20
-401202939902911030000000000000000000000000000000000.0
 30
0.0
 11
171.765851854
 21
-401202939902911030000000000000000000000000000000000.0
 31
0.0
  0
LINE
  8
0
  6
CONTINUOUS
 62
     2
 10
171.79
 20
-401202939902911030000000000000000000000000000000000.0
 30
0.0
 11
171.765851854
 21
-401202939902911030000000000000000000000000000000000.0
 31
0.0
  0
POINT
  8
0
  6
CONTINUOUS
 62
     2
 10
-9135842054457398600000000000000000000000000000000000000000000000000000000000000.0
 20
-46564435682103218000000000000000000000000000000000000000000000000000000000000000000000000000000000000000000000000000000000000000.0
 30
0.0
  0
POINT
  8
0
  6
CONTINUOUS
 62
     2
 10
-9135842054457398600000000000000000000000000000000000000000000000000000000000000.0
 20
-46564435682103218000000000000000000000000000000000000000000000000000000000000000000000000000000000000000000000000000000000000000.0
 30
0.0
  0
POINT
  8
0
  6
CONTINUOUS
 62
     2
 10
-9135842054457403600000000000000000000000000000000000000000000000000000000000000.0
 20
421508671001558020000000000000000000000000000000000000000000000000000000000000000000000000000000000000000000000000000000000000000000000000000000000000000000000000000000000.0
 30
0.0
  0
POINT
  8
0
  6
CONTINUOUS
 62
     2
 10
-9135842054457403600000000000000000000000000000000000000000000000000000000000000.0
 20
421508671001558020000000000000000000000000000000000000000000000000000000000000000000000000000000000000000000000000000000000000000000000000000000000000000000000000000000000.0
 30
0.0
  0
POINT
  8
0
  6
CONTINUOUS
 62
     2
 10
-9135842054457403600000000000000000000000000000000000000000000000000000000000000.0
 20
421508671001558020000000000000000000000000000000000000000000000000000000000000000000000000000000000000000000000000000000000000000000000000000000000000000000000000000000000.0
 30
0.0
  0
POINT
  8
0
  6
CONTINUOUS
 62
     2
 10
-9135842054457403600000000000000000000000000000000000000000000000000000000000000.0
 20
421508671001558020000000000000000000000000000000000000000000000000000000000000000000000000000000000000000000000000000000000000000000000000000000000000000000000000000000000.0
 30
0.0
  0
LINE
  8
0
  6
CONTINUOUS
 62
     2
 10
171.58
 20
-401202939902911030000000000000000000000000000000000.0
 30
0.0
 11
171.555851854
 21
-401202939902911030000000000000000000000000000000000.0
 31
0.0
  0
LINE
  8
0
  6
CONTINUOUS
 62
     2
 10
171.58
 20
-401202939902911030000000000000000000000000000000000.0
 30
0.0
 11
171.555851854
 21
-401202939902911030000000000000000000000000000000000.0
 31
0.0
  0
POINT
  8
0
  6
CONTINUOUS
 62
     2
 10
-9135842054457398600000000000000000000000000000000000000000000000000000000000000.0
 20
-46564435682103218000000000000000000000000000000000000000000000000000000000000000000000000000000000000000000000000000000000000000.0
 30
0.0
  0
POINT
  8
0
  6
CONTINUOUS
 62
     2
 10
-9135842054457398600000000000000000000000000000000000000000000000000000000000000.0
 20
-46564435682103218000000000000000000000000000000000000000000000000000000000000000000000000000000000000000000000000000000000000000.0
 30
0.0
  0
POINT
  8
0
  6
CONTINUOUS
 62
     2
 10
-9135842054457403600000000000000000000000000000000000000000000000000000000000000.0
 20
421508671001558020000000000000000000000000000000000000000000000000000000000000000000000000000000000000000000000000000000000000000000000000000000000000000000000000000000000.0
 30
0.0
  0
POINT
  8
0
  6
CONTINUOUS
 62
     2
 10
-9135842054457403600000000000000000000000000000000000000000000000000000000000000.0
 20
421508671001558020000000000000000000000000000000000000000000000000000000000000000000000000000000000000000000000000000000000000000000000000000000000000000000000000000000000.0
 30
0.0
  0
POINT
  8
0
  6
CONTINUOUS
 62
     2
 10
-9135842054457403600000000000000000000000000000000000000000000000000000000000000.0
 20
421508671001558020000000000000000000000000000000000000000000000000000000000000000000000000000000000000000000000000000000000000000000000000000000000000000000000000000000000.0
 30
0.0
  0
POINT
  8
0
  6
CONTINUOUS
 62
     2
 10
-9135842054457403600000000000000000000000000000000000000000000000000000000000000.0
 20
421508671001558020000000000000000000000000000000000000000000000000000000000000000000000000000000000000000000000000000000000000000000000000000000000000000000000000000000000.0
 30
0.0
  0
LINE
  8
0
  6
CONTINUOUS
 62
     2
 10
45.0
 20
73.5
 30
0.0
 11
45.0
 21
90.0
 31
0.0
  0
LINE
  8
0
  6
CONTINUOUS
 62
     2
 10
45.0
 20
88.0
 30
0.0
 11
47.414814566
 21
87.352952387
 31
0.0
  0
LINE
  8
0
  6
CONTINUOUS
 62
     2
 10
45.0
 20
88.0
 30
0.0
 11
47.414814566
 21
88.647047613
 31
0.0
  0
LINE
  8
0
  6
CONTINUOUS
 62
     2
 10
45.0
 20
88.0
 30
0.0
 11
70.0
 21
88.0
 31
0.0
  0
LINE
  8
0
  6
CONTINUOUS
 62
     2
 10
70.0
 20
88.0
 30
0.0
 11
67.585185434
 21
88.647047613
 31
0.0
  0
LINE
  8
0
  6
CONTINUOUS
 62
     2
 10
70.0
 20
88.0
 30
0.0
 11
67.585185434
 21
87.352952387
 31
0.0
  0
LINE
  8
0
  6
CONTINUOUS
 62
     2
 10
70.0
 20
73.5
 30
0.0
 11
70.0
 21
90.0
 31
0.0
  0
TEXT
  8
0
  6
CONTINUOUS
 62
     2
 10
55.25
 20
89.0
 30
0.5
 40
3.0
  1
５０
 50
0.0
 41
0.666666667
 51
0.0
  7
KANJI3
  0
LINE
  8
0
  6
CONTINUOUS
 62
     2
 10
47.5
 20
83.0
 30
0.0
 11
49.914814566
 21
82.352952387
 31
0.0
  0
LINE
  8
0
  6
CONTINUOUS
 62
     2
 10
47.5
 20
83.0
 30
0.0
 11
49.914814566
 21
83.647047613
 31
0.0
  0
LINE
  8
0
  6
CONTINUOUS
 62
     2
 10
47.5
 20
83.0
 30
0.0
 11
67.5
 21
83.0
 31
0.0
  0
LINE
  8
0
  6
CONTINUOUS
 62
     2
 10
67.5
 20
83.0
 30
0.0
 11
65.085185434
 21
83.647047613
 31
0.0
  0
LINE
  8
0
  6
CONTINUOUS
 62
     2
 10
67.5
 20
83.0
 30
0.0
 11
65.085185434
 21
82.352952387
 31
0.0
  0
TEXT
  8
0
  6
CONTINUOUS
 62
     2
 10
52.4
 20
84.0
 30
0.5
 40
3.0
  1
４０
 50
0.0
 41
0.666666667
 51
0.0
  7
KANJI3
  0
TEXT
  8
0
  6
CONTINUOUS
 62
     2
 10
56.9
 20
84.0
 30
0.3
 40
1.8
  1
±０．２
 50
0.0
 41
0.666666667
 51
0.0
  7
KANJI4
  0
LINE
  8
0
  6
CONTINUOUS
 62
     2
 10
50.75
 20
34.0
 30
0.0
 11
28.0
 21
34.0
 31
0.0
  0
LINE
  8
0
  6
CONTINUOUS
 62
     2
 10
30.0
 20
34.0
 30
0.0
 11
30.647047613
 21
36.414814566
 31
0.0
  0
LINE
  8
0
  6
CONTINUOUS
 62
     2
 10
30.0
 20
74.0
 30
0.0
 11
29.352952387
 21
71.585185434
 31
0.0
  0
LINE
  8
0
  6
CONTINUOUS
 62
     2
 10
30.0
 20
74.0
 30
0.0
 11
30.647047613
 21
71.585185434
 31
0.0
  0
LINE
  8
0
  6
CONTINUOUS
 62
     2
 10
54.9
 20
74.0
 30
0.0
 11
28.0
 21
74.0
 31
0.0
  0
TEXT
  8
0
  6
CONTINUOUS
 62
     2
 10
29.0
 20
51.75
 30
0.5
 40
3.0
  1
８０
 50
90.0
 41
0.666666667
 51
0.0
  7
KANJI3
  0
LINE
  8
0
  6
CONTINUOUS
 62
     2
 10
30.0
 20
34.0
 30
0.0
 11
29.352952387
 21
36.414814566
 31
0.0
  0
LINE
  8
0
  6
CONTINUOUS
 62
     2
 10
30.0
 20
32.0
 30
0.0
 11
29.352952387
 21
29.585185434
 31
0.0
  0
LINE
  8
0
  6
CONTINUOUS
 62
     2
 10
30.0
 20
32.0
 30
0.0
 11
30.647047613
 21
29.585185434
 31
0.0
  0
LINE
  8
0
  6
CONTINUOUS
 62
     2
 10
55.75
 20
32.0
 30
0.0
 11
28.0
 21
32.0
 31
0.0
  0
TEXT
  8
0
  6
CONTINUOUS
 62
     2
 10
29.0
 20
27.0
 30
0.5
 40
3.0
  1
４
 50
90.0
 41
0.666666667
 51
0.0
  7
KANJI3
  0
LINE
  8
0
  6
CONTINUOUS
 62
     2
 10
30.0
 20
27.0
 30
0.0
 11
30.0
 21
74.0
 31
0.0
  0
LINE
  8
0
  6
LTYPE1
 62
     2
 10
40.0
 20
54.0
 30
0.0
 11
75.0
 21
54.0
 31
0.0
  0
LINE
  8
0
  6
LTYPE1
 62
     2
 10
47.5
 20
49.0
 30
0.0
 11
47.5
 21
59.0
 31
0.0
  0
LINE
  8
0
  6
LTYPE1
 62
     2
 10
67.5
 20
49.0
 30
0.0
 11
67.5
 21
59.0
 31
0.0
  0
LINE
  8
0
  6
CONTINUOUS
 62
     2
 10
47.5
 20
59.0
 30
0.0
 11
47.5
 21
85.0
 31
0.0
  0
LINE
  8
0
  6
CONTINUOUS
 62
     2
 10
67.5
 20
59.0
 30
0.0
 11
67.5
 21
85.0
 31
0.0
  0
LINE
  8
0
  6
LTYPE1
 62
     2
 10
57.5
 20
27.0
 30
0.0
 11
57.5
 21
79.0
 31
0.0
  0
LINE
  8
0
  6
CONTINUOUS
 62
     2
 10
68.3
 20
54.8
 30
0.0
 11
70.465063509
 21
56.05
 31
0.0
  0
LINE
  8
0
  6
CONTINUOUS
 62
     2
 10
68.3
 20
54.8
 30
0.0
 11
69.55
 21
56.965063509
 31
0.0
  0
LINE
  8
0
  6
CONTINUOUS
 62
     2
 10
74.0
 20
60.5
 30
0.0
 11
86.6
 21
60.5
 31
0.0
  0
TEXT
  8
0
  6
CONTINUOUS
 62
     2
 10
74.0
 20
61.5
 30
0.0
 40
3.0
  1
２－φ４．５穴
 50
0.0
 41
0.6
 51
0.0
  7
KANJI5
  0
LINE
  8
0
  6
CONTINUOUS
 62
     2
 10
68.3
 20
54.8
 30
0.0
 11
74.0
 21
60.5
 31
0.0
  0
LINE
  8
0
  6
CONTINUOUS
 62
     2
 10
66.75
 20
39.45
 30
0.0
 11
67.406041267
 21
37.037613245
 31
0.0
  0
LINE
  8
0
  6
CONTINUOUS
 62
     2
 10
66.75
 20
39.45
 30
0.0
 11
68.52434178
 21
37.68883242
 31
0.0
  0
LINE
  8
0
  6
CONTINUOUS
 62
     2
 10
66.75
 20
39.45
 30
0.0
 11
74.0
 21
27.0
 31
0.0
  0
TEXT
  8
0
  6
CONTINUOUS
 62
     2
 10
74.0
 20
28.0
 30
0.0
 40
3.0
  1
端子ネジ
 50
0.0
 41
0.9
 51
0.0
  7
KANJI6
  0
TEXT
  8
0
  6
CONTINUOUS
 62
     2
 10
86.5
 20
28.0
 30
0.0
 40
3.0
  1
Ｍ３．５
 50
0.0
 41
0.6
 51
0.0
  7
KANJI5
  0
LINE
  8
0
  6
CONTINUOUS
 62
     2
 10
74.0
 20
27.0
 30
0.0
 11
94.0
 21
27.0
 31
0.0
  0
LINE
  8
0
  6
CONTINUOUS
 62
     2
 10
20.0
 20
105.0
 30
0.0
 11
215.0
 21
105.0
 31
0.0
  0
LINE
  8
0
  6
CONTINUOUS
 62
     2
 10
90.0
 20
61.7
 30
0.0
 11
90.0
 21
90.0
 31
0.0
  0
LINE
  8
0
  6
CONTINUOUS
 62
     2
 10
90.0
 20
88.0
 30
0.0
 11
92.414814566
 21
87.352952387
 31
0.0
  0
LINE
  8
0
  6
CONTINUOUS
 62
     2
 10
90.0
 20
88.0
 30
0.0
 11
92.414814566
 21
88.647047613
 31
0.0
  0
LINE
  8
0
  6
CONTINUOUS
 62
     2
 10
90.0
 20
88.0
 30
0.0
 11
101.75
 21
88.0
 31
0.0
  0
LINE
  8
0
  6
CONTINUOUS
 62
     2
 10
101.75
 20
88.0
 30
0.0
 11
99.335185434
 21
88.647047613
 31
0.0
  0
LINE
  8
0
  6
CONTINUOUS
 62
     2
 10
101.75
 20
88.0
 30
0.0
 11
99.335185434
 21
87.352952387
 31
0.0
  0
LINE
  8
0
  6
CONTINUOUS
 62
     2
 10
101.75
 20
73.5
 30
0.0
 11
101.75
 21
90.0
 31
0.0
  0
TEXT
  8
0
  6
CONTINUOUS
 62
     2
 10
91.125
 20
89.0
 30
0.5
 40
3.0
  1
２３．５
 50
0.0
 41
0.666666667
 51
0.0
  7
KANJI3
  0
LINE
  8
0
  6
CONTINUOUS
 62
     2
 10
90.0
 20
83.0
 30
0.0
 11
87.585185434
 21
83.647047613
 31
0.0
  0
LINE
  8
0
  6
CONTINUOUS
 62
     2
 10
90.0
 20
83.0
 30
0.0
 11
87.585185434
 21
82.352952387
 31
0.0
  0
LINE
  8
0
  6
CONTINUOUS
 62
     2
 10
92.5
 20
83.0
 30
0.0
 11
94.914814566
 21
82.352952387
 31
0.0
  0
LINE
  8
0
  6
CONTINUOUS
 62
     2
 10
92.5
 20
83.0
 30
0.0
 11
94.914814566
 21
83.647047613
 31
0.0
  0
LINE
  8
0
  6
CONTINUOUS
 62
     2
 10
92.5
 20
72.75
 30
0.0
 11
92.5
 21
85.0
 31
0.0
  0
LINE
  8
0
  6
CONTINUOUS
 62
     2
 10
101.75
 20
83.0
 30
0.0
 11
104.164814566
 21
82.352952387
 31
0.0
  0
LINE
  8
0
  6
CONTINUOUS
 62
     2
 10
101.75
 20
83.0
 30
0.0
 11
104.164814566
 21
83.647047613
 31
0.0
  0
LINE
  8
0
  6
CONTINUOUS
 62
     2
 10
99.75
 20
83.0
 30
0.0
 11
97.335185434
 21
83.647047613
 31
0.0
  0
LINE
  8
0
  6
CONTINUOUS
 62
     2
 10
99.75
 20
83.0
 30
0.0
 11
97.335185434
 21
82.352952387
 31
0.0
  0
LINE
  8
0
  6
CONTINUOUS
 62
     2
 10
99.75
 20
73.5
 30
0.0
 11
99.75
 21
85.0
 31
0.0
  0
LINE
  8
0
  6
CONTINUOUS
 62
     2
 10
85.0
 20
83.0
 30
0.0
 11
95.5
 21
83.0
 31
0.0
  0
LINE
  8
0
  6
CONTINUOUS
 62
     2
 10
106.75
 20
83.0
 30
0.0
 11
96.75
 21
83.0
 31
0.0
  0
TEXT
  8
0
  6
CONTINUOUS
 62
     2
 10
104.75
 20
84.0
 30
0.5
 40
3.0
  1
４
 50
0.0
 41
0.666666667
 51
0.0
  7
KANJI3
  0
TEXT
  8
0
  6
CONTINUOUS
 62
     2
 10
85.0
 20
84.0
 30
0.5
 40
3.0
  1
５
 50
0.0
 41
0.666666667
 51
0.0
  7
KANJI3
  0
LINE
  8
0
  6
CONTINUOUS
 62
     2
 10
102.25
 20
62.75
 30
0.0
 11
118.75
 21
62.75
 31
0.0
  0
LINE
  8
0
  6
CONTINUOUS
 62
     2
 10
116.75
 20
62.75
 30
0.0
 11
116.102952387
 21
60.335185434
 31
0.0
  0
LINE
  8
0
  6
CONTINUOUS
 62
     2
 10
116.75
 20
62.75
 30
0.0
 11
117.397047613
 21
60.335185434
 31
0.0
  0
LINE
  8
0
  6
CONTINUOUS
 62
     2
 10
116.75
 20
62.75
 30
0.0
 11
116.75
 21
45.25
 31
0.0
  0
LINE
  8
0
  6
CONTINUOUS
 62
     2
 10
116.75
 20
45.25
 30
0.0
 11
117.397047613
 21
47.664814566
 31
0.0
  0
LINE
  8
0
  6
CONTINUOUS
 62
     2
 10
116.75
 20
45.25
 30
0.0
 11
116.102952387
 21
47.664814566
 31
0.0
  0
LINE
  8
0
  6
CONTINUOUS
 62
     2
 10
102.25
 20
45.25
 30
0.0
 11
118.75
 21
45.25
 31
0.0
  0
TEXT
  8
0
  6
CONTINUOUS
 62
     2
 10
115.75
 20
49.25
 30
0.5
 40
3.0
  1
３５．４
 50
90.0
 41
0.666666667
 51
0.0
  7
KANJI3
  0
LINE
  8
0
  6
LTYPE1
 62
     2
 10
85.0
 20
54.0
 30
0.0
 11
106.75
 21
54.0
 31
0.0
  0
LINE
  8
0
  6
CONTINUOUS
 62
     2
 10
140.0
 20
83.0
 30
0.0
 11
142.414814566
 21
82.352952387
 31
0.0
  0
LINE
  8
0
  6
CONTINUOUS
 62
     2
 10
140.0
 20
83.0
 30
0.0
 11
142.414814566
 21
83.647047613
 31
0.0
  0
LINE
  8
0
  6
CONTINUOUS
 62
     2
 10
140.0
 20
83.0
 30
0.0
 11
200.0
 21
83.0
 31
0.0
  0
LINE
  8
0
  6
CONTINUOUS
 62
     2
 10
200.0
 20
83.0
 30
0.0
 11
197.585185434
 21
83.647047613
 31
0.0
  0
LINE
  8
0
  6
CONTINUOUS
 62
     2
 10
200.0
 20
83.0
 30
0.0
 11
197.585185434
 21
82.352952387
 31
0.0
  0
TEXT
  8
0
  6
CONTINUOUS
 62
     2
 10
161.5
 20
84.0
 30
0.5
 40
3.0
  1
ｍａｘ．１２２
 50
0.0
 41
0.666666667
 51
0.0
  7
KANJI3
  0
LINE
  8
0
  6
LTYPE1
 62
     2
 10
205.0
 20
54.0
 30
0.0
 11
130.0
 21
54.0
 31
0.0
  0
LINE
  8
0
  6
LTYPE1
 62
     2
 10
42.5
 20
164.5
 30
0.0
 11
42.5
 21
115.5
 31
0.0
  0
LINE
  8
0
  6
LTYPE1
 62
     2
 10
25.0
 20
140.0
 30
0.0
 11
60.0
 21
140.0
 31
0.0
  0
LINE
  8
0
  6
LTYPE1
 62
     2
 10
70.0
 20
140.0
 30
0.0
 11
135.0
 21
140.0
 31
0.0
  0
LINE
  8
0
  6
CONTINUOUS
 62
     2
 10
75.0
 20
141.895698416
 30
0.0
 11
75.0
 21
176.5
 31
0.0
  0
LINE
  8
0
  6
CONTINUOUS
 62
     2
 10
75.0
 20
174.5
 30
0.0
 11
77.414814566
 21
173.852952387
 31
0.0
  0
LINE
  8
0
  6
CONTINUOUS
 62
     2
 10
75.0
 20
174.5
 30
0.0
 11
77.414814566
 21
175.147047613
 31
0.0
  0
LINE
  8
0
  6
CONTINUOUS
 62
     2
 10
75.0
 20
174.5
 30
0.0
 11
130.0
 21
174.5
 31
0.0
  0
LINE
  8
0
  6
CONTINUOUS
 62
     2
 10
130.0
 20
174.5
 30
0.0
 11
127.585185434
 21
175.147047613
 31
0.0
  0
LINE
  8
0
  6
CONTINUOUS
 62
     2
 10
130.0
 20
174.5
 30
0.0
 11
127.585185434
 21
173.852952387
 31
0.0
  0
TEXT
  8
0
  6
CONTINUOUS
 62
     2
 10
99.0
 20
175.5
 30
0.5
 40
3.0
  1
１１０
 50
0.0
 41
0.666666667
 51
0.0
  7
KANJI3
  0
LINE
  8
0
  6
CONTINUOUS
 62
     2
 10
130.0
 20
169.5
 30
0.0
 11
127.585185434
 21
170.147047613
 31
0.0
  0
LINE
  8
0
  6
CONTINUOUS
 62
     2
 10
130.0
 20
169.5
 30
0.0
 11
127.585185434
 21
168.852952387
 31
0.0
  0
LINE
  8
0
  6
CONTINUOUS
 62
     2
 10
80.0
 20
169.5
 30
0.0
 11
82.414814566
 21
168.852952387
 31
0.0
  0
LINE
  8
0
  6
CONTINUOUS
 62
     2
 10
80.0
 20
160.0
 30
0.0
 11
80.0
 21
171.5
 31
0.0
  0
TEXT
  8
0
  6
CONTINUOUS
 62
     2
 10
101.5
 20
170.5
 30
0.5
 40
3.0
  1
１００
 50
0.0
 41
0.666666667
 51
0.0
  7
KANJI3
  0
LINE
  8
0
  6
CONTINUOUS
 62
     2
 10
80.0
 20
169.5
 30
0.0
 11
82.414814566
 21
170.147047613
 31
0.0
  0
LINE
  8
0
  6
CONTINUOUS
 62
     2
 10
75.0
 20
169.5
 30
0.0
 11
72.585185434
 21
170.147047613
 31
0.0
  0
LINE
  8
0
  6
CONTINUOUS
 62
     2
 10
75.0
 20
169.5
 30
0.0
 11
72.585185434
 21
168.852952387
 31
0.0
  0
TEXT
  8
0
  6
CONTINUOUS
 62
     2
 10
75.25
 20
170.5
 30
0.5
 40
3.0
  1
１０
 50
0.0
 41
0.666666667
 51
0.0
  7
KANJI3
  0
LINE
  8
0
  6
CONTINUOUS
 62
     2
 10
130.0
 20
169.5
 30
0.0
 11
70.0
 21
169.5
 31
0.0
  0
LINE
  8
0
  6
CONTINUOUS
 62
     2
 10
130.0
 20
160.0
 30
0.0
 11
130.0
 21
176.5
 31
0.0
  0
LINE
  8
0
  6
CONTINUOUS
 62
     2
 10
200.0
 20
74.0
 30
0.0
 11
200.0
 21
85.0
 31
0.0
  0
TEXT
  8
0
  6
CONTINUOUS
 62
     3
 10
25.0
 20
97.0
 30
0.4
 40
4.0
  1
ソケット
 50
0.0
 41
0.9
 51
0.0
  7
KANJI7
  0
TEXT
  8
0
  6
CONTINUOUS
 62
     3
 10
140.0
 20
97.0
 30
0.4
 40
4.0
  1
ソケットに本体を取付けた状態
 50
0.0
 41
0.9
 51
0.0
  7
KANJI7
  0
LINE
  8
0
  6
CONTINUOUS
 62
     1
 10
54.0
 20
152.25
 30
0.0
 11
55.0
 21
152.25
 31
0.0
  0
LINE
  8
0
  6
CONTINUOUS
 62
     1
 10
54.0
 20
127.75
 30
0.0
 11
55.0
 21
127.75
 31
0.0
  0
LINE
  8
0
  6
CONTINUOUS
 62
     1
 10
31.0
 20
127.75
 30
0.0
 11
30.0
 21
127.75
 31
0.0
  0
LINE
  8
0
  6
CONTINUOUS
 62
     1
 10
31.0
 20
152.25
 30
0.0
 11
30.0
 21
152.25
 31
0.0
  0
LINE
  8
0
  6
CONTINUOUS
 62
     1
 10
31.0
 20
152.25
 30
0.0
 11
31.0
 21
127.75
 31
0.0
  0
LINE
  8
0
  6
CONTINUOUS
 62
     1
 10
54.0
 20
127.75
 30
0.0
 11
54.0
 21
152.25
 31
0.0
  0
LINE
  8
0
  6
CONTINUOUS
 62
     1
 10
165.0
 20
120.5
 30
0.0
 11
190.0
 21
120.5
 31
0.0
  0
LINE
  8
0
  6
CONTINUOUS
 62
     1
 10
190.0
 20
120.5
 30
0.0
 11
190.0
 21
159.5
 31
0.0
  0
LINE
  8
0
  6
CONTINUOUS
 62
     1
 10
190.0
 20
159.5
 30
0.0
 11
165.0
 21
159.5
 31
0.0
  0
LINE
  8
0
  6
CONTINUOUS
 62
     1
 10
165.0
 20
159.5
 30
0.0
 11
165.0
 21
120.5
 31
0.0
  0
LINE
  8
0
  6
CONTINUOUS
 62
     2
 10
165.0
 20
160.0
 30
0.0
 11
165.0
 21
176.5
 31
0.0
  0
LINE
  8
0
  6
CONTINUOUS
 62
     2
 10
165.0
 20
174.5
 30
0.0
 11
167.414814566
 21
173.852952387
 31
0.0
  0
LINE
  8
0
  6
CONTINUOUS
 62
     2
 10
165.0
 20
174.5
 30
0.0
 11
167.414814566
 21
175.147047613
 31
0.0
  0
LINE
  8
0
  6
CONTINUOUS
 62
     2
 10
165.0
 20
174.5
 30
0.0
 11
190.0
 21
174.5
 31
0.0
  0
LINE
  8
0
  6
CONTINUOUS
 62
     2
 10
190.0
 20
174.5
 30
0.0
 11
187.585185434
 21
175.147047613
 31
0.0
  0
LINE
  8
0
  6
CONTINUOUS
 62
     2
 10
190.0
 20
174.5
 30
0.0
 11
187.585185434
 21
173.852952387
 31
0.0
  0
LINE
  8
0
  6
CONTINUOUS
 62
     2
 10
190.0
 20
160.0
 30
0.0
 11
190.0
 21
176.5
 31
0.0
  0
TEXT
  8
0
  6
CONTINUOUS
 62
     2
 10
175.25
 20
175.5
 30
0.5
 40
3.0
  1
５０
 50
0.0
 41
0.666666667
 51
0.0
  7
KANJI3
  0
LINE
  8
0
  6
CONTINUOUS
 62
     2
 10
164.5
 20
120.5
 30
0.0
 11
148.0
 21
120.5
 31
0.0
  0
LINE
  8
0
  6
CONTINUOUS
 62
     2
 10
150.0
 20
120.5
 30
0.0
 11
150.647047613
 21
122.914814566
 31
0.0
  0
LINE
  8
0
  6
CONTINUOUS
 62
     2
 10
150.0
 20
120.5
 30
0.0
 11
149.352952387
 21
122.914814566
 31
0.0
  0
LINE
  8
0
  6
CONTINUOUS
 62
     2
 10
150.0
 20
120.5
 30
0.0
 11
150.0
 21
159.5
 31
0.0
  0
LINE
  8
0
  6
CONTINUOUS
 62
     2
 10
150.0
 20
159.5
 30
0.0
 11
149.352952387
 21
157.085185434
 31
0.0
  0
LINE
  8
0
  6
CONTINUOUS
 62
     2
 10
150.0
 20
159.5
 30
0.0
 11
150.647047613
 21
157.085185434
 31
0.0
  0
LINE
  8
0
  6
CONTINUOUS
 62
     2
 10
164.5
 20
159.5
 30
0.0
 11
148.0
 21
159.5
 31
0.0
  0
TEXT
  8
0
  6
CONTINUOUS
 62
     2
 10
149.0
 20
137.75
 30
0.5
 40
3.0
  1
７８
 50
90.0
 41
0.666666667
 51
0.0
  7
KANJI3
  0
LINE
  8
0
  6
LTYPE1
 62
     2
 10
177.5
 20
164.5
 30
0.0
 11
177.5
 21
115.5
 31
0.0
  0
LINE
  8
0
  6
LTYPE1
 62
     2
 10
195.0
 20
140.0
 30
0.0
 11
160.0
 21
140.0
 31
0.0
  0
TEXT
  8
0
  6
CONTINUOUS
 62
     2
 10
194.0
 20
113.5
 30
0.5
 40
3.0
  1
ＺＥＲＯ調整器
 50
0.0
 41
0.666666667
 51
0.0
  7
KANJI3
  0
LINE
  8
0
  6
CONTINUOUS
 62
     2
 10
194.0
 20
112.5
 30
0.0
 11
211.0
 21
112.5
 31
0.0
  0
LINE
  8
0
  6
CONTINUOUS
 62
     2
 10
194.0
 20
122.5
 30
0.0
 11
211.0
 21
122.5
 31
0.0
  0
TEXT
  8
0
  6
CONTINUOUS
 62
     2
 10
194.0
 20
123.5
 30
0.5
 40
3.0
  1
ＳＰＡＮ調整器
 50
0.0
 41
0.666666667
 51
0.0
  7
KANJI3
  0
TEXT
  8
0
  6
CONTINUOUS
 62
     3
 10
25.0
 20
182.0
 30
0.4
 40
4.0
  1
ＲＹＭＰ本体
 50
0.0
 41
0.9
 51
0.0
  7
KANJI7
  0
LINE
  8
0
  6
CONTINUOUS
 62
     1
 10
175.0
 20
149.25
 30
0.0
 11
175.0
 21
144.25
 31
0.0
  0
LINE
  8
0
  6
CONTINUOUS
 62
     1
 10
180.0
 20
149.25
 30
0.0
 11
180.0
 21
144.25
 31
0.0
  0
LINE
  8
0
  6
CONTINUOUS
 62
     1
 10
180.0
 20
149.25
 30
0.0
 11
175.0
 21
149.25
 31
0.0
  0
LINE
  8
0
  6
CONTINUOUS
 62
     1
 10
175.0
 20
144.25
 30
0.0
 11
180.0
 21
144.25
 31
0.0
  0
LINE
  8
0
  6
CONTINUOUS
 62
     1
 10
169.92
 20
144.25
 30
0.0
 11
174.92
 21
144.25
 31
0.0
  0
LINE
  8
0
  6
CONTINUOUS
 62
     1
 10
174.92
 20
144.25
 30
0.0
 11
174.92
 21
149.25
 31
0.0
  0
LINE
  8
0
  6
CONTINUOUS
 62
     1
 10
174.92
 20
149.25
 30
0.0
 11
169.92
 21
149.25
 31
0.0
  0
LINE
  8
0
  6
CONTINUOUS
 62
     1
 10
169.92
 20
149.25
 30
0.0
 11
169.92
 21
144.25
 31
0.0
  0
LINE
  8
0
  6
CONTINUOUS
 62
     1
 10
180.08
 20
144.25
 30
0.0
 11
185.08
 21
144.25
 31
0.0
  0
LINE
  8
0
  6
CONTINUOUS
 62
     1
 10
185.08
 20
144.25
 30
0.0
 11
185.08
 21
149.25
 31
0.0
  0
LINE
  8
0
  6
CONTINUOUS
 62
     1
 10
185.08
 20
149.25
 30
0.0
 11
180.08
 21
149.25
 31
0.0
  0
LINE
  8
0
  6
CONTINUOUS
 62
     1
 10
180.08
 20
149.25
 30
0.0
 11
180.08
 21
144.25
 31
0.0
  0
LINE
  8
0
  6
CONTINUOUS
 62
     1
 10
169.625
 20
144.0
 30
0.0
 11
185.375
 21
144.0
 31
0.0
  0
LINE
  8
0
  6
CONTINUOUS
 62
     1
 10
185.375
 20
144.0
 30
0.0
 11
185.375
 21
149.5
 31
0.0
  0
LINE
  8
0
  6
CONTINUOUS
 62
     1
 10
185.375
 20
149.5
 30
0.0
 11
169.625
 21
149.5
 31
0.0
  0
LINE
  8
0
  6
CONTINUOUS
 62
     1
 10
169.625
 20
149.5
 30
0.0
 11
169.625
 21
144.0
 31
0.0
  0
CIRCLE
  8
0
  6
CONTINUOUS
 62
     1
 10
170.75
 20
132.5
 30
0.0
 40
1.625
  0
CIRCLE
  8
0
  6
CONTINUOUS
 62
     1
 10
170.75
 20
127.5
 30
0.0
 40
1.625
  0
LINE
  8
0
  6
LTYPE1
 62
     2
 10
170.75
 20
136.0
 30
0.0
 11
170.75
 21
124.0
 31
0.0
  0
LINE
  8
0
  6
LTYPE1
 62
     2
 10
174.25
 20
132.5
 30
0.0
 11
167.25
 21
132.5
 31
0.0
  0
LINE
  8
0
  6
LTYPE1
 62
     2
 10
174.25
 20
127.5
 30
0.0
 11
167.25
 21
127.5
 31
0.0
  0
CIRCLE
  8
0
  6
CONTINUOUS
 62
     1
 10
184.25
 20
132.5
 30
0.0
 40
1.625
  0
CIRCLE
  8
0
  6
CONTINUOUS
 62
     1
 10
184.25
 20
127.5
 30
0.0
 40
1.625
  0
LINE
  8
0
  6
LTYPE1
 62
     2
 10
184.25
 20
136.0
 30
0.0
 11
184.25
 21
124.0
 31
0.0
  0
LINE
  8
0
  6
LTYPE1
 62
     2
 10
180.75
 20
132.5
 30
0.0
 11
187.75
 21
132.5
 31
0.0
  0
LINE
  8
0
  6
LTYPE1
 62
     2
 10
180.75
 20
127.5
 30
0.0
 11
187.75
 21
127.5
 31
0.0
  0
LINE
  8
0
  6
CONTINUOUS
 62
     1
 10
165.5
 20
121.0
 30
0.0
 11
189.5
 21
121.0
 31
0.0
  0
LINE
  8
0
  6
CONTINUOUS
 62
     1
 10
189.5
 20
121.0
 30
0.0
 11
189.5
 21
159.0
 31
0.0
  0
LINE
  8
0
  6
CONTINUOUS
 62
     1
 10
189.5
 20
159.0
 30
0.0
 11
165.5
 21
159.0
 31
0.0
  0
LINE
  8
0
  6
CONTINUOUS
 62
     1
 10
165.5
 20
159.0
 30
0.0
 11
165.5
 21
121.0
 31
0.0
  0
LINE
  8
0
  6
CONTINUOUS
 62
     1
 10
168.0
 20
123.5
 30
0.0
 11
187.0
 21
123.5
 31
0.0
  0
LINE
  8
0
  6
CONTINUOUS
 62
     1
 10
187.0
 20
123.5
 30
0.0
 11
187.0
 21
156.5
 31
0.0
  0
LINE
  8
0
  6
CONTINUOUS
 62
     1
 10
187.0
 20
156.5
 30
0.0
 11
168.0
 21
156.5
 31
0.0
  0
LINE
  8
0
  6
CONTINUOUS
 62
     1
 10
168.0
 20
156.5
 30
0.0
 11
168.0
 21
123.5
 31
0.0
  0
LINE
  8
0
  6
CONTINUOUS
 62
     1
 10
167.25
 20
122.75
 30
0.0
 11
187.75
 21
122.75
 31
0.0
  0
LINE
  8
0
  6
CONTINUOUS
 62
     1
 10
187.75
 20
122.75
 30
0.0
 11
187.75
 21
157.25
 31
0.0
  0
LINE
  8
0
  6
CONTINUOUS
 62
     1
 10
187.75
 20
157.25
 30
0.0
 11
167.25
 21
157.25
 31
0.0
  0
LINE
  8
0
  6
CONTINUOUS
 62
     1
 10
167.25
 20
157.25
 30
0.0
 11
167.25
 21
122.75
 31
0.0
  0
LINE
  8
0
  6
CONTINUOUS
 62
     2
 10
185.25
 20
126.5
 30
0.0
 11
185.981153882
 21
124.109306795
 31
0.0
  0
LINE
  8
0
  6
CONTINUOUS
 62
     2
 10
185.25
 20
126.5
 30
0.0
 11
187.078544438
 21
124.795175893
 31
0.0
  0
LINE
  8
0
  6
CONTINUOUS
 62
     2
 10
185.25
 20
126.5
 30
0.0
 11
194.0
 21
112.5
 31
0.0
  0
LINE
  8
0
  6
CONTINUOUS
 62
     2
 10
185.25
 20
131.5
 30
0.0
 11
186.469385207
 21
129.317547316
 31
0.0
  0
LINE
  8
0
  6
CONTINUOUS
 62
     2
 10
185.25
 20
131.5
 30
0.0
 11
187.397244908
 21
130.219633137
 31
0.0
  0
LINE
  8
0
  6
CONTINUOUS
 62
     2
 10
185.25
 20
131.5
 30
0.0
 11
194.0
 21
122.5
 31
0.0
  0
LINE
  8
0
  6
CONTINUOUS
 62
     2
 10
169.75
 20
126.5
 30
0.0
 11
167.921455562
 21
124.795175893
 31
0.0
  0
LINE
  8
0
  6
CONTINUOUS
 62
     2
 10
169.75
 20
126.5
 30
0.0
 11
169.018846118
 21
124.109306795
 31
0.0
  0
LINE
  8
0
  6
CONTINUOUS
 62
     2
 10
169.75
 20
126.5
 30
0.0
 11
161.0
 21
112.5
 31
0.0
  0
LINE
  8
0
  6
CONTINUOUS
 62
     2
 10
169.75
 20
133.5
 30
0.0
 11
169.716746011
 21
135.999778825
 31
0.0
  0
LINE
  8
0
  6
CONTINUOUS
 62
     2
 10
169.75
 20
133.5
 30
0.0
 11
168.471311788
 21
135.648244972
 31
0.0
  0
LINE
  8
0
  6
CONTINUOUS
 62
     2
 10
169.75
 20
133.5
 30
0.0
 11
161.0
 21
164.5
 31
0.0
  0
TEXT
  8
0
  6
CONTINUOUS
 62
     2
 10
141.5
 20
165.5
 30
0.5
 40
3.0
  1
ＭＯＤＥスイッチ
 50
0.0
 41
0.666666667
 51
0.0
  7
KANJI3
  0
TEXT
  8
0
  6
CONTINUOUS
 62
     2
 10
126.0
 20
113.5
 30
0.5
 40
3.0
  1
ＩＮＰＵＴ　ＺＥＲＯ　スイッチ
 50
0.0
 41
0.666666667
 51
0.0
  7
KANJI3
  0
LINE
  8
0
  6
CONTINUOUS
 62
     2
 10
161.0
 20
164.5
 30
0.0
 11
141.5
 21
164.5
 31
0.0
  0
LINE
  8
0
  6
CONTINUOUS
 62
     2
 10
161.0
 20
112.5
 30
0.0
 11
126.0
 21
112.5
 31
0.0
  0
LINE
  8
0
  6
CONTINUOUS
 62
     2
 10
184.5
 20
148.5
 30
0.0
 11
186.568071304
 21
149.904664046
 31
0.0
  0
LINE
  8
0
  6
CONTINUOUS
 62
     2
 10
184.5
 20
148.5
 30
0.0
 11
185.588670263
 21
150.7505104
 31
0.0
  0
LINE
  8
0
  6
CONTINUOUS
 62
     2
 10
184.5
 20
148.5
 30
0.0
 11
194.0
 21
159.5
 31
0.0
  0
TEXT
  8
0
  6
CONTINUOUS
 62
     2
 10
194.0
 20
164.5
 30
0.5
 40
3.0
  1
ＩＮＰＵＴ　ＳＰＡＮ
 50
0.0
 41
0.666666667
 51
0.0
  7
KANJI3
  0
TEXT
  8
0
  6
CONTINUOUS
 62
     2
 10
194.0
 20
160.5
 30
0.5
 40
3.0
  1
スイッチ（３桁）
 50
0.0
 41
0.666666667
 51
0.0
  7
KANJI3
  0
LINE
  8
0
  6
CONTINUOUS
 62
     2
 10
194.0
 20
159.5
 30
0.0
 11
217.0
 21
159.5
 31
0.0
  0
TEXT
  8
0
  6
CONTINUOUS
 62
     4
 10
233.5
 20
17.0
 30
0.0
 40
6.0
  1
ＭＳ－１３３３０
 50
0.0
 41
0.8
 51
0.0
  7
KANJI8
  0
TEXT
  8
0
  6
CONTINUOUS
 62
     3
 10
233.5
 20
33.5
 30
0.38
 40
3.8
  1
シンクロ－アナログ
 50
0.0
 41
0.7
 51
0.0
  7
KANJI9
  0
TEXT
  8
0
  6
CONTINUOUS
 62
     3
 10
261.5
 20
33.5
 30
0.38
 40
3.8
  1
変換器
 50
0.0
 41
0.9
 51
0.0
  7
KANJI10
  0
TEXT
  8
0
  6
CONTINUOUS
 62
     3
 10
265.5
 20
29.0
 30
0.38
 40
3.8
  1
結線図
 50
0.0
 41
0.9
 51
0.0
  7
KANJI10
  0
TEXT
  8
0
  6
CONTINUOUS
 62
     3
 10
233.5
 20
40.0
 30
0.4
 40
4.0
  1
ＲＹＭＰ－□
 50
0.0
 41
0.9
 51
0.0
  7
KANJI11
  0
ENDSEC
  0
EOF
