  0
SECTION
  2
HEADER
  9
$ACADVER
  1
AC1009
  9
$DWGCODEPAGE
  3
dos932
  9
$EXTMIN
 10
0.0
 20
0.0
 30
0.0
  9
$EXTMAX
 10
297.0
 20
210.0
 30
0.0
  9
$LIMMIN
 10
0.0
 20
0.0
  9
$LIMMAX
 10
297.0
 20
210.0
  9
$LTSCALE
 40
1.0
  9
$PDMODE
 70
     0
  0
ENDSEC
  0
SECTION
  2
TABLES
  0
TABLE
  2
VPORT
 70
     1
  0
VPORT
  2
*ACTIVE
 70
     0
 10
0.0
 20
0.0
 11
1.0
 21
1.0
 12
148.5
 22
105.0
 13
0.0
 23
0.0
 14
10.0
 24
10.0
 15
10.0
 25
10.0
 16
0.0
 26
0.0
 36
1.0
 17
0.0
 27
0.0
 37
0.0
 40
297.0
 41
1.414285714
 42
50.0
 43
0.0
 44
0.0
 50
0.0
 51
0.0
 71
     0
 72
  1000
 73
     1
 74
     3
 75
     0
 76
     0
 77
     0
 78
     0
  0
ENDTAB
  0
TABLE
  2
LTYPE
 70
     3
  0
LTYPE
  2
CONTINUOUS
 70
    64
  3
Solid line
 72
    65
 73
     0
 40
0.0
  0
LTYPE
  2
LTYPE1
 70
    64
  3
CENTER
 72
    65
 73
     4
 40
15.0
 49
10.5
 49
-1.5
 49
1.5
 49
-1.5
  0
LTYPE
  2
LTYPE2
 70
    64
  3
CENTER
 72
    65
 73
     4
 40
5.0
 49
3.5
 49
-0.5
 49
0.5
 49
-0.5
  0
ENDTAB
  0
TABLE
  2
LAYER
 70
   128
  0
LAYER
  2
0
 70
     0
 62
     7
  6
CONTINUOUS
  0
LAYER
  2
2
 70
     0
 62
     7
  6
CONTINUOUS
  0
LAYER
  2
3
 70
     0
 62
     7
  6
CONTINUOUS
  0
LAYER
  2
4
 70
     0
 62
     7
  6
CONTINUOUS
  0
LAYER
  2
5
 70
     0
 62
     7
  6
CONTINUOUS
  0
LAYER
  2
6
 70
     0
 62
     7
  6
CONTINUOUS
  0
LAYER
  2
7
 70
     0
 62
     7
  6
CONTINUOUS
  0
LAYER
  2
8
 70
     0
 62
     7
  6
CONTINUOUS
  0
LAYER
  2
9
 70
     0
 62
     7
  6
CONTINUOUS
  0
LAYER
  2
10
 70
     0
 62
     7
  6
CONTINUOUS
  0
LAYER
  2
11
 70
     0
 62
     7
  6
CONTINUOUS
  0
LAYER
  2
12
 70
     0
 62
     7
  6
CONTINUOUS
  0
LAYER
  2
13
 70
     0
 62
     7
  6
CONTINUOUS
  0
LAYER
  2
14
 70
     0
 62
     7
  6
CONTINUOUS
  0
LAYER
  2
15
 70
     0
 62
     7
  6
CONTINUOUS
  0
LAYER
  2
16
 70
     0
 62
     7
  6
CONTINUOUS
  0
LAYER
  2
17
 70
     0
 62
     7
  6
CONTINUOUS
  0
LAYER
  2
18
 70
     0
 62
     7
  6
CONTINUOUS
  0
LAYER
  2
19
 70
     0
 62
     7
  6
CONTINUOUS
  0
LAYER
  2
20
 70
     0
 62
     7
  6
CONTINUOUS
  0
LAYER
  2
21
 70
     0
 62
     7
  6
CONTINUOUS
  0
LAYER
  2
22
 70
     0
 62
     7
  6
CONTINUOUS
  0
LAYER
  2
23
 70
     0
 62
     7
  6
CONTINUOUS
  0
LAYER
  2
24
 70
     0
 62
     7
  6
CONTINUOUS
  0
LAYER
  2
25
 70
     0
 62
     7
  6
CONTINUOUS
  0
LAYER
  2
26
 70
     0
 62
     7
  6
CONTINUOUS
  0
LAYER
  2
27
 70
     0
 62
     7
  6
CONTINUOUS
  0
LAYER
  2
28
 70
     0
 62
     7
  6
CONTINUOUS
  0
LAYER
  2
29
 70
     0
 62
     7
  6
CONTINUOUS
  0
LAYER
  2
30
 70
     0
 62
     7
  6
CONTINUOUS
  0
LAYER
  2
31
 70
     0
 62
     7
  6
CONTINUOUS
  0
LAYER
  2
32
 70
     0
 62
     7
  6
CONTINUOUS
  0
LAYER
  2
33
 70
     0
 62
     7
  6
CONTINUOUS
  0
LAYER
  2
34
 70
     0
 62
     7
  6
CONTINUOUS
  0
LAYER
  2
35
 70
     0
 62
     7
  6
CONTINUOUS
  0
LAYER
  2
36
 70
     0
 62
     7
  6
CONTINUOUS
  0
LAYER
  2
37
 70
     0
 62
     7
  6
CONTINUOUS
  0
LAYER
  2
38
 70
     0
 62
     7
  6
CONTINUOUS
  0
LAYER
  2
39
 70
     0
 62
     7
  6
CONTINUOUS
  0
LAYER
  2
40
 70
     0
 62
     7
  6
CONTINUOUS
  0
LAYER
  2
41
 70
     0
 62
     7
  6
CONTINUOUS
  0
LAYER
  2
42
 70
     0
 62
     7
  6
CONTINUOUS
  0
LAYER
  2
43
 70
     0
 62
     7
  6
CONTINUOUS
  0
LAYER
  2
44
 70
     0
 62
     7
  6
CONTINUOUS
  0
LAYER
  2
45
 70
     0
 62
     7
  6
CONTINUOUS
  0
LAYER
  2
46
 70
     0
 62
     7
  6
CONTINUOUS
  0
LAYER
  2
47
 70
     0
 62
     7
  6
CONTINUOUS
  0
LAYER
  2
48
 70
     0
 62
     7
  6
CONTINUOUS
  0
LAYER
  2
49
 70
     0
 62
     7
  6
CONTINUOUS
  0
LAYER
  2
50
 70
     0
 62
     7
  6
CONTINUOUS
  0
LAYER
  2
51
 70
     0
 62
     7
  6
CONTINUOUS
  0
LAYER
  2
52
 70
     0
 62
     7
  6
CONTINUOUS
  0
LAYER
  2
53
 70
     0
 62
     7
  6
CONTINUOUS
  0
LAYER
  2
54
 70
     0
 62
     7
  6
CONTINUOUS
  0
LAYER
  2
55
 70
     0
 62
     7
  6
CONTINUOUS
  0
LAYER
  2
56
 70
     0
 62
     7
  6
CONTINUOUS
  0
LAYER
  2
57
 70
     0
 62
     7
  6
CONTINUOUS
  0
LAYER
  2
58
 70
     0
 62
     7
  6
CONTINUOUS
  0
LAYER
  2
59
 70
     0
 62
     7
  6
CONTINUOUS
  0
LAYER
  2
60
 70
     0
 62
     7
  6
CONTINUOUS
  0
LAYER
  2
61
 70
     0
 62
     7
  6
CONTINUOUS
  0
LAYER
  2
62
 70
     0
 62
     7
  6
CONTINUOUS
  0
LAYER
  2
63
 70
     0
 62
     7
  6
CONTINUOUS
  0
LAYER
  2
64
 70
     0
 62
     7
  6
CONTINUOUS
  0
LAYER
  2
65
 70
     0
 62
     7
  6
CONTINUOUS
  0
LAYER
  2
66
 70
     0
 62
     7
  6
CONTINUOUS
  0
LAYER
  2
67
 70
     0
 62
     7
  6
CONTINUOUS
  0
LAYER
  2
68
 70
     0
 62
     7
  6
CONTINUOUS
  0
LAYER
  2
69
 70
     0
 62
     7
  6
CONTINUOUS
  0
LAYER
  2
70
 70
     0
 62
     7
  6
CONTINUOUS
  0
LAYER
  2
71
 70
     0
 62
     7
  6
CONTINUOUS
  0
LAYER
  2
72
 70
     0
 62
     7
  6
CONTINUOUS
  0
LAYER
  2
73
 70
     0
 62
     7
  6
CONTINUOUS
  0
LAYER
  2
74
 70
     0
 62
     7
  6
CONTINUOUS
  0
LAYER
  2
75
 70
     0
 62
     7
  6
CONTINUOUS
  0
LAYER
  2
76
 70
     0
 62
     7
  6
CONTINUOUS
  0
LAYER
  2
77
 70
     0
 62
     7
  6
CONTINUOUS
  0
LAYER
  2
78
 70
     0
 62
     7
  6
CONTINUOUS
  0
LAYER
  2
79
 70
     0
 62
     7
  6
CONTINUOUS
  0
LAYER
  2
80
 70
     0
 62
     7
  6
CONTINUOUS
  0
LAYER
  2
81
 70
     0
 62
     7
  6
CONTINUOUS
  0
LAYER
  2
82
 70
     0
 62
     7
  6
CONTINUOUS
  0
LAYER
  2
83
 70
     0
 62
     7
  6
CONTINUOUS
  0
LAYER
  2
84
 70
     0
 62
     7
  6
CONTINUOUS
  0
LAYER
  2
85
 70
     0
 62
     7
  6
CONTINUOUS
  0
LAYER
  2
86
 70
     0
 62
     7
  6
CONTINUOUS
  0
LAYER
  2
87
 70
     0
 62
     7
  6
CONTINUOUS
  0
LAYER
  2
88
 70
     0
 62
     7
  6
CONTINUOUS
  0
LAYER
  2
89
 70
     0
 62
     7
  6
CONTINUOUS
  0
LAYER
  2
90
 70
     0
 62
     7
  6
CONTINUOUS
  0
LAYER
  2
91
 70
     0
 62
     7
  6
CONTINUOUS
  0
LAYER
  2
92
 70
     0
 62
     7
  6
CONTINUOUS
  0
LAYER
  2
93
 70
     0
 62
     7
  6
CONTINUOUS
  0
LAYER
  2
94
 70
     0
 62
     7
  6
CONTINUOUS
  0
LAYER
  2
95
 70
     0
 62
     7
  6
CONTINUOUS
  0
LAYER
  2
96
 70
     0
 62
     7
  6
CONTINUOUS
  0
LAYER
  2
97
 70
     0
 62
     7
  6
CONTINUOUS
  0
LAYER
  2
98
 70
     0
 62
     7
  6
CONTINUOUS
  0
LAYER
  2
99
 70
     0
 62
     7
  6
CONTINUOUS
  0
LAYER
  2
100
 70
     0
 62
     7
  6
CONTINUOUS
  0
LAYER
  2
101
 70
     0
 62
     7
  6
CONTINUOUS
  0
LAYER
  2
102
 70
     0
 62
     7
  6
CONTINUOUS
  0
LAYER
  2
103
 70
     0
 62
     7
  6
CONTINUOUS
  0
LAYER
  2
104
 70
     0
 62
     7
  6
CONTINUOUS
  0
LAYER
  2
105
 70
     0
 62
     7
  6
CONTINUOUS
  0
LAYER
  2
106
 70
     0
 62
     7
  6
CONTINUOUS
  0
LAYER
  2
107
 70
     0
 62
     7
  6
CONTINUOUS
  0
LAYER
  2
108
 70
     0
 62
     7
  6
CONTINUOUS
  0
LAYER
  2
109
 70
     0
 62
     7
  6
CONTINUOUS
  0
LAYER
  2
110
 70
     0
 62
     7
  6
CONTINUOUS
  0
LAYER
  2
111
 70
     0
 62
     7
  6
CONTINUOUS
  0
LAYER
  2
112
 70
     0
 62
     7
  6
CONTINUOUS
  0
LAYER
  2
113
 70
     0
 62
     7
  6
CONTINUOUS
  0
LAYER
  2
114
 70
     0
 62
     7
  6
CONTINUOUS
  0
LAYER
  2
115
 70
     0
 62
     7
  6
CONTINUOUS
  0
LAYER
  2
116
 70
     0
 62
     7
  6
CONTINUOUS
  0
LAYER
  2
117
 70
     0
 62
     7
  6
CONTINUOUS
  0
LAYER
  2
118
 70
     0
 62
     7
  6
CONTINUOUS
  0
LAYER
  2
119
 70
     0
 62
     7
  6
CONTINUOUS
  0
LAYER
  2
120
 70
     0
 62
     7
  6
CONTINUOUS
  0
LAYER
  2
121
 70
     0
 62
     7
  6
CONTINUOUS
  0
LAYER
  2
122
 70
     0
 62
     7
  6
CONTINUOUS
  0
LAYER
  2
123
 70
     0
 62
     7
  6
CONTINUOUS
  0
LAYER
  2
124
 70
     0
 62
     7
  6
CONTINUOUS
  0
LAYER
  2
125
 70
     0
 62
     7
  6
CONTINUOUS
  0
LAYER
  2
126
 70
     0
 62
     7
  6
CONTINUOUS
  0
LAYER
  2
127
 70
     0
 62
     7
  6
CONTINUOUS
  0
LAYER
  2
128
 70
     0
 62
     7
  6
CONTINUOUS
  0
ENDTAB
  0
TABLE
  2
STYLE
 70
    13
  0
STYLE
  2
STANDARD
 70
     0
 40
0.0
 41
1.0
 50
0.0
 71
     0
 42
0.2
  3
txt.shx
  4
extfont.shx
  0
STYLE
  2
KANJI0
 70
     0
 40
3.0
 41
0.666666667
 50
0.0
 71
     0
 42
3.0
  3
txt.shx
  4
extfont.shx
  0
STYLE
  2
KANJI1
 70
     0
 40
1.2
 41
0.9
 50
0.0
 71
     0
 42
1.2
  3
txt.shx
  4
extfont.shx
  0
STYLE
  2
KANJI2
 70
     0
 40
1.2
 41
0.9
 50
0.0
 71
     0
 42
1.2
  3
txt.shx
  4
extfont.shx
  0
STYLE
  2
KANJI3
 70
     0
 40
1.8
 41
0.666666667
 50
0.0
 71
     0
 42
1.8
  3
txt.shx
  4
extfont.shx
  0
STYLE
  2
KANJI4
 70
     0
 40
1.5
 41
0.9
 50
0.0
 71
     0
 42
1.5
  3
txt.shx
  4
extfont.shx
  0
STYLE
  2
KANJI5
 70
     0
 40
4.0
 41
0.9
 50
0.0
 71
     0
 42
4.0
  3
txt.shx
  4
extfont.shx
  0
STYLE
  2
KANJI6
 70
     0
 40
4.0
 41
0.675
 50
0.0
 71
     0
 42
4.0
  3
txt.shx
  4
extfont.shx
  0
STYLE
  2
KANJI7
 70
     0
 40
3.0
 41
0.9
 50
0.0
 71
     0
 42
3.0
  3
txt.shx
  4
extfont.shx
  0
STYLE
  2
KANJI8
 70
     0
 40
3.0
 41
0.6
 50
0.0
 71
     0
 42
3.0
  3
txt.shx
  4
extfont.shx
  0
STYLE
  2
KANJI9
 70
     0
 40
3.0
 41
0.733333333
 50
0.0
 71
     0
 42
3.0
  3
txt.shx
  4
extfont.shx
  0
STYLE
  2
KANJI10
 70
     0
 40
5.8
 41
0.827586207
 50
0.0
 71
     0
 42
5.8
  3
txt.shx
  4
extfont.shx
  0
STYLE
  2
KANJI11
 70
     0
 40
4.0
 41
0.9
 50
0.0
 71
     0
 42
4.0
  3
txt.shx
  4
extfont.shx
  0
ENDTAB
  0
TABLE
  2
VIEW
 70
     0
  0
ENDTAB
  0
ENDSEC
  0
SECTION
  2
BLOCKS
  0
ENDSEC
  0
SECTION
  2
ENTITIES
  0
LINE
  8
0
  6
CONTINUOUS
 62
     1
 10
20.0
 20
99.0
 30
0.0
 11
215.0
 21
99.0
 31
0.0
  0
LINE
  8
0
  6
CONTINUOUS
 62
     1
 10
174.5
 20
109.5
 30
0.0
 11
199.5
 21
109.5
 31
0.0
  0
LINE
  8
0
  6
CONTINUOUS
 62
     1
 10
199.5
 20
109.5
 30
0.0
 11
199.5
 21
148.5
 31
0.0
  0
LINE
  8
0
  6
CONTINUOUS
 62
     1
 10
199.5
 20
148.5
 30
0.0
 11
174.5
 21
148.5
 31
0.0
  0
LINE
  8
0
  6
CONTINUOUS
 62
     1
 10
174.5
 20
148.5
 30
0.0
 11
174.5
 21
109.5
 31
0.0
  0
LINE
  8
0
  6
CONTINUOUS
 62
     1
 10
176.625
 20
111.75
 30
0.0
 11
197.375
 21
111.75
 31
0.0
  0
LINE
  8
0
  6
CONTINUOUS
 62
     1
 10
197.375
 20
111.75
 30
0.0
 11
197.375
 21
146.25
 31
0.0
  0
LINE
  8
0
  6
CONTINUOUS
 62
     1
 10
197.375
 20
146.25
 30
0.0
 11
176.625
 21
146.25
 31
0.0
  0
LINE
  8
0
  6
CONTINUOUS
 62
     1
 10
176.625
 20
146.25
 30
0.0
 11
176.625
 21
111.75
 31
0.0
  0
LINE
  8
0
  6
CONTINUOUS
 62
     1
 10
175.25
 20
110.25
 30
0.0
 11
198.75
 21
110.25
 31
0.0
  0
LINE
  8
0
  6
CONTINUOUS
 62
     1
 10
198.75
 20
110.25
 30
0.0
 11
198.75
 21
147.75
 31
0.0
  0
LINE
  8
0
  6
CONTINUOUS
 62
     1
 10
198.75
 20
147.75
 30
0.0
 11
175.25
 21
147.75
 31
0.0
  0
LINE
  8
0
  6
CONTINUOUS
 62
     1
 10
175.25
 20
147.75
 30
0.0
 11
175.25
 21
110.25
 31
0.0
  0
LINE
  8
0
  6
CONTINUOUS
 62
     1
 10
177.375
 20
145.5
 30
0.0
 11
177.375
 21
112.5
 31
0.0
  0
LINE
  8
0
  6
CONTINUOUS
 62
     1
 10
177.375
 20
112.5
 30
0.0
 11
196.625
 21
112.5
 31
0.0
  0
LINE
  8
0
  6
CONTINUOUS
 62
     1
 10
196.625
 20
112.5
 30
0.0
 11
196.625
 21
145.5
 31
0.0
  0
LINE
  8
0
  6
CONTINUOUS
 62
     1
 10
196.625
 20
145.5
 30
0.0
 11
177.375
 21
145.5
 31
0.0
  0
LINE
  8
0
  6
CONTINUOUS
 62
     2
 10
159.5
 20
109.5
 30
0.0
 11
160.147047613
 21
111.914814566
 31
0.0
  0
LINE
  8
0
  6
CONTINUOUS
 62
     2
 10
159.5
 20
109.5
 30
0.0
 11
158.852952387
 21
111.914814566
 31
0.0
  0
LINE
  8
0
  6
CONTINUOUS
 62
     2
 10
159.5
 20
109.5
 30
0.0
 11
159.5
 21
148.5
 31
0.0
  0
LINE
  8
0
  6
CONTINUOUS
 62
     2
 10
159.5
 20
148.5
 30
0.0
 11
158.852952387
 21
146.085185434
 31
0.0
  0
LINE
  8
0
  6
CONTINUOUS
 62
     2
 10
159.5
 20
148.5
 30
0.0
 11
160.147047613
 21
146.085185434
 31
0.0
  0
TEXT
  8
0
  6
CONTINUOUS
 62
     2
 10
158.5
 20
126.75
 30
0.5
 40
3.0
  1
７８
 50
90.0
 41
0.666666667
 51
0.0
  7
KANJI0
  0
LINE
  8
0
  6
LTYPE1
 62
     2
 10
187.0
 20
153.5
 30
0.0
 11
187.0
 21
104.5
 31
0.0
  0
LINE
  8
0
  6
LTYPE1
 62
     2
 10
204.5
 20
129.0
 30
0.0
 11
169.5
 21
129.0
 31
0.0
  0
LINE
  8
0
  6
CONTINUOUS
 62
     2
 10
174.5
 20
163.5
 30
0.0
 11
176.914814566
 21
162.852952387
 31
0.0
  0
LINE
  8
0
  6
CONTINUOUS
 62
     2
 10
174.5
 20
163.5
 30
0.0
 11
176.914814566
 21
164.147047613
 31
0.0
  0
LINE
  8
0
  6
CONTINUOUS
 62
     2
 10
174.5
 20
163.5
 30
0.0
 11
199.5
 21
163.5
 31
0.0
  0
LINE
  8
0
  6
CONTINUOUS
 62
     2
 10
199.5
 20
163.5
 30
0.0
 11
197.085185434
 21
164.147047613
 31
0.0
  0
LINE
  8
0
  6
CONTINUOUS
 62
     2
 10
199.5
 20
163.5
 30
0.0
 11
197.085185434
 21
162.852952387
 31
0.0
  0
TEXT
  8
0
  6
CONTINUOUS
 62
     2
 10
184.75
 20
164.5
 30
0.5
 40
3.0
  1
５０
 50
0.0
 41
0.666666667
 51
0.0
  7
KANJI0
  0
LINE
  8
0
  6
CONTINUOUS
 62
     2
 10
174.0
 20
148.5
 30
0.0
 11
158.5
 21
148.5
 31
0.0
  0
LINE
  8
0
  6
CONTINUOUS
 62
     2
 10
174.0
 20
109.5
 30
0.0
 11
158.5
 21
109.5
 31
0.0
  0
LINE
  8
0
  6
CONTINUOUS
 62
     2
 10
174.5
 20
149.0
 30
0.0
 11
174.5
 21
164.5
 31
0.0
  0
LINE
  8
0
  6
CONTINUOUS
 62
     2
 10
199.5
 20
149.0
 30
0.0
 11
199.5
 21
164.5
 31
0.0
  0
LINE
  8
0
  6
CONTINUOUS
 62
     1
 10
142.0
 20
68.0
 30
0.0
 11
148.5
 21
68.0
 31
0.0
  0
LINE
  8
0
  6
CONTINUOUS
 62
     1
 10
148.5
 20
68.0
 30
0.0
 11
149.25
 21
67.25
 31
0.0
  0
LINE
  8
0
  6
CONTINUOUS
 62
     1
 10
149.25
 20
67.25
 30
0.0
 11
149.25
 21
30.75
 31
0.0
  0
LINE
  8
0
  6
CONTINUOUS
 62
     1
 10
149.25
 20
30.75
 30
0.0
 11
148.5
 21
30.0
 31
0.0
  0
LINE
  8
0
  6
CONTINUOUS
 62
     1
 10
148.5
 20
30.0
 30
0.0
 11
142.0
 21
30.0
 31
0.0
  0
LINE
  8
0
  6
CONTINUOUS
 62
     1
 10
142.0
 20
30.0
 30
0.0
 11
142.0
 21
68.0
 31
0.0
  0
LINE
  8
0
  6
CONTINUOUS
 62
     1
 10
142.0
 20
68.0
 30
0.0
 11
140.0
 21
68.0
 31
0.0
  0
LINE
  8
0
  6
CONTINUOUS
 62
     1
 10
140.0
 20
68.0
 30
0.0
 11
140.0
 21
57.75
 31
0.0
  0
LINE
  8
0
  6
CONTINUOUS
 62
     1
 10
140.0
 20
57.75
 30
0.0
 11
142.0
 21
57.75
 31
0.0
  0
LINE
  8
0
  6
CONTINUOUS
 62
     1
 10
142.0
 20
30.0
 30
0.0
 11
140.0
 21
30.0
 31
0.0
  0
LINE
  8
0
  6
CONTINUOUS
 62
     1
 10
140.0
 20
30.0
 30
0.0
 11
140.0
 21
40.25
 31
0.0
  0
LINE
  8
0
  6
CONTINUOUS
 62
     1
 10
140.0
 20
40.25
 30
0.0
 11
142.0
 21
40.25
 31
0.0
  0
LINE
  8
0
  6
CONTINUOUS
 62
     1
 10
149.25
 20
46.875
 30
0.0
 11
147.25
 21
46.875
 31
0.0
  0
LINE
  8
0
  6
CONTINUOUS
 62
     1
 10
147.25
 20
46.875
 30
0.0
 11
147.25
 21
51.125
 31
0.0
  0
LINE
  8
0
  6
CONTINUOUS
 62
     1
 10
147.25
 20
51.125
 30
0.0
 11
149.25
 21
51.125
 31
0.0
  0
LINE
  8
0
  6
CONTINUOUS
 62
     1
 10
149.25
 20
32.75
 30
0.0
 11
142.0
 21
32.75
 31
0.0
  0
LINE
  8
0
  6
CONTINUOUS
 62
     1
 10
142.0
 20
31.0
 30
0.0
 11
149.25
 21
31.0
 31
0.0
  0
LINE
  8
0
  6
CONTINUOUS
 62
     1
 10
149.25
 20
67.0
 30
0.0
 11
142.0
 21
67.0
 31
0.0
  0
LINE
  8
0
  6
CONTINUOUS
 62
     1
 10
142.0
 20
65.25
 30
0.0
 11
149.25
 21
65.25
 31
0.0
  0
LINE
  8
0
  6
CONTINUOUS
 62
     1
 10
142.0
 20
46.5
 30
0.0
 11
140.0
 21
46.5
 31
0.0
  0
LINE
  8
0
  6
CONTINUOUS
 62
     1
 10
140.0
 20
46.5
 30
0.0
 11
140.0
 21
44.5
 31
0.0
  0
LINE
  8
0
  6
CONTINUOUS
 62
     1
 10
140.0
 20
44.5
 30
0.0
 11
142.0
 21
44.5
 31
0.0
  0
LINE
  8
0
  6
CONTINUOUS
 62
     1
 10
142.0
 20
51.5
 30
0.0
 11
140.0
 21
51.5
 31
0.0
  0
LINE
  8
0
  6
CONTINUOUS
 62
     1
 10
140.0
 20
51.5
 30
0.0
 11
140.0
 21
53.5
 31
0.0
  0
LINE
  8
0
  6
CONTINUOUS
 62
     1
 10
140.0
 20
53.5
 30
0.0
 11
142.0
 21
53.5
 31
0.0
  0
LINE
  8
0
  6
CONTINUOUS
 62
     1
 10
149.25
 20
40.25
 30
0.0
 11
150.0
 21
40.25
 31
0.0
  0
LINE
  8
0
  6
CONTINUOUS
 62
     1
 10
150.0
 20
40.25
 30
0.0
 11
150.0
 21
38.0
 31
0.0
  0
LINE
  8
0
  6
CONTINUOUS
 62
     1
 10
150.0
 20
38.0
 30
0.0
 11
149.25
 21
38.0
 31
0.0
  0
LINE
  8
0
  6
CONTINUOUS
 62
     1
 10
149.25
 20
57.75
 30
0.0
 11
150.0
 21
57.75
 31
0.0
  0
LINE
  8
0
  6
CONTINUOUS
 62
     1
 10
150.0
 20
57.75
 30
0.0
 11
150.0
 21
60.0
 31
0.0
  0
LINE
  8
0
  6
CONTINUOUS
 62
     1
 10
150.0
 20
60.0
 30
0.0
 11
149.25
 21
60.0
 31
0.0
  0
LINE
  8
0
  6
CONTINUOUS
 62
     1
 10
141.1
 20
40.25
 30
0.0
 11
141.1
 21
41.25
 31
0.0
  0
LINE
  8
0
  6
CONTINUOUS
 62
     1
 10
141.1
 20
41.25
 30
0.0
 11
140.6
 21
41.25
 31
0.0
  0
LINE
  8
0
  6
CONTINUOUS
 62
     1
 10
140.6
 20
41.25
 30
0.0
 11
140.0
 21
40.25
 31
0.0
  0
LINE
  8
0
  6
CONTINUOUS
 62
     1
 10
142.0
 20
30.0
 30
0.0
 11
142.0
 21
27.0
 31
0.0
  0
LINE
  8
0
  6
CONTINUOUS
 62
     1
 10
142.0
 20
27.0
 30
0.0
 11
140.0
 21
27.0
 31
0.0
  0
LINE
  8
0
  6
CONTINUOUS
 62
     1
 10
140.0
 20
27.0
 30
0.0
 11
140.0
 21
30.0
 31
0.0
  0
LINE
  8
0
  6
CONTINUOUS
 62
     1
 10
142.0
 20
29.0
 30
0.0
 11
140.0
 21
29.0
 31
0.0
  0
LINE
  8
0
  6
CONTINUOUS
 62
     1
 10
142.0
 20
28.0
 30
0.0
 11
140.0
 21
28.0
 31
0.0
  0
LINE
  8
0
  6
CONTINUOUS
 62
     1
 10
150.249259711
 20
38.5525
 30
0.0
 11
149.999259711
 21
38.7025
 31
0.0
  0
LINE
  8
0
  6
CONTINUOUS
 62
     1
 10
150.249259711
 20
59.4475
 30
0.0
 11
149.999259711
 21
59.2975
 31
0.0
  0
LINE
  8
0
  6
CONTINUOUS
 62
     1
 10
140.0
 20
57.75
 30
0.0
 11
140.0
 21
57.35
 31
0.0
  0
LINE
  8
0
  6
CONTINUOUS
 62
     1
 10
140.0
 20
57.35
 30
0.0
 11
140.7
 21
55.55
 31
0.0
  0
LINE
  8
0
  6
CONTINUOUS
 62
     1
 10
140.7
 20
55.55
 30
0.0
 11
141.1
 21
55.55
 31
0.0
  0
LINE
  8
0
  6
CONTINUOUS
 62
     1
 10
141.1
 20
55.55
 30
0.0
 11
141.1
 21
57.75
 31
0.0
  0
LINE
  8
0
  6
CONTINUOUS
 62
     1
 10
150.0
 20
68.5
 30
0.0
 11
150.0
 21
29.5
 31
0.0
  0
LINE
  8
0
  6
CONTINUOUS
 62
     1
 10
150.3
 20
62.25
 30
0.0
 11
150.3
 21
49.0
 31
0.0
  0
LINE
  8
0
  6
CONTINUOUS
 62
     1
 10
154.0
 20
62.75
 30
0.0
 11
154.0
 21
68.5
 31
0.0
  0
LINE
  8
0
  6
CONTINUOUS
 62
     1
 10
150.0
 20
62.25
 30
0.0
 11
153.5
 21
62.25
 31
0.0
  0
ARC
  8
0
  6
CONTINUOUS
 62
     1
 10
153.5
 20
62.75
 30
0.0
 40
0.5
 50
270.0
 51
0.0
  0
LINE
  8
0
  6
CONTINUOUS
 62
     1
 10
151.5
 20
55.5
 30
0.0
 11
152.7
 21
55.5
 31
0.0
  0
LINE
  8
0
  6
CONTINUOUS
 62
     1
 10
152.7
 20
55.5
 30
0.0
 11
152.7
 21
58.5
 31
0.0
  0
LINE
  8
0
  6
CONTINUOUS
 62
     1
 10
152.7
 20
58.5
 30
0.0
 11
151.5
 21
58.5
 31
0.0
  0
LINE
  8
0
  6
CONTINUOUS
 62
     1
 10
151.5
 20
58.5
 30
0.0
 11
151.5
 21
55.5
 31
0.0
  0
LINE
  8
0
  6
CONTINUOUS
 62
     1
 10
150.3
 20
35.75
 30
0.0
 11
150.3
 21
49.0
 31
0.0
  0
LINE
  8
0
  6
CONTINUOUS
 62
     1
 10
154.0
 20
35.25
 30
0.0
 11
154.0
 21
29.5
 31
0.0
  0
LINE
  8
0
  6
CONTINUOUS
 62
     1
 10
150.0
 20
35.75
 30
0.0
 11
153.5
 21
35.75
 31
0.0
  0
ARC
  8
0
  6
CONTINUOUS
 62
     1
 10
153.5
 20
35.25
 30
0.0
 40
0.5
 50
0.0
 51
90.0
  0
LINE
  8
0
  6
CONTINUOUS
 62
     1
 10
151.5
 20
42.5
 30
0.0
 11
152.7
 21
42.5
 31
0.0
  0
LINE
  8
0
  6
CONTINUOUS
 62
     1
 10
152.7
 20
42.5
 30
0.0
 11
152.7
 21
39.5
 31
0.0
  0
LINE
  8
0
  6
CONTINUOUS
 62
     1
 10
152.7
 20
39.5
 30
0.0
 11
151.5
 21
39.5
 31
0.0
  0
LINE
  8
0
  6
CONTINUOUS
 62
     1
 10
151.5
 20
39.5
 30
0.0
 11
151.5
 21
42.5
 31
0.0
  0
LINE
  8
0
  6
CONTINUOUS
 62
     1
 10
149.25
 20
56.2
 30
0.0
 11
150.0
 21
56.2
 31
0.0
  0
LINE
  8
0
  6
CONTINUOUS
 62
     1
 10
149.25
 20
41.8
 30
0.0
 11
150.0
 21
41.8
 31
0.0
  0
ARC
  8
0
  6
CONTINUOUS
 62
     1
 10
155.249744349
 20
29.10653992
 30
0.0
 40
0.405
 50
270.0
 51
90.0
  0
LINE
  8
0
  6
CONTINUOUS
 62
     1
 10
155.249744349
 20
29.51153992
 30
0.0
 11
154.375225296
 21
29.526251352
 31
0.0
  0
LINE
  8
0
  6
CONTINUOUS
 62
     1
 10
155.249744349
 20
28.70153992
 30
0.0
 11
149.375225296
 21
28.626251352
 31
0.0
  0
LINE
  8
0
  6
CONTINUOUS
 62
     1
 10
149.375225296
 20
28.626251352
 30
0.0
 11
148.275225296
 21
29.926251352
 31
0.0
  0
ARC
  8
0
  6
CONTINUOUS
 62
     1
 10
155.249744349
 20
68.89346008
 30
0.0
 40
0.405
 50
270.0
 51
90.0
  0
LINE
  8
0
  6
CONTINUOUS
 62
     1
 10
155.249744349
 20
69.29846008
 30
0.0
 11
149.375225296
 21
69.373748648
 31
0.0
  0
LINE
  8
0
  6
CONTINUOUS
 62
     1
 10
149.375225296
 20
69.373748648
 30
0.0
 11
148.275225296
 21
68.073748648
 31
0.0
  0
LINE
  8
0
  6
CONTINUOUS
 62
     1
 10
140.0
 20
47.0
 30
0.0
 11
135.0
 21
51.0
 31
0.0
  0
LINE
  8
0
  6
CONTINUOUS
 62
     1
 10
140.0
 20
49.0
 30
0.0
 11
135.0
 21
53.0
 31
0.0
  0
LINE
  8
0
  6
CONTINUOUS
 62
     1
 10
140.0
 20
51.0
 30
0.0
 11
135.0
 21
55.0
 31
0.0
  0
LINE
  8
0
  6
CONTINUOUS
 62
     1
 10
140.0
 20
53.0
 30
0.0
 11
135.0
 21
57.0
 31
0.0
  0
LINE
  8
0
  6
CONTINUOUS
 62
     1
 10
140.0
 20
55.0
 30
0.0
 11
135.0
 21
59.0
 31
0.0
  0
LINE
  8
0
  6
CONTINUOUS
 62
     1
 10
140.0
 20
57.0
 30
0.0
 11
135.0
 21
61.0
 31
0.0
  0
LINE
  8
0
  6
CONTINUOUS
 62
     1
 10
140.0
 20
59.0
 30
0.0
 11
135.0
 21
63.0
 31
0.0
  0
LINE
  8
0
  6
CONTINUOUS
 62
     1
 10
140.0
 20
61.0
 30
0.0
 11
135.0
 21
65.0
 31
0.0
  0
LINE
  8
0
  6
CONTINUOUS
 62
     1
 10
140.0
 20
63.0
 30
0.0
 11
135.0
 21
67.0
 31
0.0
  0
LINE
  8
0
  6
CONTINUOUS
 62
     1
 10
140.0
 20
65.0
 30
0.0
 11
135.0
 21
69.0
 31
0.0
  0
LINE
  8
0
  6
CONTINUOUS
 62
     1
 10
140.0
 20
67.0
 30
0.0
 11
135.0
 21
71.0
 31
0.0
  0
LINE
  8
0
  6
CONTINUOUS
 62
     1
 10
140.0
 20
69.0
 30
0.0
 11
135.0
 21
73.0
 31
0.0
  0
LINE
  8
0
  6
CONTINUOUS
 62
     1
 10
140.0
 20
71.0
 30
0.0
 11
135.0
 21
75.0
 31
0.0
  0
LINE
  8
0
  6
CONTINUOUS
 62
     1
 10
140.0
 20
73.0
 30
0.0
 11
135.0
 21
77.0
 31
0.0
  0
LINE
  8
0
  6
CONTINUOUS
 62
     1
 10
140.0
 20
75.0
 30
0.0
 11
135.0
 21
79.0
 31
0.0
  0
LINE
  8
0
  6
CONTINUOUS
 62
     1
 10
140.0
 20
77.0
 30
0.0
 11
135.0
 21
81.0
 31
0.0
  0
LINE
  8
0
  6
CONTINUOUS
 62
     1
 10
140.0
 20
45.0
 30
0.0
 11
135.0
 21
49.0
 31
0.0
  0
LINE
  8
0
  6
CONTINUOUS
 62
     1
 10
140.0
 20
43.0
 30
0.0
 11
135.0
 21
47.0
 31
0.0
  0
LINE
  8
0
  6
CONTINUOUS
 62
     1
 10
140.0
 20
41.0
 30
0.0
 11
135.0
 21
45.0
 31
0.0
  0
LINE
  8
0
  6
CONTINUOUS
 62
     1
 10
140.0
 20
39.0
 30
0.0
 11
135.0
 21
43.0
 31
0.0
  0
LINE
  8
0
  6
CONTINUOUS
 62
     1
 10
140.0
 20
37.0
 30
0.0
 11
135.0
 21
41.0
 31
0.0
  0
LINE
  8
0
  6
CONTINUOUS
 62
     1
 10
140.0
 20
35.0
 30
0.0
 11
135.0
 21
39.0
 31
0.0
  0
LINE
  8
0
  6
CONTINUOUS
 62
     1
 10
140.0
 20
33.0
 30
0.0
 11
135.0
 21
37.0
 31
0.0
  0
LINE
  8
0
  6
CONTINUOUS
 62
     1
 10
140.0
 20
31.0
 30
0.0
 11
135.0
 21
35.0
 31
0.0
  0
LINE
  8
0
  6
CONTINUOUS
 62
     1
 10
140.0
 20
29.0
 30
0.0
 11
135.0
 21
33.0
 31
0.0
  0
LINE
  8
0
  6
CONTINUOUS
 62
     1
 10
140.0
 20
27.0
 30
0.0
 11
135.0
 21
31.0
 31
0.0
  0
LINE
  8
0
  6
CONTINUOUS
 62
     1
 10
140.0
 20
25.0
 30
0.0
 11
135.0
 21
29.0
 31
0.0
  0
LINE
  8
0
  6
CONTINUOUS
 62
     1
 10
140.0
 20
23.0
 30
0.0
 11
135.0
 21
27.0
 31
0.0
  0
LINE
  8
0
  6
CONTINUOUS
 62
     1
 10
140.0
 20
79.0
 30
0.0
 11
135.0
 21
83.0
 31
0.0
  0
LINE
  8
0
  6
CONTINUOUS
 62
     1
 10
140.0
 20
81.0
 30
0.0
 11
137.5
 21
83.0
 31
0.0
  0
LINE
  8
0
  6
CONTINUOUS
 62
     1
 10
140.0
 20
83.0
 30
0.0
 11
140.0
 21
22.0
 31
0.0
  0
LINE
  8
0
  6
CONTINUOUS
 62
     1
 10
138.75
 20
22.0
 30
0.0
 11
135.0
 21
25.0
 31
0.0
  0
LINE
  8
0
  6
CONTINUOUS
 62
     1
 10
136.25
 20
22.0
 30
0.0
 11
135.0
 21
23.0
 31
0.0
  0
LINE
  8
0
  6
CONTINUOUS
 62
     1
 10
150.0
 20
68.5
 30
0.0
 11
200.0
 21
68.5
 31
0.0
  0
LINE
  8
0
  6
CONTINUOUS
 62
     1
 10
150.0
 20
29.5
 30
0.0
 11
200.0
 21
29.5
 31
0.0
  0
LINE
  8
0
  6
CONTINUOUS
 62
     1
 10
200.0
 20
29.5
 30
0.0
 11
200.0
 21
68.5
 31
0.0
  0
LINE
  8
0
  6
CONTINUOUS
 62
     2
 10
140.0
 20
78.0
 30
0.0
 11
142.414814566
 21
77.352952387
 31
0.0
  0
LINE
  8
0
  6
CONTINUOUS
 62
     2
 10
140.0
 20
78.0
 30
0.0
 11
142.414814566
 21
78.647047613
 31
0.0
  0
LINE
  8
0
  6
CONTINUOUS
 62
     2
 10
140.0
 20
78.0
 30
0.0
 11
200.0
 21
78.0
 31
0.0
  0
LINE
  8
0
  6
CONTINUOUS
 62
     2
 10
200.0
 20
78.0
 30
0.0
 11
197.585185434
 21
78.647047613
 31
0.0
  0
LINE
  8
0
  6
CONTINUOUS
 62
     2
 10
200.0
 20
78.0
 30
0.0
 11
197.585185434
 21
77.352952387
 31
0.0
  0
TEXT
  8
0
  6
CONTINUOUS
 62
     2
 10
161.5
 20
79.0
 30
0.5
 40
3.0
  1
ｍａｘ．１２２
 50
0.0
 41
0.666666667
 51
0.0
  7
KANJI0
  0
LINE
  8
0
  6
LTYPE1
 62
     2
 10
205.0
 20
49.0
 30
0.0
 11
130.0
 21
49.0
 31
0.0
  0
LINE
  8
0
  6
CONTINUOUS
 62
     2
 10
200.0
 20
69.0
 30
0.0
 11
200.0
 21
79.0
 31
0.0
  0
LINE
  8
0
  6
CONTINUOUS
 62
     1
 10
90.0
 20
148.5
 30
0.0
 11
90.0
 21
109.5
 31
0.0
  0
LINE
  8
0
  6
CONTINUOUS
 62
     1
 10
90.3
 20
142.25
 30
0.0
 11
90.3
 21
129.0
 31
0.0
  0
LINE
  8
0
  6
CONTINUOUS
 62
     1
 10
94.0
 20
142.75
 30
0.0
 11
94.0
 21
148.5
 31
0.0
  0
LINE
  8
0
  6
CONTINUOUS
 62
     1
 10
90.0
 20
142.25
 30
0.0
 11
93.5
 21
142.25
 31
0.0
  0
ARC
  8
0
  6
CONTINUOUS
 62
     1
 10
93.5
 20
142.75
 30
0.0
 40
0.5
 50
270.0
 51
0.0
  0
LINE
  8
0
  6
CONTINUOUS
 62
     1
 10
91.5
 20
135.5
 30
0.0
 11
92.7
 21
135.5
 31
0.0
  0
LINE
  8
0
  6
CONTINUOUS
 62
     1
 10
92.7
 20
135.5
 30
0.0
 11
92.7
 21
138.5
 31
0.0
  0
LINE
  8
0
  6
CONTINUOUS
 62
     1
 10
92.7
 20
138.5
 30
0.0
 11
91.5
 21
138.5
 31
0.0
  0
LINE
  8
0
  6
CONTINUOUS
 62
     1
 10
91.5
 20
138.5
 30
0.0
 11
91.5
 21
135.5
 31
0.0
  0
LINE
  8
0
  6
CONTINUOUS
 62
     1
 10
90.3
 20
115.75
 30
0.0
 11
90.3
 21
129.0
 31
0.0
  0
LINE
  8
0
  6
CONTINUOUS
 62
     1
 10
94.0
 20
115.25
 30
0.0
 11
94.0
 21
109.5
 31
0.0
  0
LINE
  8
0
  6
CONTINUOUS
 62
     1
 10
90.0
 20
115.75
 30
0.0
 11
93.5
 21
115.75
 31
0.0
  0
ARC
  8
0
  6
CONTINUOUS
 62
     1
 10
93.5
 20
115.25
 30
0.0
 40
0.5
 50
0.0
 51
90.0
  0
LINE
  8
0
  6
CONTINUOUS
 62
     1
 10
91.5
 20
122.5
 30
0.0
 11
92.7
 21
122.5
 31
0.0
  0
LINE
  8
0
  6
CONTINUOUS
 62
     1
 10
92.7
 20
122.5
 30
0.0
 11
92.7
 21
119.5
 31
0.0
  0
LINE
  8
0
  6
CONTINUOUS
 62
     1
 10
92.7
 20
119.5
 30
0.0
 11
91.5
 21
119.5
 31
0.0
  0
LINE
  8
0
  6
CONTINUOUS
 62
     1
 10
91.5
 20
119.5
 30
0.0
 11
91.5
 21
122.5
 31
0.0
  0
LINE
  8
0
  6
CONTINUOUS
 62
     1
 10
90.0
 20
133.340125052
 30
0.0
 11
87.0
 21
133.340125052
 31
0.0
  0
LINE
  8
0
  6
CONTINUOUS
 62
     1
 10
90.0
 20
132.340125052
 30
0.0
 11
87.0
 21
132.340125052
 31
0.0
  0
ARC
  8
0
  6
CONTINUOUS
 62
     1
 10
87.0
 20
132.840125052
 30
0.0
 40
0.5
 50
90.0
 51
270.0
  0
LINE
  8
0
  6
CONTINUOUS
 62
     1
 10
90.0
 20
131.095698416
 30
0.0
 11
87.0
 21
131.095698416
 31
0.0
  0
LINE
  8
0
  6
CONTINUOUS
 62
     1
 10
90.0
 20
130.095698416
 30
0.0
 11
87.0
 21
130.095698416
 31
0.0
  0
ARC
  8
0
  6
CONTINUOUS
 62
     1
 10
87.0
 20
130.595698416
 30
0.0
 40
0.5
 50
90.0
 51
270.0
  0
LINE
  8
0
  6
CONTINUOUS
 62
     1
 10
85.0
 20
129.0
 30
0.0
 11
85.0
 21
130.395698416
 31
0.0
  0
LINE
  8
0
  6
CONTINUOUS
 62
     1
 10
85.2
 20
130.595698416
 30
0.0
 11
86.5
 21
130.595698416
 31
0.0
  0
ARC
  8
0
  6
CONTINUOUS
 62
     1
 10
85.2
 20
130.395698416
 30
0.0
 40
0.2
 50
90.0
 51
180.0
  0
LINE
  8
0
  6
CONTINUOUS
 62
     1
 10
90.0
 20
124.659874948
 30
0.0
 11
87.0
 21
124.659874948
 31
0.0
  0
LINE
  8
0
  6
CONTINUOUS
 62
     1
 10
90.0
 20
125.659874948
 30
0.0
 11
87.0
 21
125.659874948
 31
0.0
  0
ARC
  8
0
  6
CONTINUOUS
 62
     1
 10
87.0
 20
125.159874948
 30
0.0
 40
0.5
 50
90.0
 51
270.0
  0
LINE
  8
0
  6
CONTINUOUS
 62
     1
 10
90.0
 20
126.904301584
 30
0.0
 11
87.0
 21
126.904301584
 31
0.0
  0
LINE
  8
0
  6
CONTINUOUS
 62
     1
 10
90.0
 20
127.904301584
 30
0.0
 11
87.0
 21
127.904301584
 31
0.0
  0
ARC
  8
0
  6
CONTINUOUS
 62
     1
 10
87.0
 20
127.404301584
 30
0.0
 40
0.5
 50
90.0
 51
270.0
  0
LINE
  8
0
  6
CONTINUOUS
 62
     1
 10
85.0
 20
129.0
 30
0.0
 11
85.0
 21
127.604301584
 31
0.0
  0
LINE
  8
0
  6
CONTINUOUS
 62
     1
 10
85.2
 20
127.404301584
 30
0.0
 11
86.5
 21
127.404301584
 31
0.0
  0
ARC
  8
0
  6
CONTINUOUS
 62
     1
 10
85.2
 20
127.604301584
 30
0.0
 40
0.2
 50
180.0
 51
270.0
  0
POINT
  8
0
  6
CONTINUOUS
 62
     1
 10
86.0
 20
127.404301584
 30
0.0
  0
LINE
  8
0
  6
CONTINUOUS
 62
     1
 10
86.0
 20
127.404301584
 30
0.0
 11
86.02
 21
127.204301584
 31
0.0
  0
LINE
  8
0
  6
CONTINUOUS
 62
     1
 10
86.02
 20
127.204301584
 30
0.0
 11
86.1
 21
127.104301584
 31
0.0
  0
LINE
  8
0
  6
CONTINUOUS
 62
     1
 10
86.1
 20
127.104301584
 30
0.0
 11
86.29
 21
126.974301584
 31
0.0
  0
LINE
  8
0
  6
CONTINUOUS
 62
     1
 10
86.29
 20
126.974301584
 30
0.0
 11
86.7
 21
126.954301584
 31
0.0
  0
LINE
  8
0
  6
CONTINUOUS
 62
     1
 10
86.7
 20
126.954301584
 30
0.0
 11
86.93
 21
126.954301584
 31
0.0
  0
LINE
  8
0
  6
CONTINUOUS
 62
     1
 10
90.0
 20
148.5
 30
0.0
 11
140.0
 21
148.5
 31
0.0
  0
LINE
  8
0
  6
CONTINUOUS
 62
     1
 10
90.0
 20
109.5
 30
0.0
 11
140.0
 21
109.5
 31
0.0
  0
LINE
  8
0
  6
CONTINUOUS
 62
     1
 10
140.0
 20
109.5
 30
0.0
 11
140.0
 21
148.5
 31
0.0
  0
LINE
  8
0
  6
LTYPE1
 62
     2
 10
80.0
 20
129.0
 30
0.0
 11
145.0
 21
129.0
 31
0.0
  0
LINE
  8
0
  6
CONTINUOUS
 62
     2
 10
85.0
 20
164.0
 30
0.0
 11
87.414814566
 21
163.352952387
 31
0.0
  0
LINE
  8
0
  6
CONTINUOUS
 62
     2
 10
85.0
 20
164.0
 30
0.0
 11
87.414814566
 21
164.647047613
 31
0.0
  0
LINE
  8
0
  6
CONTINUOUS
 62
     2
 10
85.0
 20
164.0
 30
0.0
 11
140.0
 21
164.0
 31
0.0
  0
LINE
  8
0
  6
CONTINUOUS
 62
     2
 10
140.0
 20
164.0
 30
0.0
 11
137.585185434
 21
164.647047613
 31
0.0
  0
LINE
  8
0
  6
CONTINUOUS
 62
     2
 10
140.0
 20
164.0
 30
0.0
 11
137.585185434
 21
163.352952387
 31
0.0
  0
TEXT
  8
0
  6
CONTINUOUS
 62
     2
 10
109.0
 20
165.0
 30
0.5
 40
3.0
  1
１１０
 50
0.0
 41
0.666666667
 51
0.0
  7
KANJI0
  0
LINE
  8
0
  6
CONTINUOUS
 62
     2
 10
140.0
 20
159.0
 30
0.0
 11
137.585185434
 21
159.647047613
 31
0.0
  0
LINE
  8
0
  6
CONTINUOUS
 62
     2
 10
140.0
 20
159.0
 30
0.0
 11
137.585185434
 21
158.352952387
 31
0.0
  0
LINE
  8
0
  6
CONTINUOUS
 62
     2
 10
90.0
 20
159.0
 30
0.0
 11
92.414814566
 21
158.352952387
 31
0.0
  0
TEXT
  8
0
  6
CONTINUOUS
 62
     2
 10
111.5
 20
160.0
 30
0.5
 40
3.0
  1
１００
 50
0.0
 41
0.666666667
 51
0.0
  7
KANJI0
  0
LINE
  8
0
  6
CONTINUOUS
 62
     2
 10
90.0
 20
159.0
 30
0.0
 11
92.414814566
 21
159.647047613
 31
0.0
  0
LINE
  8
0
  6
CONTINUOUS
 62
     2
 10
85.0
 20
159.0
 30
0.0
 11
82.585185434
 21
159.647047613
 31
0.0
  0
LINE
  8
0
  6
CONTINUOUS
 62
     2
 10
85.0
 20
159.0
 30
0.0
 11
82.585185434
 21
158.352952387
 31
0.0
  0
TEXT
  8
0
  6
CONTINUOUS
 62
     2
 10
85.25
 20
160.0
 30
0.5
 40
3.0
  1
１０
 50
0.0
 41
0.666666667
 51
0.0
  7
KANJI0
  0
LINE
  8
0
  6
CONTINUOUS
 62
     2
 10
140.0
 20
159.0
 30
0.0
 11
80.0
 21
159.0
 31
0.0
  0
LINE
  8
0
  6
CONTINUOUS
 62
     2
 10
90.0
 20
149.5
 30
0.0
 11
90.0
 21
160.0
 31
0.0
  0
LINE
  8
0
  6
CONTINUOUS
 62
     2
 10
85.0
 20
131.5
 30
0.0
 11
85.0
 21
165.0
 31
0.0
  0
LINE
  8
0
  6
CONTINUOUS
 62
     2
 10
140.0
 20
149.5
 30
0.0
 11
140.0
 21
165.0
 31
0.0
  0
LINE
  8
0
  6
CONTINUOUS
 62
     1
 10
65.5
 20
109.5
 30
0.0
 11
65.5
 21
148.5
 31
0.0
  0
LINE
  8
0
  6
CONTINUOUS
 62
     1
 10
40.5
 20
148.5
 30
0.0
 11
40.5
 21
109.5
 31
0.0
  0
LINE
  8
0
  6
CONTINUOUS
 62
     1
 10
64.5
 20
110.5
 30
0.0
 11
64.5
 21
115.75
 31
0.0
  0
LINE
  8
0
  6
CONTINUOUS
 62
     1
 10
64.5
 20
115.75
 30
0.0
 11
63.5
 21
115.75
 31
0.0
  0
LINE
  8
0
  6
CONTINUOUS
 62
     1
 10
41.5
 20
110.5
 30
0.0
 11
41.5
 21
115.75
 31
0.0
  0
LINE
  8
0
  6
CONTINUOUS
 62
     1
 10
41.5
 20
115.75
 30
0.0
 11
42.5
 21
115.75
 31
0.0
  0
LINE
  8
0
  6
CONTINUOUS
 62
     1
 10
42.5
 20
142.25
 30
0.0
 11
41.5
 21
142.25
 31
0.0
  0
LINE
  8
0
  6
CONTINUOUS
 62
     1
 10
41.5
 20
142.25
 30
0.0
 11
41.5
 21
147.5
 31
0.0
  0
LINE
  8
0
  6
CONTINUOUS
 62
     1
 10
64.5
 20
147.5
 30
0.0
 11
64.5
 21
142.25
 31
0.0
  0
LINE
  8
0
  6
CONTINUOUS
 62
     1
 10
64.5
 20
142.25
 30
0.0
 11
63.5
 21
142.25
 31
0.0
  0
LINE
  8
0
  6
CONTINUOUS
 62
     1
 10
63.5
 20
142.25
 30
0.0
 11
63.5
 21
137.75
 31
0.0
  0
LINE
  8
0
  6
CONTINUOUS
 62
     1
 10
63.5
 20
137.75
 30
0.0
 11
42.5
 21
137.75
 31
0.0
  0
LINE
  8
0
  6
CONTINUOUS
 62
     1
 10
42.5
 20
137.75
 30
0.0
 11
42.5
 21
142.25
 31
0.0
  0
LINE
  8
0
  6
CONTINUOUS
 62
     1
 10
42.5
 20
115.75
 30
0.0
 11
42.5
 21
120.25
 31
0.0
  0
LINE
  8
0
  6
CONTINUOUS
 62
     1
 10
42.5
 20
120.25
 30
0.0
 11
63.5
 21
120.25
 31
0.0
  0
LINE
  8
0
  6
CONTINUOUS
 62
     1
 10
63.5
 20
120.25
 30
0.0
 11
63.5
 21
115.75
 31
0.0
  0
LINE
  8
0
  6
CONTINUOUS
 62
     1
 10
64.5
 20
115.75
 30
0.0
 11
64.5
 21
142.25
 31
0.0
  0
LINE
  8
0
  6
CONTINUOUS
 62
     1
 10
41.5
 20
142.25
 30
0.0
 11
41.5
 21
115.75
 31
0.0
  0
LINE
  8
0
  6
CONTINUOUS
 62
     1
 10
42.5
 20
121.25
 30
0.0
 11
63.5
 21
121.25
 31
0.0
  0
LINE
  8
0
  6
CONTINUOUS
 62
     1
 10
63.5
 20
121.25
 30
0.0
 11
63.5
 21
136.75
 31
0.0
  0
LINE
  8
0
  6
CONTINUOUS
 62
     1
 10
63.5
 20
136.75
 30
0.0
 11
42.5
 21
136.75
 31
0.0
  0
LINE
  8
0
  6
CONTINUOUS
 62
     1
 10
42.5
 20
136.75
 30
0.0
 11
42.5
 21
121.25
 31
0.0
  0
LINE
  8
0
  6
CONTINUOUS
 62
     1
 10
51.0
 20
113.0
 30
0.0
 11
55.0
 21
113.0
 31
0.0
  0
LINE
  8
0
  6
CONTINUOUS
 62
     1
 10
40.5
 20
109.5
 30
0.0
 11
52.0
 21
109.5
 31
0.0
  0
LINE
  8
0
  6
CONTINUOUS
 62
     1
 10
54.0
 20
109.5
 30
0.0
 11
65.5
 21
109.5
 31
0.0
  0
LINE
  8
0
  6
CONTINUOUS
 62
     1
 10
55.0
 20
110.5
 30
0.0
 11
64.5
 21
110.5
 31
0.0
  0
LINE
  8
0
  6
CONTINUOUS
 62
     1
 10
51.0
 20
113.0
 30
0.0
 11
51.0
 21
110.5
 31
0.0
  0
LINE
  8
0
  6
CONTINUOUS
 62
     1
 10
41.5
 20
110.5
 30
0.0
 11
51.0
 21
110.5
 31
0.0
  0
LINE
  8
0
  6
CONTINUOUS
 62
     1
 10
52.0
 20
112.0
 30
0.0
 11
52.0
 21
109.5
 31
0.0
  0
LINE
  8
0
  6
CONTINUOUS
 62
     1
 10
54.0
 20
112.0
 30
0.0
 11
52.0
 21
112.0
 31
0.0
  0
LINE
  8
0
  6
CONTINUOUS
 62
     1
 10
54.0
 20
112.0
 30
0.0
 11
54.0
 21
109.5
 31
0.0
  0
LINE
  8
0
  6
CONTINUOUS
 62
     1
 10
55.0
 20
145.0
 30
0.0
 11
55.0
 21
147.5
 31
0.0
  0
LINE
  8
0
  6
CONTINUOUS
 62
     1
 10
54.0
 20
146.0
 30
0.0
 11
52.0
 21
146.0
 31
0.0
  0
LINE
  8
0
  6
CONTINUOUS
 62
     1
 10
54.0
 20
146.0
 30
0.0
 11
54.0
 21
148.5
 31
0.0
  0
LINE
  8
0
  6
CONTINUOUS
 62
     1
 10
65.5
 20
148.5
 30
0.0
 11
54.0
 21
148.5
 31
0.0
  0
LINE
  8
0
  6
CONTINUOUS
 62
     1
 10
52.0
 20
146.0
 30
0.0
 11
52.0
 21
148.5
 31
0.0
  0
LINE
  8
0
  6
CONTINUOUS
 62
     1
 10
52.0
 20
148.5
 30
0.0
 11
40.5
 21
148.5
 31
0.0
  0
LINE
  8
0
  6
CONTINUOUS
 62
     1
 10
41.5
 20
147.5
 30
0.0
 11
51.0
 21
147.5
 31
0.0
  0
LINE
  8
0
  6
CONTINUOUS
 62
     1
 10
51.0
 20
145.0
 30
0.0
 11
51.0
 21
147.5
 31
0.0
  0
LINE
  8
0
  6
CONTINUOUS
 62
     1
 10
51.0
 20
145.0
 30
0.0
 11
55.0
 21
145.0
 31
0.0
  0
LINE
  8
0
  6
CONTINUOUS
 62
     1
 10
55.0
 20
147.5
 30
0.0
 11
64.5
 21
147.5
 31
0.0
  0
LINE
  8
0
  6
CONTINUOUS
 62
     1
 10
55.0
 20
145.0
 30
0.0
 11
55.0
 21
137.75
 31
0.0
  0
LINE
  8
0
  6
CONTINUOUS
 62
     1
 10
51.0
 20
145.0
 30
0.0
 11
51.0
 21
142.25
 31
0.0
  0
LINE
  8
0
  6
CONTINUOUS
 62
     1
 10
47.0
 20
142.25
 30
0.0
 11
55.0
 21
142.25
 31
0.0
  0
LINE
  8
0
  6
CONTINUOUS
 62
     1
 10
45.5
 20
137.75
 30
0.0
 11
45.5
 21
140.75
 31
0.0
  0
ARC
  8
0
  6
CONTINUOUS
 62
     1
 10
47.0
 20
140.75
 30
0.0
 40
1.5
 50
90.0
 51
180.0
  0
ARC
  8
0
  6
CONTINUOUS
 62
     1
 10
52.0
 20
140.25
 30
0.0
 40
0.5
 50
0.0
 51
180.0
  0
ARC
  8
0
  6
CONTINUOUS
 62
     1
 10
52.0
 20
138.75
 30
0.0
 40
0.5
 50
180.0
 51
0.0
  0
LINE
  8
0
  6
CONTINUOUS
 62
     1
 10
52.5
 20
138.75
 30
0.0
 11
52.5
 21
140.25
 31
0.0
  0
LINE
  8
0
  6
CONTINUOUS
 62
     1
 10
51.5
 20
140.25
 30
0.0
 11
51.5
 21
138.75
 31
0.0
  0
ARC
  8
0
  6
CONTINUOUS
 62
     1
 10
50.0
 20
140.25
 30
0.0
 40
0.5
 50
0.0
 51
180.0
  0
ARC
  8
0
  6
CONTINUOUS
 62
     1
 10
50.0
 20
138.75
 30
0.0
 40
0.5
 50
180.0
 51
0.0
  0
LINE
  8
0
  6
CONTINUOUS
 62
     1
 10
50.5
 20
138.75
 30
0.0
 11
50.5
 21
140.25
 31
0.0
  0
LINE
  8
0
  6
CONTINUOUS
 62
     1
 10
49.5
 20
140.25
 30
0.0
 11
49.5
 21
138.75
 31
0.0
  0
ARC
  8
0
  6
CONTINUOUS
 62
     1
 10
48.0
 20
140.25
 30
0.0
 40
0.5
 50
0.0
 51
180.0
  0
ARC
  8
0
  6
CONTINUOUS
 62
     1
 10
48.0
 20
138.75
 30
0.0
 40
0.5
 50
180.0
 51
0.0
  0
LINE
  8
0
  6
CONTINUOUS
 62
     1
 10
48.5
 20
138.75
 30
0.0
 11
48.5
 21
140.25
 31
0.0
  0
LINE
  8
0
  6
CONTINUOUS
 62
     1
 10
47.5
 20
140.25
 30
0.0
 11
47.5
 21
138.75
 31
0.0
  0
LINE
  8
0
  6
CONTINUOUS
 62
     1
 10
64.5
 20
122.25
 30
0.0
 11
64.25
 21
122.25
 31
0.0
  0
LINE
  8
0
  6
CONTINUOUS
 62
     1
 10
64.25
 20
122.25
 30
0.0
 11
64.25
 21
119.75
 31
0.0
  0
LINE
  8
0
  6
CONTINUOUS
 62
     1
 10
64.25
 20
119.75
 30
0.0
 11
64.5
 21
119.75
 31
0.0
  0
LINE
  8
0
  6
CONTINUOUS
 62
     1
 10
64.5
 20
135.75
 30
0.0
 11
64.25
 21
135.75
 31
0.0
  0
LINE
  8
0
  6
CONTINUOUS
 62
     1
 10
64.25
 20
135.75
 30
0.0
 11
64.25
 21
138.25
 31
0.0
  0
LINE
  8
0
  6
CONTINUOUS
 62
     1
 10
64.25
 20
138.25
 30
0.0
 11
64.5
 21
138.25
 31
0.0
  0
LINE
  8
0
  6
CONTINUOUS
 62
     1
 10
41.5
 20
122.25
 30
0.0
 11
41.75
 21
122.25
 31
0.0
  0
LINE
  8
0
  6
CONTINUOUS
 62
     1
 10
41.75
 20
122.25
 30
0.0
 11
41.75
 21
119.75
 31
0.0
  0
LINE
  8
0
  6
CONTINUOUS
 62
     1
 10
41.75
 20
119.75
 30
0.0
 11
41.5
 21
119.75
 31
0.0
  0
LINE
  8
0
  6
CONTINUOUS
 62
     1
 10
41.5
 20
135.75
 30
0.0
 11
41.75
 21
135.75
 31
0.0
  0
LINE
  8
0
  6
CONTINUOUS
 62
     1
 10
41.75
 20
135.75
 30
0.0
 11
41.75
 21
138.25
 31
0.0
  0
LINE
  8
0
  6
CONTINUOUS
 62
     1
 10
41.75
 20
138.25
 30
0.0
 11
41.5
 21
138.25
 31
0.0
  0
LINE
  8
0
  6
CONTINUOUS
 62
     1
 10
51.0
 20
113.0
 30
0.0
 11
51.0
 21
115.75
 31
0.0
  0
LINE
  8
0
  6
CONTINUOUS
 62
     1
 10
51.0
 20
115.75
 30
0.0
 11
55.0
 21
115.75
 31
0.0
  0
LINE
  8
0
  6
CONTINUOUS
 62
     1
 10
55.0
 20
115.75
 30
0.0
 11
55.0
 21
110.5
 31
0.0
  0
LINE
  8
0
  6
CONTINUOUS
 62
     1
 10
41.5
 20
112.5
 30
0.0
 11
45.5
 21
112.5
 31
0.0
  0
LINE
  8
0
  6
CONTINUOUS
 62
     1
 10
45.5
 20
112.5
 30
0.0
 11
45.5
 21
110.5
 31
0.0
  0
LINE
  8
0
  6
CONTINUOUS
 62
     1
 10
43.25
 20
112.5
 30
0.0
 11
43.25
 21
112.0
 31
0.0
  0
LINE
  8
0
  6
CONTINUOUS
 62
     1
 10
43.25
 20
112.0
 30
0.0
 11
43.75
 21
112.0
 31
0.0
  0
LINE
  8
0
  6
CONTINUOUS
 62
     1
 10
43.75
 20
112.0
 30
0.0
 11
43.75
 21
112.5
 31
0.0
  0
LINE
  8
0
  6
CONTINUOUS
 62
     1
 10
44.75
 20
112.5
 30
0.0
 11
44.75
 21
111.0
 31
0.0
  0
LINE
  8
0
  6
CONTINUOUS
 62
     1
 10
44.75
 20
111.0
 30
0.0
 11
42.25
 21
111.0
 31
0.0
  0
LINE
  8
0
  6
CONTINUOUS
 62
     1
 10
42.25
 20
111.0
 30
0.0
 11
42.25
 21
112.5
 31
0.0
  0
LINE
  8
0
  6
CONTINUOUS
 62
     1
 10
64.5
 20
112.5
 30
0.0
 11
60.5
 21
112.5
 31
0.0
  0
LINE
  8
0
  6
CONTINUOUS
 62
     1
 10
60.5
 20
112.5
 30
0.0
 11
60.5
 21
110.5
 31
0.0
  0
LINE
  8
0
  6
CONTINUOUS
 62
     1
 10
62.75
 20
112.5
 30
0.0
 11
62.75
 21
112.0
 31
0.0
  0
LINE
  8
0
  6
CONTINUOUS
 62
     1
 10
62.75
 20
112.0
 30
0.0
 11
62.25
 21
112.0
 31
0.0
  0
LINE
  8
0
  6
CONTINUOUS
 62
     1
 10
62.25
 20
112.0
 30
0.0
 11
62.25
 21
112.5
 31
0.0
  0
LINE
  8
0
  6
CONTINUOUS
 62
     1
 10
61.25
 20
112.5
 30
0.0
 11
61.25
 21
111.0
 31
0.0
  0
LINE
  8
0
  6
CONTINUOUS
 62
     1
 10
61.25
 20
111.0
 30
0.0
 11
63.75
 21
111.0
 31
0.0
  0
LINE
  8
0
  6
CONTINUOUS
 62
     1
 10
63.75
 20
111.0
 30
0.0
 11
63.75
 21
112.5
 31
0.0
  0
LINE
  8
0
  6
CONTINUOUS
 62
     1
 10
64.5
 20
145.5
 30
0.0
 11
60.5
 21
145.5
 31
0.0
  0
LINE
  8
0
  6
CONTINUOUS
 62
     1
 10
60.5
 20
145.5
 30
0.0
 11
60.5
 21
147.5
 31
0.0
  0
LINE
  8
0
  6
CONTINUOUS
 62
     1
 10
62.75
 20
145.5
 30
0.0
 11
62.75
 21
146.0
 31
0.0
  0
LINE
  8
0
  6
CONTINUOUS
 62
     1
 10
62.75
 20
146.0
 30
0.0
 11
62.25
 21
146.0
 31
0.0
  0
LINE
  8
0
  6
CONTINUOUS
 62
     1
 10
62.25
 20
146.0
 30
0.0
 11
62.25
 21
145.5
 31
0.0
  0
LINE
  8
0
  6
CONTINUOUS
 62
     1
 10
61.25
 20
145.5
 30
0.0
 11
61.25
 21
147.0
 31
0.0
  0
LINE
  8
0
  6
CONTINUOUS
 62
     1
 10
61.25
 20
147.0
 30
0.0
 11
63.75
 21
147.0
 31
0.0
  0
LINE
  8
0
  6
CONTINUOUS
 62
     1
 10
63.75
 20
147.0
 30
0.0
 11
63.75
 21
145.5
 31
0.0
  0
LINE
  8
0
  6
CONTINUOUS
 62
     1
 10
41.5
 20
145.5
 30
0.0
 11
45.5
 21
145.5
 31
0.0
  0
LINE
  8
0
  6
CONTINUOUS
 62
     1
 10
45.5
 20
145.5
 30
0.0
 11
45.5
 21
147.5
 31
0.0
  0
LINE
  8
0
  6
CONTINUOUS
 62
     1
 10
43.25
 20
145.5
 30
0.0
 11
43.25
 21
146.0
 31
0.0
  0
LINE
  8
0
  6
CONTINUOUS
 62
     1
 10
43.25
 20
146.0
 30
0.0
 11
43.75
 21
146.0
 31
0.0
  0
LINE
  8
0
  6
CONTINUOUS
 62
     1
 10
43.75
 20
146.0
 30
0.0
 11
43.75
 21
145.5
 31
0.0
  0
LINE
  8
0
  6
CONTINUOUS
 62
     1
 10
44.75
 20
145.5
 30
0.0
 11
44.75
 21
147.0
 31
0.0
  0
LINE
  8
0
  6
CONTINUOUS
 62
     1
 10
44.75
 20
147.0
 30
0.0
 11
42.25
 21
147.0
 31
0.0
  0
LINE
  8
0
  6
CONTINUOUS
 62
     1
 10
42.25
 20
147.0
 30
0.0
 11
42.25
 21
145.5
 31
0.0
  0
CIRCLE
  8
0
  6
CONTINUOUS
 62
     1
 10
53.0
 20
129.0
 30
0.0
 40
7.0
  0
CIRCLE
  8
0
  6
CONTINUOUS
 62
     1
 10
53.0
 20
129.0
 30
0.0
 40
6.25
  0
CIRCLE
  8
0
  6
CONTINUOUS
 62
     1
 10
53.0
 20
129.0
 30
0.0
 40
1.875
  0
ARC
  8
0
  6
CONTINUOUS
 62
     1
 10
53.0
 20
127.05
 30
0.0
 40
0.375
 50
180.0
 51
0.0
  0
LINE
  8
0
  6
CONTINUOUS
 62
     1
 10
52.65
 20
127.05
 30
0.0
 11
52.65
 21
127.15
 31
0.0
  0
LINE
  8
0
  6
CONTINUOUS
 62
     1
 10
53.35
 20
127.05
 30
0.0
 11
53.35
 21
127.15
 31
0.0
  0
LINE
  8
0
  6
CONTINUOUS
 62
     1
 10
52.752501001
 20
126.752501001
 30
0.0
 11
52.75
 21
122.755002002
 31
0.0
  0
LINE
  8
0
  6
CONTINUOUS
 62
     1
 10
53.25
 20
122.755002002
 30
0.0
 11
53.25
 21
126.770491503
 31
0.0
  0
LINE
  8
0
  6
CONTINUOUS
 62
     1
 10
46.75
 20
128.75
 30
0.0
 11
51.143844699
 21
128.734834957
 31
0.0
  0
LINE
  8
0
  6
CONTINUOUS
 62
     1
 10
54.856887169
 20
128.740009534
 30
0.0
 11
59.244343664
 21
128.734157555
 31
0.0
  0
LINE
  8
0
  6
CONTINUOUS
 62
     1
 10
54.129176487
 20
127.50314147
 30
0.0
 11
57.227438753
 21
124.396603255
 31
0.0
  0
LINE
  8
0
  6
CONTINUOUS
 62
     1
 10
57.580992144
 20
124.750156646
 30
0.0
 11
54.490432842
 21
127.862355528
 31
0.0
  0
LINE
  8
0
  6
CONTINUOUS
 62
     1
 10
48.757359313
 20
124.403805922
 30
0.0
 11
51.875
 21
127.5
 31
0.0
  0
LINE
  8
0
  6
CONTINUOUS
 62
     1
 10
51.51221571
 20
127.858893998
 30
0.0
 11
48.413618903
 21
124.754106875
 31
0.0
  0
CIRCLE
  8
0
  6
CONTINUOUS
 62
     1
 10
51.413243114
 20
125.159874948
 30
0.0
 40
0.5
  0
CIRCLE
  8
0
  6
CONTINUOUS
 62
     1
 10
49.16469501
 20
127.404301584
 30
0.0
 40
0.5
  0
CIRCLE
  8
0
  6
CONTINUOUS
 62
     1
 10
54.586756886
 20
125.159874948
 30
0.0
 40
0.5
  0
CIRCLE
  8
0
  6
CONTINUOUS
 62
     1
 10
56.83530499
 20
127.404301584
 30
0.0
 40
0.5
  0
LINE
  8
0
  6
CONTINUOUS
 62
     1
 10
46.75
 20
129.25
 30
0.0
 11
51.143844699
 21
129.265165043
 31
0.0
  0
LINE
  8
0
  6
CONTINUOUS
 62
     1
 10
48.757359313
 20
133.596194078
 30
0.0
 11
51.875
 21
130.5
 31
0.0
  0
LINE
  8
0
  6
CONTINUOUS
 62
     1
 10
51.51221571
 20
130.141106002
 30
0.0
 11
48.413618903
 21
133.245893125
 31
0.0
  0
CIRCLE
  8
0
  6
CONTINUOUS
 62
     1
 10
51.413243114
 20
132.840125052
 30
0.0
 40
0.5
  0
CIRCLE
  8
0
  6
CONTINUOUS
 62
     1
 10
49.16469501
 20
130.595698416
 30
0.0
 40
0.5
  0
LINE
  8
0
  6
CONTINUOUS
 62
     1
 10
54.856887169
 20
129.259990466
 30
0.0
 11
59.244343664
 21
129.265842445
 31
0.0
  0
LINE
  8
0
  6
CONTINUOUS
 62
     1
 10
54.129176487
 20
130.49685853
 30
0.0
 11
57.227438753
 21
133.603396745
 31
0.0
  0
LINE
  8
0
  6
CONTINUOUS
 62
     1
 10
57.580992144
 20
133.249843354
 30
0.0
 11
54.490432842
 21
130.137644472
 31
0.0
  0
CIRCLE
  8
0
  6
CONTINUOUS
 62
     1
 10
54.586756886
 20
132.840125052
 30
0.0
 40
0.5
  0
CIRCLE
  8
0
  6
CONTINUOUS
 62
     1
 10
56.83530499
 20
130.595698416
 30
0.0
 40
0.5
  0
LINE
  8
0
  6
CONTINUOUS
 62
     1
 10
52.75
 20
135.244997998
 30
0.0
 11
52.734834957
 21
130.856155301
 31
0.0
  0
LINE
  8
0
  6
CONTINUOUS
 62
     1
 10
53.25
 20
135.244997998
 30
0.0
 11
53.26824283
 21
130.855713012
 31
0.0
  0
LINE
  8
0
  6
LTYPE1
 62
     2
 10
53.0
 20
153.5
 30
0.0
 11
53.0
 21
104.5
 31
0.0
  0
LINE
  8
0
  6
LTYPE1
 62
     2
 10
35.5
 20
129.0
 30
0.0
 11
70.5
 21
129.0
 31
0.0
  0
TEXT
  8
0
  6
CONTINUOUS
 62
     2
 10
51.4
 20
131.1
 30
0.0
 40
1.2
  1
４
 50
0.0
 41
0.9
 51
0.0
  7
KANJI1
  0
TEXT
  8
0
  6
CONTINUOUS
 62
     2
 10
49.9
 20
129.5
 30
0.12
 40
1.2
  1
３
 50
0.0
 41
0.9
 51
0.0
  7
KANJI2
  0
TEXT
  8
0
  6
CONTINUOUS
 62
     2
 10
49.8
 20
127.4
 30
0.0
 40
1.2
  1
２
 50
0.0
 41
0.9
 51
0.0
  7
KANJI1
  0
TEXT
  8
0
  6
CONTINUOUS
 62
     2
 10
51.4
 20
125.8
 30
0.0
 40
1.2
  1
１
 50
0.0
 41
0.9
 51
0.0
  7
KANJI1
  0
TEXT
  8
0
  6
CONTINUOUS
 62
     2
 10
53.6
 20
125.8
 30
0.0
 40
1.2
  1
８
 50
0.0
 41
0.9
 51
0.0
  7
KANJI1
  0
TEXT
  8
0
  6
CONTINUOUS
 62
     2
 10
55.1
 20
127.3
 30
0.0
 40
1.2
  1
７
 50
0.0
 41
0.9
 51
0.0
  7
KANJI1
  0
TEXT
  8
0
  6
CONTINUOUS
 62
     2
 10
55.1
 20
129.5
 30
0.0
 40
1.2
  1
６
 50
0.0
 41
0.9
 51
0.0
  7
KANJI1
  0
TEXT
  8
0
  6
CONTINUOUS
 62
     2
 10
53.5
 20
131.1
 30
0.0
 40
1.2
  1
５
 50
0.0
 41
0.9
 51
0.0
  7
KANJI1
  0
LINE
  8
0
  6
CONTINUOUS
 62
     1
 10
104.75
 20
68.0
 30
0.0
 11
98.25
 21
68.0
 31
0.0
  0
LINE
  8
0
  6
CONTINUOUS
 62
     1
 10
98.25
 20
68.0
 30
0.0
 11
97.5
 21
67.25
 31
0.0
  0
LINE
  8
0
  6
CONTINUOUS
 62
     1
 10
97.5
 20
67.25
 30
0.0
 11
97.5
 21
30.75
 31
0.0
  0
LINE
  8
0
  6
CONTINUOUS
 62
     1
 10
97.5
 20
30.75
 30
0.0
 11
98.25
 21
30.0
 31
0.0
  0
LINE
  8
0
  6
CONTINUOUS
 62
     1
 10
98.25
 20
30.0
 30
0.0
 11
104.75
 21
30.0
 31
0.0
  0
LINE
  8
0
  6
CONTINUOUS
 62
     1
 10
104.75
 20
30.0
 30
0.0
 11
104.75
 21
68.0
 31
0.0
  0
LINE
  8
0
  6
CONTINUOUS
 62
     1
 10
104.75
 20
68.0
 30
0.0
 11
106.75
 21
68.0
 31
0.0
  0
LINE
  8
0
  6
CONTINUOUS
 62
     1
 10
106.75
 20
68.0
 30
0.0
 11
106.75
 21
57.75
 31
0.0
  0
LINE
  8
0
  6
CONTINUOUS
 62
     1
 10
106.75
 20
57.75
 30
0.0
 11
104.75
 21
57.75
 31
0.0
  0
LINE
  8
0
  6
CONTINUOUS
 62
     1
 10
104.75
 20
30.0
 30
0.0
 11
106.75
 21
30.0
 31
0.0
  0
LINE
  8
0
  6
CONTINUOUS
 62
     1
 10
106.75
 20
30.0
 30
0.0
 11
106.75
 21
40.25
 31
0.0
  0
LINE
  8
0
  6
CONTINUOUS
 62
     1
 10
106.75
 20
40.25
 30
0.0
 11
104.75
 21
40.25
 31
0.0
  0
LINE
  8
0
  6
CONTINUOUS
 62
     1
 10
97.5
 20
46.875
 30
0.0
 11
99.5
 21
46.875
 31
0.0
  0
LINE
  8
0
  6
CONTINUOUS
 62
     1
 10
99.5
 20
46.875
 30
0.0
 11
99.5
 21
51.125
 31
0.0
  0
LINE
  8
0
  6
CONTINUOUS
 62
     1
 10
99.5
 20
51.125
 30
0.0
 11
97.5
 21
51.125
 31
0.0
  0
LINE
  8
0
  6
CONTINUOUS
 62
     1
 10
97.5
 20
32.75
 30
0.0
 11
104.75
 21
32.75
 31
0.0
  0
LINE
  8
0
  6
CONTINUOUS
 62
     1
 10
104.75
 20
31.0
 30
0.0
 11
97.5
 21
31.0
 31
0.0
  0
LINE
  8
0
  6
CONTINUOUS
 62
     1
 10
97.5
 20
67.0
 30
0.0
 11
104.75
 21
67.0
 31
0.0
  0
LINE
  8
0
  6
CONTINUOUS
 62
     1
 10
104.75
 20
65.25
 30
0.0
 11
97.5
 21
65.25
 31
0.0
  0
LINE
  8
0
  6
CONTINUOUS
 62
     1
 10
104.75
 20
46.5
 30
0.0
 11
106.75
 21
46.5
 31
0.0
  0
LINE
  8
0
  6
CONTINUOUS
 62
     1
 10
106.75
 20
46.5
 30
0.0
 11
106.75
 21
44.5
 31
0.0
  0
LINE
  8
0
  6
CONTINUOUS
 62
     1
 10
106.75
 20
44.5
 30
0.0
 11
104.75
 21
44.5
 31
0.0
  0
LINE
  8
0
  6
CONTINUOUS
 62
     1
 10
104.75
 20
51.5
 30
0.0
 11
106.75
 21
51.5
 31
0.0
  0
LINE
  8
0
  6
CONTINUOUS
 62
     1
 10
106.75
 20
51.5
 30
0.0
 11
106.75
 21
53.5
 31
0.0
  0
LINE
  8
0
  6
CONTINUOUS
 62
     1
 10
106.75
 20
53.5
 30
0.0
 11
104.75
 21
53.5
 31
0.0
  0
LINE
  8
0
  6
CONTINUOUS
 62
     1
 10
97.5
 20
56.2
 30
0.0
 11
95.0
 21
56.2
 31
0.0
  0
LINE
  8
0
  6
CONTINUOUS
 62
     1
 10
95.0
 20
56.2
 30
0.0
 11
95.0
 21
41.8
 31
0.0
  0
LINE
  8
0
  6
CONTINUOUS
 62
     1
 10
95.0
 20
41.8
 30
0.0
 11
97.5
 21
41.8
 31
0.0
  0
LINE
  8
0
  6
CONTINUOUS
 62
     1
 10
97.5
 20
40.25
 30
0.0
 11
96.75
 21
40.25
 31
0.0
  0
LINE
  8
0
  6
CONTINUOUS
 62
     1
 10
96.75
 20
40.25
 30
0.0
 11
96.75
 21
38.0
 31
0.0
  0
LINE
  8
0
  6
CONTINUOUS
 62
     1
 10
96.75
 20
38.0
 30
0.0
 11
97.5
 21
38.0
 31
0.0
  0
LINE
  8
0
  6
CONTINUOUS
 62
     1
 10
97.5
 20
57.75
 30
0.0
 11
96.75
 21
57.75
 31
0.0
  0
LINE
  8
0
  6
CONTINUOUS
 62
     1
 10
96.75
 20
57.75
 30
0.0
 11
96.75
 21
60.0
 31
0.0
  0
LINE
  8
0
  6
CONTINUOUS
 62
     1
 10
96.75
 20
60.0
 30
0.0
 11
97.5
 21
60.0
 31
0.0
  0
LINE
  8
0
  6
CONTINUOUS
 62
     1
 10
105.65
 20
40.25
 30
0.0
 11
105.65
 21
41.25
 31
0.0
  0
LINE
  8
0
  6
CONTINUOUS
 62
     1
 10
105.65
 20
41.25
 30
0.0
 11
106.15
 21
41.25
 31
0.0
  0
LINE
  8
0
  6
CONTINUOUS
 62
     1
 10
106.15
 20
41.25
 30
0.0
 11
106.75
 21
40.25
 31
0.0
  0
LINE
  8
0
  6
CONTINUOUS
 62
     1
 10
104.75
 20
30.0
 30
0.0
 11
104.75
 21
27.0
 31
0.0
  0
LINE
  8
0
  6
CONTINUOUS
 62
     1
 10
104.75
 20
27.0
 30
0.0
 11
106.75
 21
27.0
 31
0.0
  0
LINE
  8
0
  6
CONTINUOUS
 62
     1
 10
106.75
 20
27.0
 30
0.0
 11
106.75
 21
30.0
 31
0.0
  0
LINE
  8
0
  6
CONTINUOUS
 62
     1
 10
104.75
 20
29.0
 30
0.0
 11
106.75
 21
29.0
 31
0.0
  0
LINE
  8
0
  6
CONTINUOUS
 62
     1
 10
104.75
 20
28.0
 30
0.0
 11
106.75
 21
28.0
 31
0.0
  0
ARC
  8
0
  6
CONTINUOUS
 62
     1
 10
95.7
 20
39.1
 30
0.0
 40
0.405
 50
30.0
 51
210.0
  0
LINE
  8
0
  6
CONTINUOUS
 62
     1
 10
97.5
 20
35.25
 30
0.0
 11
95.349259711
 21
38.8975
 31
0.0
  0
LINE
  8
0
  6
CONTINUOUS
 62
     1
 10
96.050740289
 20
39.3025
 30
0.0
 11
96.500740289
 21
38.5525
 31
0.0
  0
LINE
  8
0
  6
CONTINUOUS
 62
     1
 10
96.500740289
 20
38.5525
 30
0.0
 11
96.750740289
 21
38.7025
 31
0.0
  0
ARC
  8
0
  6
CONTINUOUS
 62
     1
 10
95.7
 20
58.9
 30
0.0
 40
0.405
 50
150.0
 51
330.0
  0
LINE
  8
0
  6
CONTINUOUS
 62
     1
 10
97.5
 20
62.75
 30
0.0
 11
95.349259711
 21
59.1025
 31
0.0
  0
LINE
  8
0
  6
CONTINUOUS
 62
     1
 10
96.050740289
 20
58.6975
 30
0.0
 11
96.500740289
 21
59.4475
 31
0.0
  0
LINE
  8
0
  6
CONTINUOUS
 62
     1
 10
96.500740289
 20
59.4475
 30
0.0
 11
96.750740289
 21
59.2975
 31
0.0
  0
LINE
  8
0
  6
CONTINUOUS
 62
     1
 10
106.75
 20
57.75
 30
0.0
 11
106.75
 21
57.35
 31
0.0
  0
LINE
  8
0
  6
CONTINUOUS
 62
     1
 10
106.75
 20
57.35
 30
0.0
 11
106.05
 21
55.55
 31
0.0
  0
LINE
  8
0
  6
CONTINUOUS
 62
     1
 10
106.05
 20
55.55
 30
0.0
 11
105.65
 21
55.55
 31
0.0
  0
LINE
  8
0
  6
CONTINUOUS
 62
     1
 10
105.65
 20
55.55
 30
0.0
 11
105.65
 21
57.75
 31
0.0
  0
LINE
  8
0
  6
CONTINUOUS
 62
     2
 10
95.0
 20
83.0
 30
0.0
 11
97.414814566
 21
82.352952387
 31
0.0
  0
LINE
  8
0
  6
CONTINUOUS
 62
     2
 10
95.0
 20
83.0
 30
0.0
 11
97.414814566
 21
83.647047613
 31
0.0
  0
LINE
  8
0
  6
CONTINUOUS
 62
     2
 10
95.0
 20
83.0
 30
0.0
 11
106.75
 21
83.0
 31
0.0
  0
LINE
  8
0
  6
CONTINUOUS
 62
     2
 10
106.75
 20
83.0
 30
0.0
 11
104.335185434
 21
83.647047613
 31
0.0
  0
LINE
  8
0
  6
CONTINUOUS
 62
     2
 10
106.75
 20
83.0
 30
0.0
 11
104.335185434
 21
82.352952387
 31
0.0
  0
TEXT
  8
0
  6
CONTINUOUS
 62
     2
 10
96.125
 20
84.0
 30
0.5
 40
3.0
  1
２３．５
 50
0.0
 41
0.666666667
 51
0.0
  7
KANJI0
  0
LINE
  8
0
  6
CONTINUOUS
 62
     2
 10
95.0
 20
78.0
 30
0.0
 11
92.585185434
 21
78.647047613
 31
0.0
  0
LINE
  8
0
  6
CONTINUOUS
 62
     2
 10
95.0
 20
78.0
 30
0.0
 11
92.585185434
 21
77.352952387
 31
0.0
  0
LINE
  8
0
  6
CONTINUOUS
 62
     2
 10
97.5
 20
78.0
 30
0.0
 11
99.914814566
 21
77.352952387
 31
0.0
  0
LINE
  8
0
  6
CONTINUOUS
 62
     2
 10
97.5
 20
78.0
 30
0.0
 11
99.914814566
 21
78.647047613
 31
0.0
  0
LINE
  8
0
  6
CONTINUOUS
 62
     2
 10
106.75
 20
78.0
 30
0.0
 11
109.164814566
 21
77.352952387
 31
0.0
  0
LINE
  8
0
  6
CONTINUOUS
 62
     2
 10
106.75
 20
78.0
 30
0.0
 11
109.164814566
 21
78.647047613
 31
0.0
  0
LINE
  8
0
  6
CONTINUOUS
 62
     2
 10
104.75
 20
78.0
 30
0.0
 11
102.335185434
 21
78.647047613
 31
0.0
  0
LINE
  8
0
  6
CONTINUOUS
 62
     2
 10
104.75
 20
78.0
 30
0.0
 11
102.335185434
 21
77.352952387
 31
0.0
  0
LINE
  8
0
  6
CONTINUOUS
 62
     2
 10
90.0
 20
78.0
 30
0.0
 11
100.5
 21
78.0
 31
0.0
  0
LINE
  8
0
  6
CONTINUOUS
 62
     2
 10
111.75
 20
78.0
 30
0.0
 11
101.75
 21
78.0
 31
0.0
  0
TEXT
  8
0
  6
CONTINUOUS
 62
     2
 10
109.75
 20
79.0
 30
0.5
 40
3.0
  1
４
 50
0.0
 41
0.666666667
 51
0.0
  7
KANJI0
  0
TEXT
  8
0
  6
CONTINUOUS
 62
     2
 10
90.0
 20
79.0
 30
0.5
 40
3.0
  1
５
 50
0.0
 41
0.666666667
 51
0.0
  7
KANJI0
  0
LINE
  8
0
  6
LTYPE1
 62
     2
 10
90.0
 20
49.0
 30
0.0
 11
111.75
 21
49.0
 31
0.0
  0
LINE
  8
0
  6
CONTINUOUS
 62
     1
 10
50.8
 20
68.0
 30
0.0
 11
49.5
 21
68.0
 31
0.0
  0
LINE
  8
0
  6
CONTINUOUS
 62
     1
 10
50.8
 20
68.0
 30
0.0
 11
50.8
 21
60.0
 31
0.0
  0
LINE
  8
0
  6
CONTINUOUS
 62
     1
 10
50.8
 20
60.0
 30
0.0
 11
54.7
 21
60.0
 31
0.0
  0
LINE
  8
0
  6
CONTINUOUS
 62
     1
 10
54.7
 20
60.0
 30
0.0
 11
54.7
 21
68.0
 31
0.0
  0
LINE
  8
0
  6
CONTINUOUS
 62
     1
 10
54.7
 20
68.0
 30
0.0
 11
56.0
 21
68.0
 31
0.0
  0
LINE
  8
0
  6
CONTINUOUS
 62
     1
 10
56.0
 20
68.0
 30
0.0
 11
56.0
 21
60.0
 31
0.0
  0
LINE
  8
0
  6
CONTINUOUS
 62
     1
 10
56.0
 20
60.0
 30
0.0
 11
59.9
 21
60.0
 31
0.0
  0
LINE
  8
0
  6
CONTINUOUS
 62
     1
 10
59.9
 20
60.0
 30
0.0
 11
59.9
 21
69.0
 31
0.0
  0
LINE
  8
0
  6
CONTINUOUS
 62
     1
 10
59.9
 20
69.0
 30
0.0
 11
61.125
 21
69.0
 31
0.0
  0
LINE
  8
0
  6
CONTINUOUS
 62
     1
 10
61.125
 20
69.0
 30
0.0
 11
61.125
 21
57.2
 31
0.0
  0
LINE
  8
0
  6
CONTINUOUS
 62
     1
 10
61.125
 20
57.2
 30
0.0
 11
62.0
 21
57.2
 31
0.0
  0
LINE
  8
0
  6
CONTINUOUS
 62
     1
 10
50.8
 20
68.0
 30
0.0
 11
54.7
 21
68.0
 31
0.0
  0
LINE
  8
0
  6
CONTINUOUS
 62
     1
 10
56.0
 20
68.0
 30
0.0
 11
59.9
 21
68.0
 31
0.0
  0
LINE
  8
0
  6
CONTINUOUS
 62
     1
 10
59.9
 20
65.7
 30
0.0
 11
59.9
 21
65.2
 31
0.0
  0
ARC
  8
0
  6
CONTINUOUS
 62
     1
 10
50.0
 20
58.25
 30
0.0
 40
0.5
 50
180.0
 51
270.0
  0
LINE
  8
0
  6
CONTINUOUS
 62
     1
 10
50.0
 20
57.75
 30
0.0
 11
51.25
 21
57.75
 31
0.0
  0
ARC
  8
0
  6
CONTINUOUS
 62
     1
 10
51.25
 20
58.25
 30
0.0
 40
0.5
 50
270.0
 51
0.0
  0
LINE
  8
0
  6
CONTINUOUS
 62
     1
 10
51.75
 20
58.25
 30
0.0
 11
51.75
 21
59.5
 31
0.0
  0
ARC
  8
0
  6
CONTINUOUS
 62
     1
 10
51.25
 20
59.5
 30
0.0
 40
0.5
 50
0.0
 51
90.0
  0
LINE
  8
0
  6
CONTINUOUS
 62
     1
 10
51.25
 20
60.0
 30
0.0
 11
50.0
 21
60.0
 31
0.0
  0
ARC
  8
0
  6
CONTINUOUS
 62
     1
 10
50.0
 20
59.5
 30
0.0
 40
0.5
 50
90.0
 51
180.0
  0
LINE
  8
0
  6
CONTINUOUS
 62
     1
 10
49.5
 20
59.5
 30
0.0
 11
49.5
 21
58.25
 31
0.0
  0
LINE
  8
0
  6
CONTINUOUS
 62
     1
 10
50.236615639
 20
55.969530887
 30
0.0
 11
51.161615639
 21
55.969530887
 31
0.0
  0
LINE
  8
0
  6
CONTINUOUS
 62
     1
 10
51.161615639
 20
55.969530887
 30
0.0
 11
51.161615639
 21
57.809530887
 31
0.0
  0
LINE
  8
0
  6
CONTINUOUS
 62
     1
 10
51.161615639
 20
57.809530887
 30
0.0
 11
50.236615639
 21
57.809530887
 31
0.0
  0
LINE
  8
0
  6
CONTINUOUS
 62
     1
 10
50.236615639
 20
57.809530887
 30
0.0
 11
50.236615639
 21
55.969530887
 31
0.0
  0
LINE
  8
0
  6
CONTINUOUS
 62
     1
 10
49.5
 20
68.0
 30
0.0
 11
49.5
 21
49.0
 31
0.0
  0
LINE
  8
0
  6
CONTINUOUS
 62
     1
 10
73.2
 20
68.0
 30
0.0
 11
74.5
 21
68.0
 31
0.0
  0
LINE
  8
0
  6
CONTINUOUS
 62
     1
 10
73.2
 20
68.0
 30
0.0
 11
73.2
 21
60.0
 31
0.0
  0
LINE
  8
0
  6
CONTINUOUS
 62
     1
 10
73.2
 20
60.0
 30
0.0
 11
69.3
 21
60.0
 31
0.0
  0
LINE
  8
0
  6
CONTINUOUS
 62
     1
 10
69.3
 20
60.0
 30
0.0
 11
69.3
 21
68.0
 31
0.0
  0
LINE
  8
0
  6
CONTINUOUS
 62
     1
 10
69.3
 20
68.0
 30
0.0
 11
68.0
 21
68.0
 31
0.0
  0
LINE
  8
0
  6
CONTINUOUS
 62
     1
 10
68.0
 20
68.0
 30
0.0
 11
68.0
 21
60.0
 31
0.0
  0
LINE
  8
0
  6
CONTINUOUS
 62
     1
 10
68.0
 20
60.0
 30
0.0
 11
64.1
 21
60.0
 31
0.0
  0
LINE
  8
0
  6
CONTINUOUS
 62
     1
 10
64.1
 20
60.0
 30
0.0
 11
64.1
 21
69.0
 31
0.0
  0
LINE
  8
0
  6
CONTINUOUS
 62
     1
 10
64.1
 20
69.0
 30
0.0
 11
62.875
 21
69.0
 31
0.0
  0
LINE
  8
0
  6
CONTINUOUS
 62
     1
 10
62.875
 20
69.0
 30
0.0
 11
62.875
 21
57.2
 31
0.0
  0
LINE
  8
0
  6
CONTINUOUS
 62
     1
 10
62.875
 20
57.2
 30
0.0
 11
62.0
 21
57.2
 31
0.0
  0
LINE
  8
0
  6
CONTINUOUS
 62
     1
 10
73.2
 20
68.0
 30
0.0
 11
69.3
 21
68.0
 31
0.0
  0
LINE
  8
0
  6
CONTINUOUS
 62
     1
 10
68.0
 20
68.0
 30
0.0
 11
64.1
 21
68.0
 31
0.0
  0
LINE
  8
0
  6
CONTINUOUS
 62
     1
 10
64.1
 20
65.7
 30
0.0
 11
64.1
 21
65.2
 31
0.0
  0
ARC
  8
0
  6
CONTINUOUS
 62
     1
 10
74.0
 20
58.25
 30
0.0
 40
0.5
 50
270.0
 51
0.0
  0
LINE
  8
0
  6
CONTINUOUS
 62
     1
 10
74.0
 20
57.75
 30
0.0
 11
72.75
 21
57.75
 31
0.0
  0
ARC
  8
0
  6
CONTINUOUS
 62
     1
 10
72.75
 20
58.25
 30
0.0
 40
0.5
 50
180.0
 51
270.0
  0
LINE
  8
0
  6
CONTINUOUS
 62
     1
 10
72.25
 20
58.25
 30
0.0
 11
72.25
 21
59.5
 31
0.0
  0
ARC
  8
0
  6
CONTINUOUS
 62
     1
 10
72.75
 20
59.5
 30
0.0
 40
0.5
 50
90.0
 51
180.0
  0
LINE
  8
0
  6
CONTINUOUS
 62
     1
 10
72.75
 20
60.0
 30
0.0
 11
74.0
 21
60.0
 31
0.0
  0
ARC
  8
0
  6
CONTINUOUS
 62
     1
 10
74.0
 20
59.5
 30
0.0
 40
0.5
 50
0.0
 51
90.0
  0
LINE
  8
0
  6
CONTINUOUS
 62
     1
 10
74.5
 20
59.5
 30
0.0
 11
74.5
 21
58.25
 31
0.0
  0
LINE
  8
0
  6
CONTINUOUS
 62
     1
 10
73.763384361
 20
55.969530887
 30
0.0
 11
72.838384361
 21
55.969530887
 31
0.0
  0
LINE
  8
0
  6
CONTINUOUS
 62
     1
 10
72.838384361
 20
55.969530887
 30
0.0
 11
72.838384361
 21
57.809530887
 31
0.0
  0
LINE
  8
0
  6
CONTINUOUS
 62
     1
 10
72.838384361
 20
57.809530887
 30
0.0
 11
73.763384361
 21
57.809530887
 31
0.0
  0
LINE
  8
0
  6
CONTINUOUS
 62
     1
 10
73.763384361
 20
57.809530887
 30
0.0
 11
73.763384361
 21
55.969530887
 31
0.0
  0
LINE
  8
0
  6
CONTINUOUS
 62
     1
 10
74.5
 20
68.0
 30
0.0
 11
74.5
 21
49.0
 31
0.0
  0
LINE
  8
0
  6
CONTINUOUS
 62
     1
 10
61.125
 20
69.0
 30
0.0
 11
62.875
 21
69.0
 31
0.0
  0
LINE
  8
0
  6
CONTINUOUS
 62
     1
 10
61.125
 20
63.75
 30
0.0
 11
62.875
 21
63.8
 31
0.0
  0
LINE
  8
0
  6
CONTINUOUS
 62
     1
 10
61.125
 20
62.7
 30
0.0
 11
62.875
 21
62.7
 31
0.0
  0
LINE
  8
0
  6
CONTINUOUS
 62
     1
 10
61.125
 20
67.9
 30
0.0
 11
62.875
 21
67.9
 31
0.0
  0
LINE
  8
0
  6
CONTINUOUS
 62
     1
 10
50.8
 20
30.0
 30
0.0
 11
49.5
 21
30.0
 31
0.0
  0
LINE
  8
0
  6
CONTINUOUS
 62
     1
 10
50.8
 20
30.0
 30
0.0
 11
50.8
 21
38.0
 31
0.0
  0
LINE
  8
0
  6
CONTINUOUS
 62
     1
 10
50.8
 20
38.0
 30
0.0
 11
54.7
 21
38.0
 31
0.0
  0
LINE
  8
0
  6
CONTINUOUS
 62
     1
 10
54.7
 20
38.0
 30
0.0
 11
54.7
 21
30.0
 31
0.0
  0
LINE
  8
0
  6
CONTINUOUS
 62
     1
 10
54.7
 20
30.0
 30
0.0
 11
56.0
 21
30.0
 31
0.0
  0
LINE
  8
0
  6
CONTINUOUS
 62
     1
 10
56.0
 20
38.0
 30
0.0
 11
59.9
 21
38.0
 31
0.0
  0
LINE
  8
0
  6
CONTINUOUS
 62
     1
 10
59.9
 20
38.0
 30
0.0
 11
59.9
 21
29.0
 31
0.0
  0
LINE
  8
0
  6
CONTINUOUS
 62
     1
 10
59.9
 20
29.0
 30
0.0
 11
61.125
 21
29.0
 31
0.0
  0
LINE
  8
0
  6
CONTINUOUS
 62
     1
 10
61.125
 20
29.0
 30
0.0
 11
61.125
 21
40.8
 31
0.0
  0
LINE
  8
0
  6
CONTINUOUS
 62
     1
 10
61.125
 20
40.8
 30
0.0
 11
62.0
 21
40.8
 31
0.0
  0
LINE
  8
0
  6
CONTINUOUS
 62
     1
 10
50.8
 20
30.0
 30
0.0
 11
54.7
 21
30.0
 31
0.0
  0
LINE
  8
0
  6
CONTINUOUS
 62
     1
 10
56.0
 20
30.0
 30
0.0
 11
59.9
 21
30.0
 31
0.0
  0
LINE
  8
0
  6
CONTINUOUS
 62
     1
 10
59.9
 20
32.3
 30
0.0
 11
59.9
 21
32.8
 31
0.0
  0
ARC
  8
0
  6
CONTINUOUS
 62
     1
 10
50.0
 20
39.75
 30
0.0
 40
0.5
 50
90.0
 51
180.0
  0
LINE
  8
0
  6
CONTINUOUS
 62
     1
 10
50.0
 20
40.25
 30
0.0
 11
51.25
 21
40.25
 31
0.0
  0
ARC
  8
0
  6
CONTINUOUS
 62
     1
 10
51.25
 20
39.75
 30
0.0
 40
0.5
 50
0.0
 51
90.0
  0
LINE
  8
0
  6
CONTINUOUS
 62
     1
 10
51.75
 20
39.75
 30
0.0
 11
51.75
 21
38.5
 31
0.0
  0
ARC
  8
0
  6
CONTINUOUS
 62
     1
 10
51.25
 20
38.5
 30
0.0
 40
0.5
 50
270.0
 51
0.0
  0
LINE
  8
0
  6
CONTINUOUS
 62
     1
 10
51.25
 20
38.0
 30
0.0
 11
50.0
 21
38.0
 31
0.0
  0
ARC
  8
0
  6
CONTINUOUS
 62
     1
 10
50.0
 20
38.5
 30
0.0
 40
0.5
 50
180.0
 51
270.0
  0
LINE
  8
0
  6
CONTINUOUS
 62
     1
 10
49.5
 20
38.5
 30
0.0
 11
49.5
 21
39.75
 31
0.0
  0
LINE
  8
0
  6
CONTINUOUS
 62
     1
 10
50.236615639
 20
42.030469113
 30
0.0
 11
51.161615639
 21
42.030469113
 31
0.0
  0
LINE
  8
0
  6
CONTINUOUS
 62
     1
 10
51.161615639
 20
42.030469113
 30
0.0
 11
51.161615639
 21
40.190469113
 31
0.0
  0
LINE
  8
0
  6
CONTINUOUS
 62
     1
 10
51.161615639
 20
40.190469113
 30
0.0
 11
50.236615639
 21
40.190469113
 31
0.0
  0
LINE
  8
0
  6
CONTINUOUS
 62
     1
 10
50.236615639
 20
40.190469113
 30
0.0
 11
50.236615639
 21
42.030469113
 31
0.0
  0
LINE
  8
0
  6
CONTINUOUS
 62
     1
 10
49.5
 20
30.0
 30
0.0
 11
49.5
 21
49.0
 31
0.0
  0
LINE
  8
0
  6
CONTINUOUS
 62
     1
 10
73.2
 20
30.0
 30
0.0
 11
74.5
 21
30.0
 31
0.0
  0
LINE
  8
0
  6
CONTINUOUS
 62
     1
 10
73.2
 20
30.0
 30
0.0
 11
73.2
 21
38.0
 31
0.0
  0
LINE
  8
0
  6
CONTINUOUS
 62
     1
 10
73.2
 20
38.0
 30
0.0
 11
69.3
 21
38.0
 31
0.0
  0
LINE
  8
0
  6
CONTINUOUS
 62
     1
 10
69.3
 20
38.0
 30
0.0
 11
69.3
 21
30.0
 31
0.0
  0
LINE
  8
0
  6
CONTINUOUS
 62
     1
 10
69.3
 20
30.0
 30
0.0
 11
68.0
 21
30.0
 31
0.0
  0
LINE
  8
0
  6
CONTINUOUS
 62
     1
 10
68.0
 20
30.0
 30
0.0
 11
68.0
 21
38.0
 31
0.0
  0
LINE
  8
0
  6
CONTINUOUS
 62
     1
 10
68.0
 20
38.0
 30
0.0
 11
64.1
 21
38.0
 31
0.0
  0
LINE
  8
0
  6
CONTINUOUS
 62
     1
 10
64.1
 20
38.0
 30
0.0
 11
64.1
 21
29.0
 31
0.0
  0
LINE
  8
0
  6
CONTINUOUS
 62
     1
 10
64.1
 20
29.0
 30
0.0
 11
62.875
 21
29.0
 31
0.0
  0
LINE
  8
0
  6
CONTINUOUS
 62
     1
 10
62.875
 20
29.0
 30
0.0
 11
62.875
 21
40.8
 31
0.0
  0
LINE
  8
0
  6
CONTINUOUS
 62
     1
 10
62.875
 20
40.8
 30
0.0
 11
62.0
 21
40.8
 31
0.0
  0
LINE
  8
0
  6
CONTINUOUS
 62
     1
 10
73.2
 20
30.0
 30
0.0
 11
69.3
 21
30.0
 31
0.0
  0
LINE
  8
0
  6
CONTINUOUS
 62
     1
 10
68.0
 20
30.0
 30
0.0
 11
64.1
 21
30.0
 31
0.0
  0
LINE
  8
0
  6
CONTINUOUS
 62
     1
 10
64.1
 20
32.3
 30
0.0
 11
64.1
 21
32.8
 31
0.0
  0
ARC
  8
0
  6
CONTINUOUS
 62
     1
 10
74.0
 20
39.75
 30
0.0
 40
0.5
 50
0.0
 51
90.0
  0
LINE
  8
0
  6
CONTINUOUS
 62
     1
 10
74.0
 20
40.25
 30
0.0
 11
72.75
 21
40.25
 31
0.0
  0
ARC
  8
0
  6
CONTINUOUS
 62
     1
 10
72.75
 20
39.75
 30
0.0
 40
0.5
 50
90.0
 51
180.0
  0
LINE
  8
0
  6
CONTINUOUS
 62
     1
 10
72.25
 20
39.75
 30
0.0
 11
72.25
 21
38.5
 31
0.0
  0
ARC
  8
0
  6
CONTINUOUS
 62
     1
 10
72.75
 20
38.5
 30
0.0
 40
0.5
 50
180.0
 51
270.0
  0
LINE
  8
0
  6
CONTINUOUS
 62
     1
 10
72.75
 20
38.0
 30
0.0
 11
74.0
 21
38.0
 31
0.0
  0
ARC
  8
0
  6
CONTINUOUS
 62
     1
 10
74.0
 20
38.5
 30
0.0
 40
0.5
 50
270.0
 51
0.0
  0
LINE
  8
0
  6
CONTINUOUS
 62
     1
 10
74.5
 20
38.5
 30
0.0
 11
74.5
 21
39.75
 31
0.0
  0
LINE
  8
0
  6
CONTINUOUS
 62
     1
 10
73.763384361
 20
42.030469113
 30
0.0
 11
72.838384361
 21
42.030469113
 31
0.0
  0
LINE
  8
0
  6
CONTINUOUS
 62
     1
 10
72.838384361
 20
42.030469113
 30
0.0
 11
72.838384361
 21
40.190469113
 31
0.0
  0
LINE
  8
0
  6
CONTINUOUS
 62
     1
 10
72.838384361
 20
40.190469113
 30
0.0
 11
73.763384361
 21
40.190469113
 31
0.0
  0
LINE
  8
0
  6
CONTINUOUS
 62
     1
 10
73.763384361
 20
40.190469113
 30
0.0
 11
73.763384361
 21
42.030469113
 31
0.0
  0
LINE
  8
0
  6
CONTINUOUS
 62
     1
 10
74.5
 20
30.0
 30
0.0
 11
74.5
 21
49.0
 31
0.0
  0
LINE
  8
0
  6
CONTINUOUS
 62
     1
 10
61.125
 20
29.0
 30
0.0
 11
62.875
 21
29.0
 31
0.0
  0
LINE
  8
0
  6
CONTINUOUS
 62
     1
 10
61.125
 20
34.25
 30
0.0
 11
62.875
 21
34.2
 31
0.0
  0
LINE
  8
0
  6
CONTINUOUS
 62
     1
 10
61.125
 20
35.3
 30
0.0
 11
62.875
 21
35.3
 31
0.0
  0
LINE
  8
0
  6
CONTINUOUS
 62
     1
 10
61.125
 20
30.1
 30
0.0
 11
62.875
 21
30.1
 31
0.0
  0
CIRCLE
  8
0
  6
CONTINUOUS
 62
     1
 10
62.0
 20
49.0
 30
0.0
 40
7.2
  0
LINE
  8
0
  6
CONTINUOUS
 62
     1
 10
53.5
 20
46.875
 30
0.0
 11
49.5
 21
46.875
 31
0.0
  0
ARC
  8
0
  6
CONTINUOUS
 62
     1
 10
53.5
 20
47.375
 30
0.0
 40
0.5
 50
270.0
 51
360.0
  0
LINE
  8
0
  6
CONTINUOUS
 62
     1
 10
49.5
 20
51.125
 30
0.0
 11
53.5
 21
51.125
 31
0.0
  0
LINE
  8
0
  6
CONTINUOUS
 62
     1
 10
54.0
 20
50.625
 30
0.0
 11
54.0
 21
47.375
 31
0.0
  0
ARC
  8
0
  6
CONTINUOUS
 62
     1
 10
53.5
 20
50.625
 30
0.0
 40
0.5
 50
0.0
 51
90.0
  0
CIRCLE
  8
0
  6
CONTINUOUS
 62
     1
 10
52.0
 20
49.0
 30
0.0
 40
1.125
  0
CIRCLE
  8
0
  6
CONTINUOUS
 62
     1
 10
62.0
 20
49.0
 30
0.0
 40
2.75
  0
ARC
  8
0
  6
CONTINUOUS
 62
     1
 10
62.0
 20
46.875
 30
0.0
 40
0.625
 50
180.0
 51
0.0
  0
ARC
  8
0
  6
CONTINUOUS
 62
     1
 10
62.0
 20
49.0
 30
0.0
 40
2.125
 50
287.744671625
 51
0.0
  0
LINE
  8
0
  6
CONTINUOUS
 62
     1
 10
62.625
 20
46.875
 30
0.0
 11
62.64764842
 21
46.976098687
 31
0.0
  0
ARC
  8
0
  6
CONTINUOUS
 62
     1
 10
62.0
 20
49.0
 30
0.0
 40
2.125
 50
0.0
 51
252.361095784
  0
LINE
  8
0
  6
CONTINUOUS
 62
     1
 10
61.356088782
 20
46.974906584
 30
0.0
 11
61.375
 21
46.875
 31
0.0
  0
LINE
  8
0
  6
CONTINUOUS
 62
     1
 10
70.5
 20
46.875
 30
0.0
 11
74.5
 21
46.875
 31
0.0
  0
ARC
  8
0
  6
CONTINUOUS
 62
     1
 10
70.5
 20
47.375
 30
0.0
 40
0.5
 50
180.0
 51
270.0
  0
LINE
  8
0
  6
CONTINUOUS
 62
     1
 10
74.5
 20
51.125
 30
0.0
 11
70.5
 21
51.125
 31
0.0
  0
LINE
  8
0
  6
CONTINUOUS
 62
     1
 10
70.0
 20
50.625
 30
0.0
 11
70.0
 21
47.375
 31
0.0
  0
ARC
  8
0
  6
CONTINUOUS
 62
     1
 10
70.5
 20
50.625
 30
0.0
 40
0.5
 50
90.0
 51
180.0
  0
CIRCLE
  8
0
  6
CONTINUOUS
 62
     1
 10
72.0
 20
49.0
 30
0.0
 40
1.125
  0
CIRCLE
  8
0
  6
CONTINUOUS
 62
     1
 10
58.16469501
 20
47.404301584
 30
0.0
 40
0.5
  0
CIRCLE
  8
0
  6
CONTINUOUS
 62
     1
 10
65.83530499
 20
47.404301584
 30
0.0
 40
0.5
  0
CIRCLE
  8
0
  6
CONTINUOUS
 62
     1
 10
58.16469501
 20
50.595698416
 30
0.0
 40
0.5
  0
CIRCLE
  8
0
  6
CONTINUOUS
 62
     1
 10
65.83530499
 20
50.595698416
 30
0.0
 40
0.5
  0
CIRCLE
  8
0
  6
CONTINUOUS
 62
     1
 10
60.413243114
 20
45.159874948
 30
0.0
 40
0.5
  0
CIRCLE
  8
0
  6
CONTINUOUS
 62
     1
 10
63.586756886
 20
45.159874948
 30
0.0
 40
0.5
  0
CIRCLE
  8
0
  6
CONTINUOUS
 62
     1
 10
60.413243114
 20
52.840125052
 30
0.0
 40
0.5
  0
CIRCLE
  8
0
  6
CONTINUOUS
 62
     1
 10
63.586756886
 20
52.840125052
 30
0.0
 40
0.5
  0
CIRCLE
  8
0
  6
CONTINUOUS
 62
     1
 10
60.413243114
 20
52.840125052
 30
0.0
 40
0.6
  0
CIRCLE
  8
0
  6
CONTINUOUS
 62
     1
 10
63.586756886
 20
52.840125052
 30
0.0
 40
0.6
  0
CIRCLE
  8
0
  6
CONTINUOUS
 62
     1
 10
65.83530499
 20
50.595698416
 30
0.0
 40
0.6
  0
CIRCLE
  8
0
  6
CONTINUOUS
 62
     1
 10
65.83530499
 20
47.404301584
 30
0.0
 40
0.6
  0
CIRCLE
  8
0
  6
CONTINUOUS
 62
     1
 10
63.586756886
 20
45.159874948
 30
0.0
 40
0.6
  0
CIRCLE
  8
0
  6
CONTINUOUS
 62
     1
 10
60.413243114
 20
45.159874948
 30
0.0
 40
0.6
  0
CIRCLE
  8
0
  6
CONTINUOUS
 62
     1
 10
58.16469501
 20
47.404301584
 30
0.0
 40
0.6
  0
CIRCLE
  8
0
  6
CONTINUOUS
 62
     1
 10
58.16469501
 20
50.595698416
 30
0.0
 40
0.6
  0
LINE
  8
0
  6
CONTINUOUS
 62
     1
 10
55.0
 20
30.0
 30
0.0
 11
55.0
 21
29.75
 31
0.0
  0
LINE
  8
0
  6
CONTINUOUS
 62
     1
 10
55.0
 20
29.75
 30
0.0
 11
55.75
 21
29.0
 31
0.0
  0
LINE
  8
0
  6
CONTINUOUS
 62
     1
 10
55.75
 20
29.0
 30
0.0
 11
59.25
 21
29.0
 31
0.0
  0
LINE
  8
0
  6
CONTINUOUS
 62
     1
 10
59.25
 20
29.0
 30
0.0
 11
59.25
 21
28.0
 31
0.0
  0
LINE
  8
0
  6
CONTINUOUS
 62
     1
 10
59.25
 20
28.0
 30
0.0
 11
60.75
 21
27.0
 31
0.0
  0
LINE
  8
0
  6
CONTINUOUS
 62
     1
 10
60.75
 20
27.0
 30
0.0
 11
63.25
 21
27.0
 31
0.0
  0
LINE
  8
0
  6
CONTINUOUS
 62
     1
 10
63.25
 20
27.0
 30
0.0
 11
64.75
 21
28.0
 31
0.0
  0
LINE
  8
0
  6
CONTINUOUS
 62
     1
 10
64.75
 20
28.0
 30
0.0
 11
64.75
 21
29.0
 31
0.0
  0
LINE
  8
0
  6
CONTINUOUS
 62
     1
 10
64.75
 20
29.0
 30
0.0
 11
68.25
 21
29.0
 31
0.0
  0
LINE
  8
0
  6
CONTINUOUS
 62
     1
 10
68.25
 20
29.0
 30
0.0
 11
69.0
 21
29.75
 31
0.0
  0
LINE
  8
0
  6
CONTINUOUS
 62
     1
 10
69.0
 20
29.75
 30
0.0
 11
69.0
 21
30.0
 31
0.0
  0
LINE
  8
0
  6
CONTINUOUS
 62
     1
 10
60.25
 20
29.0
 30
0.0
 11
60.25
 21
28.5
 31
0.0
  0
LINE
  8
0
  6
CONTINUOUS
 62
     1
 10
60.25
 20
28.5
 30
0.0
 11
61.0
 21
28.5
 31
0.0
  0
LINE
  8
0
  6
CONTINUOUS
 62
     1
 10
63.0
 20
28.5
 30
0.0
 11
63.75
 21
28.5
 31
0.0
  0
LINE
  8
0
  6
CONTINUOUS
 62
     1
 10
63.75
 20
28.5
 30
0.0
 11
63.75
 21
29.0
 31
0.0
  0
ARC
  8
0
  6
CONTINUOUS
 62
     1
 10
62.0
 20
28.5
 30
0.0
 40
1.0
 50
180.0
 51
0.0
  0
LINE
  8
0
  6
CONTINUOUS
 62
     1
 10
50.8
 20
30.75
 30
0.0
 11
49.5
 21
30.75
 31
0.0
  0
LINE
  8
0
  6
CONTINUOUS
 62
     1
 10
54.75
 20
30.75
 30
0.0
 11
56.0
 21
30.75
 31
0.0
  0
LINE
  8
0
  6
CONTINUOUS
 62
     1
 10
68.0
 20
30.75
 30
0.0
 11
69.3
 21
30.75
 31
0.0
  0
LINE
  8
0
  6
CONTINUOUS
 62
     1
 10
73.2
 20
30.75
 30
0.0
 11
74.5
 21
30.75
 31
0.0
  0
LINE
  8
0
  6
CONTINUOUS
 62
     1
 10
59.9
 20
29.75
 30
0.0
 11
61.125
 21
29.75
 31
0.0
  0
LINE
  8
0
  6
CONTINUOUS
 62
     1
 10
62.875
 20
29.75
 30
0.0
 11
64.125
 21
29.75
 31
0.0
  0
LINE
  8
0
  6
CONTINUOUS
 62
     1
 10
50.8
 20
67.25
 30
0.0
 11
49.5
 21
67.25
 31
0.0
  0
LINE
  8
0
  6
CONTINUOUS
 62
     1
 10
54.75
 20
67.25
 30
0.0
 11
56.0
 21
67.25
 31
0.0
  0
LINE
  8
0
  6
CONTINUOUS
 62
     1
 10
59.9
 20
68.25
 30
0.0
 11
61.125
 21
68.25
 31
0.0
  0
LINE
  8
0
  6
CONTINUOUS
 62
     1
 10
62.875
 20
68.25
 30
0.0
 11
64.125
 21
68.25
 31
0.0
  0
LINE
  8
0
  6
CONTINUOUS
 62
     1
 10
68.0
 20
67.25
 30
0.0
 11
69.3
 21
67.25
 31
0.0
  0
LINE
  8
0
  6
CONTINUOUS
 62
     1
 10
73.2
 20
67.25
 30
0.0
 11
74.5
 21
67.25
 31
0.0
  0
LINE
  8
0
  6
CONTINUOUS
 62
     2
 10
49.5
 20
83.0
 30
0.0
 11
51.914814566
 21
82.352952387
 31
0.0
  0
LINE
  8
0
  6
CONTINUOUS
 62
     2
 10
49.5
 20
83.0
 30
0.0
 11
51.914814566
 21
83.647047613
 31
0.0
  0
LINE
  8
0
  6
CONTINUOUS
 62
     2
 10
49.5
 20
83.0
 30
0.0
 11
74.5
 21
83.0
 31
0.0
  0
LINE
  8
0
  6
CONTINUOUS
 62
     2
 10
74.5
 20
83.0
 30
0.0
 11
72.085185434
 21
83.647047613
 31
0.0
  0
LINE
  8
0
  6
CONTINUOUS
 62
     2
 10
74.5
 20
83.0
 30
0.0
 11
72.085185434
 21
82.352952387
 31
0.0
  0
TEXT
  8
0
  6
CONTINUOUS
 62
     2
 10
59.75
 20
84.0
 30
0.5
 40
3.0
  1
５０
 50
0.0
 41
0.666666667
 51
0.0
  7
KANJI0
  0
LINE
  8
0
  6
CONTINUOUS
 62
     2
 10
52.0
 20
78.0
 30
0.0
 11
54.414814566
 21
77.352952387
 31
0.0
  0
LINE
  8
0
  6
CONTINUOUS
 62
     2
 10
52.0
 20
78.0
 30
0.0
 11
54.414814566
 21
78.647047613
 31
0.0
  0
LINE
  8
0
  6
CONTINUOUS
 62
     2
 10
52.0
 20
78.0
 30
0.0
 11
72.0
 21
78.0
 31
0.0
  0
LINE
  8
0
  6
CONTINUOUS
 62
     2
 10
72.0
 20
78.0
 30
0.0
 11
69.585185434
 21
78.647047613
 31
0.0
  0
LINE
  8
0
  6
CONTINUOUS
 62
     2
 10
72.0
 20
78.0
 30
0.0
 11
69.585185434
 21
77.352952387
 31
0.0
  0
TEXT
  8
0
  6
CONTINUOUS
 62
     2
 10
56.9
 20
79.0
 30
0.5
 40
3.0
  1
４０
 50
0.0
 41
0.666666667
 51
0.0
  7
KANJI0
  0
TEXT
  8
0
  6
CONTINUOUS
 62
     2
 10
61.4
 20
79.0
 30
0.3
 40
1.8
  1
±０．２
 50
0.0
 41
0.666666667
 51
0.0
  7
KANJI3
  0
LINE
  8
0
  6
LTYPE1
 62
     2
 10
44.5
 20
49.0
 30
0.0
 11
79.5
 21
49.0
 31
0.0
  0
LINE
  8
0
  6
LTYPE1
 62
     2
 10
52.0
 20
44.0
 30
0.0
 11
52.0
 21
54.0
 31
0.0
  0
LINE
  8
0
  6
LTYPE1
 62
     2
 10
72.0
 20
44.0
 30
0.0
 11
72.0
 21
54.0
 31
0.0
  0
LINE
  8
0
  6
LTYPE1
 62
     2
 10
62.0
 20
22.0
 30
0.0
 11
62.0
 21
74.0
 31
0.0
  0
LINE
  8
0
  6
CONTINUOUS
 62
     2
 10
72.8
 20
49.8
 30
0.0
 11
74.965063509
 21
51.05
 31
0.0
  0
LINE
  8
0
  6
CONTINUOUS
 62
     2
 10
72.8
 20
49.8
 30
0.0
 11
74.05
 21
51.965063509
 31
0.0
  0
LINE
  8
0
  6
CONTINUOUS
 62
     2
 10
78.5
 20
55.5
 30
0.0
 11
91.1
 21
55.5
 31
0.0
  0
LINE
  8
0
  6
CONTINUOUS
 62
     2
 10
72.8
 20
49.8
 30
0.0
 11
78.5
 21
55.5
 31
0.0
  0
LINE
  8
0
  6
CONTINUOUS
 62
     2
 10
50.8
 20
32.3
 30
0.0
 11
54.7
 21
32.3
 31
0.0
  0
LINE
  8
0
  6
CONTINUOUS
 62
     2
 10
54.7
 20
32.8
 30
0.0
 11
50.8
 21
32.8
 31
0.0
  0
LINE
  8
0
  6
CONTINUOUS
 62
     2
 10
50.8
 20
33.3
 30
0.0
 11
54.7
 21
33.3
 31
0.0
  0
LINE
  8
0
  6
CONTINUOUS
 62
     2
 10
54.7
 20
33.55
 30
0.0
 11
50.8
 21
33.55
 31
0.0
  0
CIRCLE
  8
0
  6
CONTINUOUS
 62
     2
 10
52.75
 20
35.75
 30
0.0
 40
1.375
  0
LINE
  8
0
  6
CONTINUOUS
 62
     2
 10
50.962471773
 20
37.249914276
 30
0.0
 11
54.249914276
 21
37.537528227
 31
0.0
  0
LINE
  8
0
  6
CONTINUOUS
 62
     2
 10
54.249914276
 20
37.537528227
 30
0.0
 11
54.537528227
 21
34.250085724
 31
0.0
  0
LINE
  8
0
  6
CONTINUOUS
 62
     2
 10
54.537528227
 20
34.250085724
 30
0.0
 11
51.250085724
 21
33.962471773
 31
0.0
  0
LINE
  8
0
  6
CONTINUOUS
 62
     2
 10
51.250085724
 20
33.962471773
 30
0.0
 11
50.962471773
 21
37.249914276
 31
0.0
  0
LINE
  8
0
  6
CONTINUOUS
 62
     2
 10
52.7
 20
34.1
 30
0.0
 11
52.65
 21
34.4
 31
0.0
  0
LINE
  8
0
  6
CONTINUOUS
 62
     2
 10
53.1
 20
34.15
 30
0.0
 11
53.1
 21
34.45
 31
0.0
  0
LINE
  8
0
  6
CONTINUOUS
 62
     2
 10
52.35
 20
37.075
 30
0.0
 11
52.35
 21
37.375
 31
0.0
  0
LINE
  8
0
  6
CONTINUOUS
 62
     2
 10
52.8
 20
37.125
 30
0.0
 11
52.7
 21
37.425
 31
0.0
  0
LINE
  8
0
  6
CONTINUOUS
 62
     2
 10
51.381274415
 20
35.881206987
 30
0.0
 11
51.956160173
 21
35.931502974
 31
0.0
  0
LINE
  8
0
  6
CONTINUOUS
 62
     2
 10
52.261130778
 20
37.035158311
 30
0.0
 11
52.319775755
 21
36.36484315
 31
0.0
  0
ARC
  8
0
  6
CONTINUOUS
 62
     2
 10
51.921297876
 20
36.329980853
 30
0.0
 40
0.4
 50
275.0
 51
5.0
  0
LINE
  8
0
  6
CONTINUOUS
 62
     2
 10
53.066921779
 20
36.430209957
 30
0.0
 11
53.008276801
 21
37.100525118
 31
0.0
  0
LINE
  8
0
  6
CONTINUOUS
 62
     2
 10
53.500261955
 20
36.066594375
 30
0.0
 11
54.075147713
 21
36.116890362
 31
0.0
  0
ARC
  8
0
  6
CONTINUOUS
 62
     2
 10
53.465399658
 20
36.465072254
 30
0.0
 40
0.4
 50
185.0
 51
275.0
  0
LINE
  8
0
  6
CONTINUOUS
 62
     2
 10
51.424852287
 20
35.383109638
 30
0.0
 11
51.999738045
 21
35.433405625
 31
0.0
  0
ARC
  8
0
  6
CONTINUOUS
 62
     2
 10
52.034600342
 20
35.034927746
 30
0.0
 40
0.4
 50
5.0
 51
95.0
  0
LINE
  8
0
  6
CONTINUOUS
 62
     2
 10
53.543839827
 20
35.568497026
 30
0.0
 11
54.118725585
 21
35.618793013
 31
0.0
  0
ARC
  8
0
  6
CONTINUOUS
 62
     2
 10
53.578702124
 20
35.170019147
 30
0.0
 40
0.4
 50
95.0
 51
185.0
  0
LINE
  8
0
  6
CONTINUOUS
 62
     2
 10
52.491723199
 20
34.399474882
 30
0.0
 11
52.433078221
 21
35.069790043
 31
0.0
  0
LINE
  8
0
  6
CONTINUOUS
 62
     2
 10
53.180224245
 20
35.13515685
 30
0.0
 11
53.238869222
 21
34.464841689
 31
0.0
  0
LINE
  8
0
  6
CONTINUOUS
 62
     2
 10
56.0
 20
32.3
 30
0.0
 11
59.9
 21
32.3
 31
0.0
  0
LINE
  8
0
  6
CONTINUOUS
 62
     2
 10
59.9
 20
32.8
 30
0.0
 11
56.0
 21
32.8
 31
0.0
  0
LINE
  8
0
  6
CONTINUOUS
 62
     2
 10
56.0
 20
33.3
 30
0.0
 11
59.9
 21
33.3
 31
0.0
  0
LINE
  8
0
  6
CONTINUOUS
 62
     2
 10
56.162471773
 20
37.249914276
 30
0.0
 11
59.449914276
 21
37.537528227
 31
0.0
  0
LINE
  8
0
  6
CONTINUOUS
 62
     2
 10
59.449914276
 20
37.537528227
 30
0.0
 11
59.737528227
 21
34.250085724
 31
0.0
  0
LINE
  8
0
  6
CONTINUOUS
 62
     2
 10
57.9
 20
34.1
 30
0.0
 11
57.85
 21
34.4
 31
0.0
  0
LINE
  8
0
  6
CONTINUOUS
 62
     2
 10
58.3
 20
34.15
 30
0.0
 11
58.3
 21
34.45
 31
0.0
  0
LINE
  8
0
  6
CONTINUOUS
 62
     2
 10
57.55
 20
37.075
 30
0.0
 11
57.55
 21
37.375
 31
0.0
  0
LINE
  8
0
  6
CONTINUOUS
 62
     2
 10
58.0
 20
37.125
 30
0.0
 11
57.9
 21
37.425
 31
0.0
  0
LINE
  8
0
  6
CONTINUOUS
 62
     2
 10
56.581274415
 20
35.881206987
 30
0.0
 11
57.156160173
 21
35.931502974
 31
0.0
  0
LINE
  8
0
  6
CONTINUOUS
 62
     2
 10
57.461130778
 20
37.035158311
 30
0.0
 11
57.519775755
 21
36.36484315
 31
0.0
  0
ARC
  8
0
  6
CONTINUOUS
 62
     2
 10
57.121297876
 20
36.329980853
 30
0.0
 40
0.4
 50
275.0
 51
5.0
  0
LINE
  8
0
  6
CONTINUOUS
 62
     2
 10
58.266921779
 20
36.430209957
 30
0.0
 11
58.208276801
 21
37.100525118
 31
0.0
  0
LINE
  8
0
  6
CONTINUOUS
 62
     2
 10
58.700261955
 20
36.066594375
 30
0.0
 11
59.275147713
 21
36.116890362
 31
0.0
  0
ARC
  8
0
  6
CONTINUOUS
 62
     2
 10
58.665399658
 20
36.465072254
 30
0.0
 40
0.4
 50
185.0
 51
275.0
  0
LINE
  8
0
  6
CONTINUOUS
 62
     2
 10
56.624852287
 20
35.383109638
 30
0.0
 11
57.199738045
 21
35.433405625
 31
0.0
  0
ARC
  8
0
  6
CONTINUOUS
 62
     2
 10
57.234600342
 20
35.034927746
 30
0.0
 40
0.4
 50
5.0
 51
95.0
  0
LINE
  8
0
  6
CONTINUOUS
 62
     2
 10
58.743839827
 20
35.568497026
 30
0.0
 11
59.318725585
 21
35.618793013
 31
0.0
  0
ARC
  8
0
  6
CONTINUOUS
 62
     2
 10
58.778702124
 20
35.170019147
 30
0.0
 40
0.4
 50
95.0
 51
185.0
  0
LINE
  8
0
  6
CONTINUOUS
 62
     2
 10
57.691723199
 20
34.399474882
 30
0.0
 11
57.633078221
 21
35.069790043
 31
0.0
  0
LINE
  8
0
  6
CONTINUOUS
 62
     2
 10
58.380224245
 20
35.13515685
 30
0.0
 11
58.438869222
 21
34.464841689
 31
0.0
  0
LINE
  8
0
  6
CONTINUOUS
 62
     2
 10
59.9
 20
33.55
 30
0.0
 11
56.0
 21
33.55
 31
0.0
  0
CIRCLE
  8
0
  6
CONTINUOUS
 62
     2
 10
57.95
 20
35.75
 30
0.0
 40
1.375
  0
LINE
  8
0
  6
CONTINUOUS
 62
     2
 10
56.450085724
 20
33.962471773
 30
0.0
 11
56.162471773
 21
37.249914276
 31
0.0
  0
LINE
  8
0
  6
CONTINUOUS
 62
     2
 10
59.737528227
 20
34.250085724
 30
0.0
 11
56.450085724
 21
33.962471773
 31
0.0
  0
LINE
  8
0
  6
CONTINUOUS
 62
     1
 10
56.0
 20
30.0
 30
0.0
 11
56.0
 21
38.0
 31
0.0
  0
LINE
  8
0
  6
CONTINUOUS
 62
     2
 10
68.0
 20
32.3
 30
0.0
 11
64.1
 21
32.3
 31
0.0
  0
LINE
  8
0
  6
CONTINUOUS
 62
     2
 10
64.1
 20
32.8
 30
0.0
 11
68.0
 21
32.8
 31
0.0
  0
LINE
  8
0
  6
CONTINUOUS
 62
     2
 10
68.0
 20
33.3
 30
0.0
 11
64.1
 21
33.3
 31
0.0
  0
LINE
  8
0
  6
CONTINUOUS
 62
     2
 10
64.1
 20
33.55
 30
0.0
 11
68.0
 21
33.55
 31
0.0
  0
LINE
  8
0
  6
CONTINUOUS
 62
     2
 10
67.837528227
 20
37.249914276
 30
0.0
 11
64.550085724
 21
37.537528227
 31
0.0
  0
LINE
  8
0
  6
CONTINUOUS
 62
     2
 10
64.550085724
 20
37.537528227
 30
0.0
 11
64.262471773
 21
34.250085724
 31
0.0
  0
LINE
  8
0
  6
CONTINUOUS
 62
     2
 10
66.1
 20
34.1
 30
0.0
 11
66.15
 21
34.4
 31
0.0
  0
LINE
  8
0
  6
CONTINUOUS
 62
     2
 10
65.7
 20
34.15
 30
0.0
 11
65.7
 21
34.45
 31
0.0
  0
LINE
  8
0
  6
CONTINUOUS
 62
     2
 10
66.45
 20
37.075
 30
0.0
 11
66.45
 21
37.375
 31
0.0
  0
LINE
  8
0
  6
CONTINUOUS
 62
     2
 10
66.0
 20
37.125
 30
0.0
 11
66.1
 21
37.425
 31
0.0
  0
LINE
  8
0
  6
CONTINUOUS
 62
     2
 10
67.418725585
 20
35.881206987
 30
0.0
 11
66.843839827
 21
35.931502974
 31
0.0
  0
LINE
  8
0
  6
CONTINUOUS
 62
     2
 10
66.538869222
 20
37.035158311
 30
0.0
 11
66.480224245
 21
36.36484315
 31
0.0
  0
ARC
  8
0
  6
CONTINUOUS
 62
     2
 10
66.878702124
 20
36.329980853
 30
0.0
 40
0.4
 50
175.0
 51
265.0
  0
LINE
  8
0
  6
CONTINUOUS
 62
     2
 10
65.733078221
 20
36.430209957
 30
0.0
 11
65.791723199
 21
37.100525118
 31
0.0
  0
LINE
  8
0
  6
CONTINUOUS
 62
     2
 10
65.299738045
 20
36.066594375
 30
0.0
 11
64.724852287
 21
36.116890362
 31
0.0
  0
ARC
  8
0
  6
CONTINUOUS
 62
     2
 10
65.334600342
 20
36.465072254
 30
0.0
 40
0.4
 50
265.0
 51
355.0
  0
LINE
  8
0
  6
CONTINUOUS
 62
     2
 10
67.375147713
 20
35.383109638
 30
0.0
 11
66.800261955
 21
35.433405625
 31
0.0
  0
ARC
  8
0
  6
CONTINUOUS
 62
     2
 10
66.765399658
 20
35.034927746
 30
0.0
 40
0.4
 50
85.0
 51
175.0
  0
LINE
  8
0
  6
CONTINUOUS
 62
     2
 10
65.256160173
 20
35.568497026
 30
0.0
 11
64.681274415
 21
35.618793013
 31
0.0
  0
ARC
  8
0
  6
CONTINUOUS
 62
     2
 10
65.221297876
 20
35.170019147
 30
0.0
 40
0.4
 50
355.0
 51
85.0
  0
LINE
  8
0
  6
CONTINUOUS
 62
     2
 10
66.308276801
 20
34.399474882
 30
0.0
 11
66.366921779
 21
35.069790043
 31
0.0
  0
LINE
  8
0
  6
CONTINUOUS
 62
     2
 10
65.619775755
 20
35.13515685
 30
0.0
 11
65.561130778
 21
34.464841689
 31
0.0
  0
CIRCLE
  8
0
  6
CONTINUOUS
 62
     2
 10
66.05
 20
35.75
 30
0.0
 40
1.375
  0
LINE
  8
0
  6
CONTINUOUS
 62
     2
 10
64.262471773
 20
34.250085724
 30
0.0
 11
67.549914276
 21
33.962471773
 31
0.0
  0
LINE
  8
0
  6
CONTINUOUS
 62
     2
 10
73.2
 20
32.3
 30
0.0
 11
69.3
 21
32.3
 31
0.0
  0
LINE
  8
0
  6
CONTINUOUS
 62
     2
 10
69.3
 20
32.8
 30
0.0
 11
73.2
 21
32.8
 31
0.0
  0
LINE
  8
0
  6
CONTINUOUS
 62
     2
 10
73.2
 20
33.3
 30
0.0
 11
69.3
 21
33.3
 31
0.0
  0
LINE
  8
0
  6
CONTINUOUS
 62
     2
 10
69.3
 20
33.55
 30
0.0
 11
73.2
 21
33.55
 31
0.0
  0
CIRCLE
  8
0
  6
CONTINUOUS
 62
     2
 10
71.25
 20
35.75
 30
0.0
 40
1.375
  0
LINE
  8
0
  6
CONTINUOUS
 62
     2
 10
73.037528227
 20
37.249914276
 30
0.0
 11
69.750085724
 21
37.537528227
 31
0.0
  0
LINE
  8
0
  6
CONTINUOUS
 62
     2
 10
69.750085724
 20
37.537528227
 30
0.0
 11
69.462471773
 21
34.250085724
 31
0.0
  0
LINE
  8
0
  6
CONTINUOUS
 62
     2
 10
69.462471773
 20
34.250085724
 30
0.0
 11
72.749914276
 21
33.962471773
 31
0.0
  0
LINE
  8
0
  6
CONTINUOUS
 62
     2
 10
72.749914276
 20
33.962471773
 30
0.0
 11
73.037528227
 21
37.249914276
 31
0.0
  0
LINE
  8
0
  6
CONTINUOUS
 62
     2
 10
71.3
 20
34.1
 30
0.0
 11
71.35
 21
34.4
 31
0.0
  0
LINE
  8
0
  6
CONTINUOUS
 62
     2
 10
70.9
 20
34.15
 30
0.0
 11
70.9
 21
34.45
 31
0.0
  0
LINE
  8
0
  6
CONTINUOUS
 62
     2
 10
71.65
 20
37.075
 30
0.0
 11
71.65
 21
37.375
 31
0.0
  0
LINE
  8
0
  6
CONTINUOUS
 62
     2
 10
71.2
 20
37.125
 30
0.0
 11
71.3
 21
37.425
 31
0.0
  0
LINE
  8
0
  6
CONTINUOUS
 62
     2
 10
72.618725585
 20
35.881206987
 30
0.0
 11
72.043839827
 21
35.931502974
 31
0.0
  0
LINE
  8
0
  6
CONTINUOUS
 62
     2
 10
71.738869222
 20
37.035158311
 30
0.0
 11
71.680224245
 21
36.36484315
 31
0.0
  0
ARC
  8
0
  6
CONTINUOUS
 62
     2
 10
72.078702124
 20
36.329980853
 30
0.0
 40
0.4
 50
175.0
 51
265.0
  0
LINE
  8
0
  6
CONTINUOUS
 62
     2
 10
70.933078221
 20
36.430209957
 30
0.0
 11
70.991723199
 21
37.100525118
 31
0.0
  0
LINE
  8
0
  6
CONTINUOUS
 62
     2
 10
70.499738045
 20
36.066594375
 30
0.0
 11
69.924852287
 21
36.116890362
 31
0.0
  0
ARC
  8
0
  6
CONTINUOUS
 62
     2
 10
70.534600342
 20
36.465072254
 30
0.0
 40
0.4
 50
265.0
 51
355.0
  0
LINE
  8
0
  6
CONTINUOUS
 62
     2
 10
72.575147713
 20
35.383109638
 30
0.0
 11
72.000261955
 21
35.433405625
 31
0.0
  0
ARC
  8
0
  6
CONTINUOUS
 62
     2
 10
71.965399658
 20
35.034927746
 30
0.0
 40
0.4
 50
85.0
 51
175.0
  0
LINE
  8
0
  6
CONTINUOUS
 62
     2
 10
70.456160173
 20
35.568497026
 30
0.0
 11
69.881274415
 21
35.618793013
 31
0.0
  0
ARC
  8
0
  6
CONTINUOUS
 62
     2
 10
70.421297876
 20
35.170019147
 30
0.0
 40
0.4
 50
355.0
 51
85.0
  0
LINE
  8
0
  6
CONTINUOUS
 62
     2
 10
71.508276801
 20
34.399474882
 30
0.0
 11
71.566921779
 21
35.069790043
 31
0.0
  0
LINE
  8
0
  6
CONTINUOUS
 62
     2
 10
70.819775755
 20
35.13515685
 30
0.0
 11
70.761130778
 21
34.464841689
 31
0.0
  0
LINE
  8
0
  6
CONTINUOUS
 62
     2
 10
71.25
 20
34.45
 30
0.0
 11
71.906041267
 21
32.037613245
 31
0.0
  0
LINE
  8
0
  6
CONTINUOUS
 62
     2
 10
71.25
 20
34.45
 30
0.0
 11
73.02434178
 21
32.68883242
 31
0.0
  0
LINE
  8
0
  6
CONTINUOUS
 62
     2
 10
71.25
 20
34.45
 30
0.0
 11
78.5
 21
22.0
 31
0.0
  0
LINE
  8
0
  6
CONTINUOUS
 62
     2
 10
50.8
 20
65.7
 30
0.0
 11
54.7
 21
65.7
 31
0.0
  0
LINE
  8
0
  6
CONTINUOUS
 62
     2
 10
54.7
 20
65.2
 30
0.0
 11
50.8
 21
65.2
 31
0.0
  0
LINE
  8
0
  6
CONTINUOUS
 62
     2
 10
50.8
 20
64.7
 30
0.0
 11
54.7
 21
64.7
 31
0.0
  0
LINE
  8
0
  6
CONTINUOUS
 62
     2
 10
54.7
 20
64.45
 30
0.0
 11
50.8
 21
64.45
 31
0.0
  0
CIRCLE
  8
0
  6
CONTINUOUS
 62
     2
 10
52.75
 20
62.25
 30
0.0
 40
1.375
  0
LINE
  8
0
  6
CONTINUOUS
 62
     2
 10
50.962471773
 20
60.750085724
 30
0.0
 11
54.249914276
 21
60.462471773
 31
0.0
  0
LINE
  8
0
  6
CONTINUOUS
 62
     2
 10
54.249914276
 20
60.462471773
 30
0.0
 11
54.537528227
 21
63.749914276
 31
0.0
  0
LINE
  8
0
  6
CONTINUOUS
 62
     2
 10
54.537528227
 20
63.749914276
 30
0.0
 11
51.250085724
 21
64.037528227
 31
0.0
  0
LINE
  8
0
  6
CONTINUOUS
 62
     2
 10
51.250085724
 20
64.037528227
 30
0.0
 11
50.962471773
 21
60.750085724
 31
0.0
  0
LINE
  8
0
  6
CONTINUOUS
 62
     2
 10
52.7
 20
63.9
 30
0.0
 11
52.65
 21
63.6
 31
0.0
  0
LINE
  8
0
  6
CONTINUOUS
 62
     2
 10
53.1
 20
63.85
 30
0.0
 11
53.1
 21
63.55
 31
0.0
  0
LINE
  8
0
  6
CONTINUOUS
 62
     2
 10
52.35
 20
60.925
 30
0.0
 11
52.35
 21
60.625
 31
0.0
  0
LINE
  8
0
  6
CONTINUOUS
 62
     2
 10
52.8
 20
60.875
 30
0.0
 11
52.7
 21
60.575
 31
0.0
  0
LINE
  8
0
  6
CONTINUOUS
 62
     2
 10
51.381274415
 20
62.118793013
 30
0.0
 11
51.956160173
 21
62.068497026
 31
0.0
  0
LINE
  8
0
  6
CONTINUOUS
 62
     2
 10
52.261130778
 20
60.964841689
 30
0.0
 11
52.319775755
 21
61.63515685
 31
0.0
  0
ARC
  8
0
  6
CONTINUOUS
 62
     2
 10
51.921297876
 20
61.670019147
 30
0.0
 40
0.4
 50
355.0
 51
85.0
  0
LINE
  8
0
  6
CONTINUOUS
 62
     2
 10
53.066921779
 20
61.569790043
 30
0.0
 11
53.008276801
 21
60.899474882
 31
0.0
  0
LINE
  8
0
  6
CONTINUOUS
 62
     2
 10
53.500261955
 20
61.933405625
 30
0.0
 11
54.075147713
 21
61.883109638
 31
0.0
  0
ARC
  8
0
  6
CONTINUOUS
 62
     2
 10
53.465399658
 20
61.534927746
 30
0.0
 40
0.4
 50
85.0
 51
175.0
  0
LINE
  8
0
  6
CONTINUOUS
 62
     2
 10
51.424852287
 20
62.616890362
 30
0.0
 11
51.999738045
 21
62.566594375
 31
0.0
  0
ARC
  8
0
  6
CONTINUOUS
 62
     2
 10
52.034600342
 20
62.965072254
 30
0.0
 40
0.4
 50
265.0
 51
355.0
  0
LINE
  8
0
  6
CONTINUOUS
 62
     2
 10
53.543839827
 20
62.431502974
 30
0.0
 11
54.118725585
 21
62.381206987
 31
0.0
  0
ARC
  8
0
  6
CONTINUOUS
 62
     2
 10
53.578702124
 20
62.829980853
 30
0.0
 40
0.4
 50
175.0
 51
265.0
  0
LINE
  8
0
  6
CONTINUOUS
 62
     2
 10
52.491723199
 20
63.600525118
 30
0.0
 11
52.433078221
 21
62.930209957
 31
0.0
  0
LINE
  8
0
  6
CONTINUOUS
 62
     2
 10
53.180224245
 20
62.86484315
 30
0.0
 11
53.238869222
 21
63.535158311
 31
0.0
  0
LINE
  8
0
  6
CONTINUOUS
 62
     2
 10
56.0
 20
65.7
 30
0.0
 11
59.9
 21
65.7
 31
0.0
  0
LINE
  8
0
  6
CONTINUOUS
 62
     2
 10
59.9
 20
65.2
 30
0.0
 11
56.0
 21
65.2
 31
0.0
  0
LINE
  8
0
  6
CONTINUOUS
 62
     2
 10
56.0
 20
64.7
 30
0.0
 11
59.9
 21
64.7
 31
0.0
  0
LINE
  8
0
  6
CONTINUOUS
 62
     2
 10
59.9
 20
64.45
 30
0.0
 11
56.0
 21
64.45
 31
0.0
  0
CIRCLE
  8
0
  6
CONTINUOUS
 62
     2
 10
57.95
 20
62.25
 30
0.0
 40
1.375
  0
LINE
  8
0
  6
CONTINUOUS
 62
     2
 10
56.162471773
 20
60.750085724
 30
0.0
 11
59.449914276
 21
60.462471773
 31
0.0
  0
LINE
  8
0
  6
CONTINUOUS
 62
     2
 10
59.449914276
 20
60.462471773
 30
0.0
 11
59.737528227
 21
63.749914276
 31
0.0
  0
LINE
  8
0
  6
CONTINUOUS
 62
     2
 10
59.737528227
 20
63.749914276
 30
0.0
 11
56.450085724
 21
64.037528227
 31
0.0
  0
LINE
  8
0
  6
CONTINUOUS
 62
     2
 10
57.9
 20
63.9
 30
0.0
 11
57.85
 21
63.6
 31
0.0
  0
LINE
  8
0
  6
CONTINUOUS
 62
     2
 10
58.3
 20
63.85
 30
0.0
 11
58.3
 21
63.55
 31
0.0
  0
LINE
  8
0
  6
CONTINUOUS
 62
     2
 10
57.55
 20
60.925
 30
0.0
 11
57.55
 21
60.625
 31
0.0
  0
LINE
  8
0
  6
CONTINUOUS
 62
     2
 10
58.0
 20
60.875
 30
0.0
 11
57.9
 21
60.575
 31
0.0
  0
LINE
  8
0
  6
CONTINUOUS
 62
     2
 10
56.581274415
 20
62.118793013
 30
0.0
 11
57.156160173
 21
62.068497026
 31
0.0
  0
LINE
  8
0
  6
CONTINUOUS
 62
     2
 10
57.461130778
 20
60.964841689
 30
0.0
 11
57.519775755
 21
61.63515685
 31
0.0
  0
ARC
  8
0
  6
CONTINUOUS
 62
     2
 10
57.121297876
 20
61.670019147
 30
0.0
 40
0.4
 50
355.0
 51
85.0
  0
LINE
  8
0
  6
CONTINUOUS
 62
     2
 10
58.266921779
 20
61.569790043
 30
0.0
 11
58.208276801
 21
60.899474882
 31
0.0
  0
LINE
  8
0
  6
CONTINUOUS
 62
     2
 10
58.700261955
 20
61.933405625
 30
0.0
 11
59.275147713
 21
61.883109638
 31
0.0
  0
ARC
  8
0
  6
CONTINUOUS
 62
     2
 10
58.665399658
 20
61.534927746
 30
0.0
 40
0.4
 50
85.0
 51
175.0
  0
LINE
  8
0
  6
CONTINUOUS
 62
     2
 10
56.624852287
 20
62.616890362
 30
0.0
 11
57.199738045
 21
62.566594375
 31
0.0
  0
ARC
  8
0
  6
CONTINUOUS
 62
     2
 10
57.234600342
 20
62.965072254
 30
0.0
 40
0.4
 50
265.0
 51
355.0
  0
LINE
  8
0
  6
CONTINUOUS
 62
     2
 10
58.743839827
 20
62.431502974
 30
0.0
 11
59.318725585
 21
62.381206987
 31
0.0
  0
ARC
  8
0
  6
CONTINUOUS
 62
     2
 10
58.778702124
 20
62.829980853
 30
0.0
 40
0.4
 50
175.0
 51
265.0
  0
LINE
  8
0
  6
CONTINUOUS
 62
     2
 10
57.691723199
 20
63.600525118
 30
0.0
 11
57.633078221
 21
62.930209957
 31
0.0
  0
LINE
  8
0
  6
CONTINUOUS
 62
     2
 10
58.380224245
 20
62.86484315
 30
0.0
 11
58.438869222
 21
63.535158311
 31
0.0
  0
LINE
  8
0
  6
CONTINUOUS
 62
     2
 10
68.0
 20
65.7
 30
0.0
 11
64.1
 21
65.7
 31
0.0
  0
LINE
  8
0
  6
CONTINUOUS
 62
     2
 10
64.1
 20
65.2
 30
0.0
 11
68.0
 21
65.2
 31
0.0
  0
LINE
  8
0
  6
CONTINUOUS
 62
     2
 10
68.0
 20
64.7
 30
0.0
 11
64.1
 21
64.7
 31
0.0
  0
LINE
  8
0
  6
CONTINUOUS
 62
     2
 10
64.1
 20
64.45
 30
0.0
 11
68.0
 21
64.45
 31
0.0
  0
CIRCLE
  8
0
  6
CONTINUOUS
 62
     2
 10
66.05
 20
62.25
 30
0.0
 40
1.375
  0
LINE
  8
0
  6
CONTINUOUS
 62
     2
 10
67.837528227
 20
60.750085724
 30
0.0
 11
64.550085724
 21
60.462471773
 31
0.0
  0
LINE
  8
0
  6
CONTINUOUS
 62
     2
 10
64.550085724
 20
60.462471773
 30
0.0
 11
64.262471773
 21
63.749914276
 31
0.0
  0
LINE
  8
0
  6
CONTINUOUS
 62
     2
 10
64.262471773
 20
63.749914276
 30
0.0
 11
67.549914276
 21
64.037528227
 31
0.0
  0
LINE
  8
0
  6
CONTINUOUS
 62
     2
 10
66.1
 20
63.9
 30
0.0
 11
66.15
 21
63.6
 31
0.0
  0
LINE
  8
0
  6
CONTINUOUS
 62
     2
 10
65.7
 20
63.85
 30
0.0
 11
65.7
 21
63.55
 31
0.0
  0
LINE
  8
0
  6
CONTINUOUS
 62
     2
 10
66.45
 20
60.925
 30
0.0
 11
66.45
 21
60.625
 31
0.0
  0
LINE
  8
0
  6
CONTINUOUS
 62
     2
 10
66.0
 20
60.875
 30
0.0
 11
66.1
 21
60.575
 31
0.0
  0
LINE
  8
0
  6
CONTINUOUS
 62
     2
 10
67.418725585
 20
62.118793013
 30
0.0
 11
66.843839827
 21
62.068497026
 31
0.0
  0
LINE
  8
0
  6
CONTINUOUS
 62
     2
 10
66.538869222
 20
60.964841689
 30
0.0
 11
66.480224245
 21
61.63515685
 31
0.0
  0
ARC
  8
0
  6
CONTINUOUS
 62
     2
 10
66.878702124
 20
61.670019147
 30
0.0
 40
0.4
 50
95.0
 51
185.0
  0
LINE
  8
0
  6
CONTINUOUS
 62
     2
 10
65.733078221
 20
61.569790043
 30
0.0
 11
65.791723199
 21
60.899474882
 31
0.0
  0
LINE
  8
0
  6
CONTINUOUS
 62
     2
 10
65.299738045
 20
61.933405625
 30
0.0
 11
64.724852287
 21
61.883109638
 31
0.0
  0
ARC
  8
0
  6
CONTINUOUS
 62
     2
 10
65.334600342
 20
61.534927746
 30
0.0
 40
0.4
 50
5.0
 51
95.0
  0
LINE
  8
0
  6
CONTINUOUS
 62
     2
 10
67.375147713
 20
62.616890362
 30
0.0
 11
66.800261955
 21
62.566594375
 31
0.0
  0
ARC
  8
0
  6
CONTINUOUS
 62
     2
 10
66.765399658
 20
62.965072254
 30
0.0
 40
0.4
 50
185.0
 51
275.0
  0
LINE
  8
0
  6
CONTINUOUS
 62
     2
 10
65.256160173
 20
62.431502974
 30
0.0
 11
64.681274415
 21
62.381206987
 31
0.0
  0
ARC
  8
0
  6
CONTINUOUS
 62
     2
 10
65.221297876
 20
62.829980853
 30
0.0
 40
0.4
 50
275.0
 51
5.0
  0
LINE
  8
0
  6
CONTINUOUS
 62
     2
 10
66.308276801
 20
63.600525118
 30
0.0
 11
66.366921779
 21
62.930209957
 31
0.0
  0
LINE
  8
0
  6
CONTINUOUS
 62
     2
 10
65.619775755
 20
62.86484315
 30
0.0
 11
65.561130778
 21
63.535158311
 31
0.0
  0
LINE
  8
0
  6
CONTINUOUS
 62
     2
 10
73.2
 20
65.7
 30
0.0
 11
69.3
 21
65.7
 31
0.0
  0
LINE
  8
0
  6
CONTINUOUS
 62
     2
 10
69.3
 20
65.2
 30
0.0
 11
73.2
 21
65.2
 31
0.0
  0
LINE
  8
0
  6
CONTINUOUS
 62
     2
 10
73.2
 20
64.7
 30
0.0
 11
69.3
 21
64.7
 31
0.0
  0
LINE
  8
0
  6
CONTINUOUS
 62
     2
 10
69.3
 20
64.45
 30
0.0
 11
73.2
 21
64.45
 31
0.0
  0
CIRCLE
  8
0
  6
CONTINUOUS
 62
     2
 10
71.25
 20
62.25
 30
0.0
 40
1.375
  0
LINE
  8
0
  6
CONTINUOUS
 62
     2
 10
73.037528227
 20
60.750085724
 30
0.0
 11
69.750085724
 21
60.462471773
 31
0.0
  0
LINE
  8
0
  6
CONTINUOUS
 62
     2
 10
69.750085724
 20
60.462471773
 30
0.0
 11
69.462471773
 21
63.749914276
 31
0.0
  0
LINE
  8
0
  6
CONTINUOUS
 62
     2
 10
69.462471773
 20
63.749914276
 30
0.0
 11
72.749914276
 21
64.037528227
 31
0.0
  0
LINE
  8
0
  6
CONTINUOUS
 62
     2
 10
72.749914276
 20
64.037528227
 30
0.0
 11
73.037528227
 21
60.750085724
 31
0.0
  0
LINE
  8
0
  6
CONTINUOUS
 62
     2
 10
71.3
 20
63.9
 30
0.0
 11
71.35
 21
63.6
 31
0.0
  0
LINE
  8
0
  6
CONTINUOUS
 62
     2
 10
70.9
 20
63.85
 30
0.0
 11
70.9
 21
63.55
 31
0.0
  0
LINE
  8
0
  6
CONTINUOUS
 62
     2
 10
71.65
 20
60.925
 30
0.0
 11
71.65
 21
60.625
 31
0.0
  0
LINE
  8
0
  6
CONTINUOUS
 62
     2
 10
71.2
 20
60.875
 30
0.0
 11
71.3
 21
60.575
 31
0.0
  0
LINE
  8
0
  6
CONTINUOUS
 62
     2
 10
72.618725585
 20
62.118793013
 30
0.0
 11
72.043839827
 21
62.068497026
 31
0.0
  0
LINE
  8
0
  6
CONTINUOUS
 62
     2
 10
71.738869222
 20
60.964841689
 30
0.0
 11
71.680224245
 21
61.63515685
 31
0.0
  0
ARC
  8
0
  6
CONTINUOUS
 62
     2
 10
72.078702124
 20
61.670019147
 30
0.0
 40
0.4
 50
95.0
 51
185.0
  0
LINE
  8
0
  6
CONTINUOUS
 62
     2
 10
70.933078221
 20
61.569790043
 30
0.0
 11
70.991723199
 21
60.899474882
 31
0.0
  0
LINE
  8
0
  6
CONTINUOUS
 62
     2
 10
70.499738045
 20
61.933405625
 30
0.0
 11
69.924852287
 21
61.883109638
 31
0.0
  0
ARC
  8
0
  6
CONTINUOUS
 62
     2
 10
70.534600342
 20
61.534927746
 30
0.0
 40
0.4
 50
5.0
 51
95.0
  0
LINE
  8
0
  6
CONTINUOUS
 62
     2
 10
72.575147713
 20
62.616890362
 30
0.0
 11
72.000261955
 21
62.566594375
 31
0.0
  0
ARC
  8
0
  6
CONTINUOUS
 62
     2
 10
71.965399658
 20
62.965072254
 30
0.0
 40
0.4
 50
185.0
 51
275.0
  0
LINE
  8
0
  6
CONTINUOUS
 62
     2
 10
70.456160173
 20
62.431502974
 30
0.0
 11
69.881274415
 21
62.381206987
 31
0.0
  0
ARC
  8
0
  6
CONTINUOUS
 62
     2
 10
70.421297876
 20
62.829980853
 30
0.0
 40
0.4
 50
275.0
 51
5.0
  0
LINE
  8
0
  6
CONTINUOUS
 62
     2
 10
71.508276801
 20
63.600525118
 30
0.0
 11
71.566921779
 21
62.930209957
 31
0.0
  0
LINE
  8
0
  6
CONTINUOUS
 62
     2
 10
70.819775755
 20
62.86484315
 30
0.0
 11
70.761130778
 21
63.535158311
 31
0.0
  0
LINE
  8
0
  6
CONTINUOUS
 62
     2
 10
67.549914276
 20
64.037528227
 30
0.0
 11
67.837528227
 21
60.750085724
 31
0.0
  0
LINE
  8
0
  6
CONTINUOUS
 62
     2
 10
56.450085724
 20
64.037528227
 30
0.0
 11
56.162471773
 21
60.750085724
 31
0.0
  0
LINE
  8
0
  6
CONTINUOUS
 62
     2
 10
67.549914276
 20
33.962471773
 30
0.0
 11
67.837528227
 21
37.249914276
 31
0.0
  0
ARC
  8
0
  6
CONTINUOUS
 62
     2
 10
48.984375
 20
66.125
 30
0.0
 40
1.015625
 50
300.510237406
 51
59.489762594
  0
ARC
  8
0
  6
CONTINUOUS
 62
     2
 10
75.015625
 20
66.125
 30
0.0
 40
1.015625
 50
120.510237406
 51
239.489762594
  0
ARC
  8
0
  6
CONTINUOUS
 62
     2
 10
75.015625
 20
31.875
 30
0.0
 40
1.015625
 50
120.510237406
 51
239.489762594
  0
ARC
  8
0
  6
CONTINUOUS
 62
     2
 10
48.984375
 20
31.875
 30
0.0
 40
1.015625
 50
300.510237406
 51
59.489762594
  0
TEXT
  8
0
  6
CONTINUOUS
 62
     2
 10
52.1
 20
38.6
 30
0.15
 40
1.5
  1
７
 50
0.0
 41
0.9
 51
0.0
  7
KANJI4
  0
TEXT
  8
0
  6
CONTINUOUS
 62
     2
 10
57.3
 20
38.6
 30
0.15
 40
1.5
  1
８
 50
0.0
 41
0.9
 51
0.0
  7
KANJI4
  0
TEXT
  8
0
  6
CONTINUOUS
 62
     2
 10
65.4
 20
38.6
 30
0.15
 40
1.5
  1
１
 50
0.0
 41
0.9
 51
0.0
  7
KANJI4
  0
TEXT
  8
0
  6
CONTINUOUS
 62
     2
 10
70.6
 20
38.6
 30
0.15
 40
1.5
  1
２
 50
0.0
 41
0.9
 51
0.0
  7
KANJI4
  0
TEXT
  8
0
  6
CONTINUOUS
 62
     2
 10
52.1
 20
58.1
 30
0.15
 40
1.5
  1
６
 50
0.0
 41
0.9
 51
0.0
  7
KANJI4
  0
TEXT
  8
0
  6
CONTINUOUS
 62
     2
 10
57.3
 20
58.1
 30
0.15
 40
1.5
  1
５
 50
0.0
 41
0.9
 51
0.0
  7
KANJI4
  0
TEXT
  8
0
  6
CONTINUOUS
 62
     2
 10
65.4
 20
58.1
 30
0.15
 40
1.5
  1
４
 50
0.0
 41
0.9
 51
0.0
  7
KANJI4
  0
TEXT
  8
0
  6
CONTINUOUS
 62
     2
 10
70.6
 20
58.1
 30
0.15
 40
1.5
  1
３
 50
0.0
 41
0.9
 51
0.0
  7
KANJI4
  0
LINE
  8
0
  6
CONTINUOUS
 62
     2
 10
39.5
 20
29.0
 30
0.0
 11
40.147047613
 21
31.414814566
 31
0.0
  0
LINE
  8
0
  6
CONTINUOUS
 62
     2
 10
39.5
 20
69.0
 30
0.0
 11
38.852952387
 21
66.585185434
 31
0.0
  0
LINE
  8
0
  6
CONTINUOUS
 62
     2
 10
39.5
 20
69.0
 30
0.0
 11
40.147047613
 21
66.585185434
 31
0.0
  0
TEXT
  8
0
  6
CONTINUOUS
 62
     2
 10
38.5
 20
46.75
 30
0.5
 40
3.0
  1
８０
 50
90.0
 41
0.666666667
 51
0.0
  7
KANJI0
  0
LINE
  8
0
  6
CONTINUOUS
 62
     2
 10
39.5
 20
29.0
 30
0.0
 11
38.852952387
 21
31.414814566
 31
0.0
  0
LINE
  8
0
  6
CONTINUOUS
 62
     2
 10
39.5
 20
27.0
 30
0.0
 11
38.852952387
 21
24.585185434
 31
0.0
  0
LINE
  8
0
  6
CONTINUOUS
 62
     2
 10
39.5
 20
27.0
 30
0.0
 11
40.147047613
 21
24.585185434
 31
0.0
  0
TEXT
  8
0
  6
CONTINUOUS
 62
     2
 10
38.5
 20
22.0
 30
0.5
 40
3.0
  1
４
 50
90.0
 41
0.666666667
 51
0.0
  7
KANJI0
  0
LINE
  8
0
  6
CONTINUOUS
 62
     2
 10
39.5
 20
22.0
 30
0.0
 11
39.5
 21
69.0
 31
0.0
  0
LINE
  8
0
  6
CONTINUOUS
 62
     2
 10
59.5
 20
27.0
 30
0.0
 11
38.5
 21
27.0
 31
0.0
  0
LINE
  8
0
  6
CONTINUOUS
 62
     2
 10
55.0
 20
29.0
 30
0.0
 11
38.5
 21
29.0
 31
0.0
  0
LINE
  8
0
  6
CONTINUOUS
 62
     2
 10
52.0
 20
54.0
 30
0.0
 11
52.0
 21
79.0
 31
0.0
  0
LINE
  8
0
  6
CONTINUOUS
 62
     2
 10
49.5
 20
68.5
 30
0.0
 11
49.5
 21
84.0
 31
0.0
  0
LINE
  8
0
  6
CONTINUOUS
 62
     2
 10
72.0
 20
54.0
 30
0.0
 11
72.0
 21
79.0
 31
0.0
  0
LINE
  8
0
  6
CONTINUOUS
 62
     2
 10
74.5
 20
68.5
 30
0.0
 11
74.5
 21
84.0
 31
0.0
  0
LINE
  8
0
  6
CONTINUOUS
 62
     2
 10
59.0
 20
69.0
 30
0.0
 11
38.5
 21
69.0
 31
0.0
  0
LINE
  8
0
  6
CONTINUOUS
 62
     2
 10
95.0
 20
56.7
 30
0.0
 11
95.0
 21
84.0
 31
0.0
  0
LINE
  8
0
  6
CONTINUOUS
 62
     2
 10
106.75
 20
68.5
 30
0.0
 11
106.75
 21
84.0
 31
0.0
  0
LINE
  8
0
  6
CONTINUOUS
 62
     2
 10
97.5
 20
67.75
 30
0.0
 11
97.5
 21
79.0
 31
0.0
  0
LINE
  8
0
  6
CONTINUOUS
 62
     2
 10
104.75
 20
68.5
 30
0.0
 11
104.75
 21
79.0
 31
0.0
  0
LINE
  8
0
  6
CONTINUOUS
 62
     2
 10
121.0
 20
57.75
 30
0.0
 11
120.352952387
 21
55.335185434
 31
0.0
  0
LINE
  8
0
  6
CONTINUOUS
 62
     2
 10
121.0
 20
57.75
 30
0.0
 11
121.647047613
 21
55.335185434
 31
0.0
  0
LINE
  8
0
  6
CONTINUOUS
 62
     2
 10
121.0
 20
57.75
 30
0.0
 11
121.0
 21
40.25
 31
0.0
  0
LINE
  8
0
  6
CONTINUOUS
 62
     2
 10
121.0
 20
40.25
 30
0.0
 11
121.647047613
 21
42.664814566
 31
0.0
  0
LINE
  8
0
  6
CONTINUOUS
 62
     2
 10
121.0
 20
40.25
 30
0.0
 11
120.352952387
 21
42.664814566
 31
0.0
  0
TEXT
  8
0
  6
CONTINUOUS
 62
     2
 10
120.0
 20
44.25
 30
0.5
 40
3.0
  1
３５．４
 50
90.0
 41
0.666666667
 51
0.0
  7
KANJI0
  0
LINE
  8
0
  6
CONTINUOUS
 62
     2
 10
107.5
 20
40.25
 30
0.0
 11
122.0
 21
40.25
 31
0.0
  0
LINE
  8
0
  6
CONTINUOUS
 62
     2
 10
107.5
 20
57.75
 30
0.0
 11
122.0
 21
57.75
 31
0.0
  0
TEXT
  8
0
  6
CONTINUOUS
 62
     1
 10
20.0
 20
171.0
 30
0.4
 40
4.0
  1
ＧＰシリーズ本体
 50
0.0
 41
0.9
 51
0.0
  7
KANJI5
  0
TEXT
  8
0
  6
CONTINUOUS
 62
     1
 10
20.0
 20
88.0
 30
0.4
 40
4.0
  1
ソケット
 50
0.0
 41
0.9
 51
0.0
  7
KANJI5
  0
TEXT
  8
0
  6
CONTINUOUS
 62
     1
 10
130.0
 20
88.0
 30
0.3
 40
4.0
  1
ソケットを取り付けた状態
 50
0.0
 41
0.675
 51
0.0
  7
KANJI6
  0
TEXT
  8
0
  6
CONTINUOUS
 62
     2
 10
78.5
 20
23.0
 30
0.0
 40
3.0
  1
端子ネジ　Ｍ３．５
 50
0.0
 41
0.9
 51
0.0
  7
KANJI7
  0
LINE
  8
0
  6
CONTINUOUS
 62
     2
 10
78.5
 20
22.0
 30
0.0
 11
101.0
 21
22.0
 31
0.0
  0
TEXT
  8
0
  6
CONTINUOUS
 62
     2
 10
78.5
 20
56.5
 30
0.0
 40
3.0
  1
２－φ４．５穴
 50
0.0
 41
0.6
 51
0.0
  7
KANJI8
  0
CIRCLE
  8
0
  6
CONTINUOUS
 62
     1
 10
194.125
 20
121.5
 30
0.0
 40
1.625
  0
CIRCLE
  8
0
  6
CONTINUOUS
 62
     1
 10
194.125
 20
116.5
 30
0.0
 40
1.625
  0
LINE
  8
0
  6
LTYPE2
 62
     2
 10
192.06125
 20
121.5
 30
0.0
 11
197.45875
 21
121.5
 31
0.0
  0
LINE
  8
0
  6
LTYPE2
 62
     2
 10
192.06125
 20
116.5
 30
0.0
 11
197.45875
 21
116.5
 31
0.0
  0
LINE
  8
0
  6
LTYPE2
 62
     2
 10
194.125
 20
114.11875
 30
0.0
 11
194.125
 21
123.8025
 31
0.0
  0
LINE
  8
0
  6
CONTINUOUS
 62
     2
 10
194.755
 20
114.544301584
 30
0.0
 11
195.330156435
 21
112.111361989
 31
0.0
  0
LINE
  8
0
  6
CONTINUOUS
 62
     2
 10
194.755
 20
114.544301584
 30
0.0
 11
196.469569882
 21
112.724892306
 31
0.0
  0
LINE
  8
0
  6
CONTINUOUS
 62
     2
 10
194.755
 20
114.544301584
 30
0.0
 11
201.055
 21
102.844301584
 31
0.0
  0
LINE
  8
0
  6
CONTINUOUS
 62
     2
 10
201.055
 20
102.844301584
 30
0.0
 11
215.055
 21
102.844301584
 31
0.0
  0
TEXT
  8
0
  6
CONTINUOUS
 62
     2
 10
201.855
 20
103.844301584
 30
0.5
 40
3.0
  1
出力調整器
 50
0.0
 41
0.733333333
 51
0.0
  7
KANJI9
  0
TEXT
  8
0
  6
CONTINUOUS
 62
     3
 10
235.0
 20
12.0
 30
0.2
 40
5.8
  1
ＹＭＳ－８１４１
 50
0.0
 41
0.827586207
 51
0.0
  7
KANJI10
  0
POINT
  8
0
  6
CONTINUOUS
 62
     1
 10
195.33
 20
129.0
 30
0.0
  0
LINE
  8
0
  6
CONTINUOUS
 62
     1
 10
195.33
 20
143.994
 30
0.0
 11
195.33
 21
124.002
 31
0.0
  0
LINE
  8
0
  6
CONTINUOUS
 62
     1
 10
195.33
 20
124.002
 30
0.0
 11
178.67
 21
124.002
 31
0.0
  0
LINE
  8
0
  6
CONTINUOUS
 62
     1
 10
178.67
 20
124.002
 30
0.0
 11
178.67
 21
143.994
 31
0.0
  0
LINE
  8
0
  6
CONTINUOUS
 62
     1
 10
178.67
 20
143.994
 30
0.0
 11
195.33
 21
143.994
 31
0.0
  0
TEXT
  8
0
  6
CONTINUOUS
 62
     1
 10
237.0
 20
35.0
 30
0.4
 40
4.0
  1
□ＧＰ－□
 50
0.0
 41
0.9
 51
0.0
  7
KANJI11
  0
TEXT
  8
0
  6
CONTINUOUS
 62
     1
 10
237.0
 20
25.0
 30
0.4
 40
4.0
  1
変換器　外形図
 50
0.0
 41
0.9
 51
0.0
  7
KANJI11
  0
ENDSEC
  0
EOF
